  0
SECTION
  2
HEADER
  9
$ACADVER
  1
AC1009
  9
$INSBASE
 10
0.0
 20
0.0
 30
0.0
  9
$EXTMIN
 10
-455.90513461025688
 20
-224.94505639763699
 30
-0.0015257624927045
  9
$EXTMAX
 10
996.1029168056574
 20
545.70008121163107
 30
50.001525995323327
  9
$LIMMIN
 10
-2970.0
 20
-2100.0
  9
$LIMMAX
 10
2970.0
 20
2100.0
  9
$ORTHOMODE
 70
     1
  9
$REGENMODE
 70
     1
  9
$FILLMODE
 70
     1
  9
$QTEXTMODE
 70
     0
  9
$MIRRTEXT
 70
     0
  9
$DRAGMODE
 70
     2
  9
$LTSCALE
 40
20.0
  9
$OSMODE
 70
    47
  9
$ATTMODE
 70
     1
  9
$TEXTSIZE
 40
64.0
  9
$TRACEWID
 40
0.05
  9
$TEXTSTYLE
  7
STANDARD
  9
$CLAYER
  8
NOTE
  9
$CELTYPE
  6
CONTINUOUS
  9
$CECOLOR
 62
     4
  9
$DIMSCALE
 40
1.0
  9
$DIMASZ
 40
40.0
  9
$DIMEXO
 40
20.0
  9
$DIMDLI
 40
200.0
  9
$DIMRND
 40
0.0
  9
$DIMDLE
 40
0.0
  9
$DIMEXE
 40
20.0
  9
$DIMTP
 40
0.0
  9
$DIMTM
 40
0.0
  9
$DIMTXT
 40
64.0
  9
$DIMCEN
 40
0.09
  9
$DIMTSZ
 40
0.0
  9
$DIMTOL
 70
     0
  9
$DIMLIM
 70
     0
  9
$DIMTIH
 70
     0
  9
$DIMTOH
 70
     0
  9
$DIMSE1
 70
     0
  9
$DIMSE2
 70
     0
  9
$DIMTAD
 70
     1
  9
$DIMZIN
 70
     8
  9
$DIMBLK
  1
NONE
  9
$DIMASO
 70
     1
  9
$DIMSHO
 70
     0
  9
$DIMPOST
  1

  9
$DIMAPOST
  1

  9
$DIMALT
 70
     0
  9
$DIMALTD
 70
     2
  9
$DIMALTF
 40
25.399999999999999
  9
$DIMLFAC
 40
1.0
  9
$DIMTOFL
 70
     1
  9
$DIMTVP
 40
0.0
  9
$DIMTIX
 70
     1
  9
$DIMSOXD
 70
     0
  9
$DIMSAH
 70
     0
  9
$DIMBLK1
  1
NONE
  9
$DIMBLK2
  1
ORIGIN
  9
$DIMSTYLE
  2
STANDARD
  9
$DIMCLRD
 70
   256
  9
$DIMCLRE
 70
   256
  9
$DIMCLRT
 70
   256
  9
$DIMTFAC
 40
1.0
  9
$DIMGAP
 40
25.0
  9
$LUNITS
 70
     2
  9
$LUPREC
 70
     4
  9
$SKETCHINC
 40
0.1
  9
$FILLETRAD
 40
5.0
  9
$AUNITS
 70
     1
  9
$AUPREC
 70
     3
  9
$MENU
  1
ACAD
  9
$ELEVATION
 40
0.0
  9
$PELEVATION
 40
0.0
  9
$THICKNESS
 40
50.0
  9
$LIMCHECK
 70
     0
  9
$BLIPMODE
 70
     0
  9
$CHAMFERA
 40
0.0
  9
$CHAMFERB
 40
0.0
  9
$SKPOLY
 70
     0
  9
$TDCREATE
 40
2453019.6230103709
  9
$TDUPDATE
 40
2455068.6084284959
  9
$TDINDWG
 40
0.3808441435
  9
$TDUSRTIMER
 40
0.3808437847
  9
$USRTIMER
 70
     1
  9
$ANGBASE
 50
0.0
  9
$ANGDIR
 70
     0
  9
$PDMODE
 70
     3
  9
$PDSIZE
 40
-2.0
  9
$PLINEWID
 40
0.0
  9
$COORDS
 70
     0
  9
$SPLFRAME
 70
     0
  9
$SPLINETYPE
 70
     6
  9
$SPLINESEGS
 70
     8
  9
$ATTDIA
 70
     0
  9
$ATTREQ
 70
     1
  9
$HANDLING
 70
     1
  9
$HANDSEED
  5
400
  9
$SURFTAB1
 70
     6
  9
$SURFTAB2
 70
     6
  9
$SURFTYPE
 70
     6
  9
$SURFU
 70
     6
  9
$SURFV
 70
     6
  9
$UCSNAME
  2

  9
$UCSORG
 10
0.0
 20
0.0
 30
0.0
  9
$UCSXDIR
 10
1.0
 20
0.0
 30
0.0
  9
$UCSYDIR
 10
0.0
 20
1.0
 30
0.0
  9
$PUCSNAME
  2

  9
$PUCSORG
 10
0.0
 20
0.0
 30
0.0
  9
$PUCSXDIR
 10
1.0
 20
0.0
 30
0.0
  9
$PUCSYDIR
 10
0.0
 20
1.0
 30
0.0
  9
$USERI1
 70
     0
  9
$USERI2
 70
     0
  9
$USERI3
 70
     0
  9
$USERI4
 70
     0
  9
$USERI5
 70
     0
  9
$USERR1
 40
20.0
  9
$USERR2
 40
0.0
  9
$USERR3
 40
0.0
  9
$USERR4
 40
0.0
  9
$USERR5
 40
0.0
  9
$WORLDVIEW
 70
     1
  9
$SHADEDGE
 70
     3
  9
$SHADEDIF
 70
    70
  9
$TILEMODE
 70
     1
  9
$MAXACTVP
 70
    48
  9
$PLIMCHECK
 70
     0
  9
$PEXTMIN
 10
-1.0000000000000000E+020
 20
-1.0000000000000000E+020
 30
-1.0000000000000000E+020
  9
$PEXTMAX
 10
1.0000000000000000E+020
 20
1.0000000000000000E+020
 30
1.0000000000000000E+020
  9
$PLIMMIN
 10
0.0
 20
0.0
  9
$PLIMMAX
 10
12.0
 20
9.0
  9
$UNITMODE
 70
     0
  9
$VISRETAIN
 70
     0
  9
$PLINEGEN
 70
     0
  9
$PSLTSCALE
 70
     0
  0
ENDSEC
  0
SECTION
  2
TABLES
  0
TABLE
  2
VPORT
 70
     1
  0
VPORT
  2
*ACTIVE
 70
     0
 10
0.0
 20
0.0
 11
1.0
 21
1.0
 12
286.15594444080227
 22
162.3579473608423
 13
0.0
 23
0.0
 14
1.0
 24
1.0
 15
0.0
 25
0.0
 16
0.0
 26
0.0
 36
1.0
 17
0.0
 27
0.0
 37
0.0
 40
1330.0414282119029
 41
1.2318059299191371
 42
50.0
 43
0.0
 44
0.0
 50
0.0
 51
0.0
 71
     0
 72
  1000
 73
     1
 74
     0
 75
     0
 76
     0
 77
     0
 78
     0
  0
ENDTAB
  0
TABLE
  2
LTYPE
 70
     3
  0
LTYPE
  2
CONTINUOUS
 70
     0
  3
実線
 72
    65
 73
     0
 40
0.0
  0
LTYPE
  2
DASHDOT
 70
     0
  3
____ _ ____ _ ____ _ ____ _ ____ _ ____ _ ____
 72
    65
 73
     4
 40
5.5
 49
4.0
 49
-0.6
 49
0.3
 49
-0.6
  0
LTYPE
  2
HIDDEN
 70
     0
  3
Hidden __ __ __ __ __ __ __ __ __ __ __ __ __ _
 72
    65
 73
     2
 40
0.375
 49
0.25
 49
-0.125
  0
ENDTAB
  0
TABLE
  2
LAYER
 70
    12
  0
LAYER
  2
0
 70
     0
 62
     7
  6
CONTINUOUS
  0
LAYER
  2
NOTE
 70
     0
 62
     4
  6
CONTINUOUS
  0
LAYER
  2
FIX
 70
     0
 62
    11
  6
CONTINUOUS
  0
LAYER
  2
BASIS
 70
     0
 62
     6
  6
DASHDOT
  0
LAYER
  2
OUTLINE
 70
     0
 62
     3
  6
CONTINUOUS
  0
LAYER
  2
DETAIL
 70
     0
 62
     5
  6
CONTINUOUS
  0
LAYER
  2
SIZE
 70
     0
 62
    30
  6
CONTINUOUS
  0
LAYER
  2
ARRANGE
 70
     0
 62
     1
  6
CONTINUOUS
  0
LAYER
  2
DEFPOINTS
 70
     0
 62
     7
  6
CONTINUOUS
  0
LAYER
  2
ETC
 70
     0
 62
    61
  6
CONTINUOUS
  0
LAYER
  2
SERVICESPACE
 70
     0
 62
     2
  6
DASHDOT
  0
LAYER
  2
SYMBOLLINE
 70
     0
 62
    15
  6
CONTINUOUS
  0
ENDTAB
  0
TABLE
  2
STYLE
 70
     2
  0
STYLE
  2
STANDARD
 70
     0
 40
64.0
 41
0.9
 50
0.0
 71
     0
 42
64.0
  3
SIMPLEX.shx
  4
BIGFONT.shx
  0
STYLE
  2
ANNOTATIVE
 70
     0
 40
0.0
 41
1.0
 50
0.0
 71
     0
 42
0.2
  3
txt
  4

  0
ENDTAB
  0
TABLE
  2
VIEW
 70
     1
  0
VIEW
  2
ALL
 70
     0
 40
4282.6198079999967
 10
0.0
 20
41.309903999999989
 41
5940.0
 11
0.0
 21
0.0
 31
1.0
 12
0.0
 22
0.0
 32
0.0
 42
50.0
 43
0.0
 44
0.0
 50
0.0
 71
     0
  0
ENDTAB
  0
TABLE
  2
UCS
 70
     0
  0
ENDTAB
  0
TABLE
  2
APPID
 70
     4
  0
APPID
  2
ACAD
 70
     0
  0
APPID
  2
ACADANNOTATIVE
 70
     0
  0
APPID
  2
ACAD_MLEADERVER
 70
     0
  0
APPID
  2
AUTOCAD_POSTSCRIPT_FIGURE
 70
     0
  0
ENDTAB
  0
TABLE
  2
DIMSTYLE
 70
     2
  0
DIMSTYLE
  2
STANDARD
 70
     0
  3

  4

  5

  6

  7

 40
1.0
 41
0.18
 42
0.0625
 43
0.38
 44
0.18
 45
0.0
 46
0.0
 47
0.0
 48
0.0
140
0.18
141
0.09
142
0.0
143
25.399999999999999
144
1.0
145
0.0
146
1.0
147
0.09
 71
     0
 72
     0
 73
     1
 74
     1
 75
     0
 76
     0
 77
     0
 78
     0
170
     0
171
     2
172
     0
173
     0
174
     0
175
     0
176
     7
177
     7
178
     7
  0
DIMSTYLE
  2
ANNOTATIVE
 70
     0
  3

  4

  5

  6

  7

 40
1.0
 41
0.18
 42
0.0625
 43
0.38
 44
0.18
 45
0.0
 46
0.0
 47
0.0
 48
0.0
140
0.18
141
0.09
142
0.0
143
25.399999999999999
144
1.0
145
0.0
146
1.0
147
0.09
 71
     0
 72
     0
 73
     1
 74
     1
 75
     0
 76
     0
 77
     0
 78
     0
170
     0
171
     2
172
     0
173
     0
174
     0
175
     0
176
     0
177
     0
178
     0
  0
ENDTAB
  0
ENDSEC
  0
SECTION
  2
BLOCKS
  0
BLOCK
  8
0
  2
$MODEL_SPACE
 70
     0
 10
0.0
 20
0.0
 30
0.0
  3
$MODEL_SPACE
  1

  0
ENDBLK
  5
3A7
  8
0
  0
BLOCK
 67
     1
  8
0
  2
$PAPER_SPACE
 70
     0
 10
0.0
 20
0.0
 30
0.0
  3
$PAPER_SPACE
  1

  0
ENDBLK
  5
3A3
 67
     1
  8
0
  0
BLOCK
  8
0
  2
DOT1
 70
     0
 10
0.0
 20
0.0
 30
0.0
  3
DOT1
  1

  0
CIRCLE
  5
264
  8
SIZE
  6
CONTINUOUS
 62
     7
 10
0.0
 20
0.0
 30
0.0
 40
3.0
  0
ENDBLK
  5
265
  8
0
  0
BLOCK
  8
0
  2
_ORIGIN
 70
     0
 10
0.0
 20
0.0
 30
0.0
  3
_ORIGIN
  1

  0
CIRCLE
  5
268
  8
0
  6
CONTINUOUS
 62
     7
 10
0.0
 20
0.0
 30
0.0
 40
0.5
  0
LINE
  5
269
  8
0
  6
CONTINUOUS
 62
     7
 10
0.0
 20
0.0
 30
0.0
 11
-1.0
 21
0.0
 31
0.0
  0
ENDBLK
  5
26A
  8
0
  0
BLOCK
  8
0
 62
     4
  2
_NONE
 70
     0
 10
0.0
 20
0.0
 30
0.0
  3
_NONE
  1

  0
ENDBLK
  5
26D
  8
0
 62
     4
  0
BLOCK
  8
0
 62
     4
  2
_OPEN30
 70
     0
 10
0.0
 20
0.0
 30
0.0
  3
_OPEN30
  1

  0
LINE
  5
270
  8
0
  6
BYBLOCK
 62
     0
 10
-1.0
 20
0.26794919
 30
0.0
 11
0.0
 21
0.0
 31
0.0
  0
LINE
  5
271
  8
0
  6
BYBLOCK
 62
     0
 10
0.0
 20
0.0
 30
0.0
 11
-1.0
 21
-0.26794919
 31
0.0
  0
LINE
  5
272
  8
0
  6
BYBLOCK
 62
     0
 10
0.0
 20
0.0
 30
0.0
 11
-1.0
 21
0.0
 31
0.0
  0
ENDBLK
  5
273
  8
0
 62
     4
  0
ENDSEC
  0
SECTION
  2
ENTITIES
  0
LINE
  5
274
  8
BASIS
  6
DASHDOT
 62
     6
 39
50.0
 10
0.0
 20
89.679288000000014
 30
0.0
 11
0.0
 21
-74.882718000000025
 31
0.0
  0
POINT
  5
275
  8
ARRANGE
  6
CONTINUOUS
 62
     1
 10
0.0
 20
0.0
 30
0.0
 39
50.0
  0
CIRCLE
  5
276
  8
ARRANGE
  6
CONTINUOUS
 62
     1
 39
50.0
 10
0.0
 20
0.0
 30
0.0
 40
40.0
  0
LINE
  5
277
  8
DETAIL
  6
CONTINUOUS
 62
     5
 39
50.0
 10
-105.0
 20
0.0
 30
0.0
 11
105.0
 21
0.0
 31
0.0
  0
LINE
  5
278
  8
DETAIL
  6
CONTINUOUS
 62
     5
 39
50.0
 10
-70.0
 20
0.0
 30
0.0
 11
-70.0
 21
60.0
 31
0.0
  0
LINE
  5
279
  8
DETAIL
  6
CONTINUOUS
 62
     5
 39
50.0
 10
-70.0
 20
60.0
 30
0.0
 11
70.0
 21
60.0
 31
0.0
  0
LINE
  5
27A
  8
DETAIL
  6
CONTINUOUS
 62
     5
 39
50.0
 10
70.0
 20
60.0
 30
0.0
 11
70.0
 21
0.0
 31
0.0
  0
LINE
  5
27B
  8
DETAIL
  6
CONTINUOUS
 62
     5
 39
50.0
 10
31.5
 20
60.0
 30
0.0
 11
31.5
 21
67.0
 31
0.0
  0
LINE
  5
27C
  8
DETAIL
  6
CONTINUOUS
 62
     5
 39
50.0
 10
26.5
 20
72.0
 30
0.0
 11
-26.5
 21
72.0
 31
0.0
  0
LINE
  5
27D
  8
DETAIL
  6
CONTINUOUS
 62
     5
 39
50.0
 10
-31.5
 20
67.0
 30
0.0
 11
-31.5
 21
60.0
 31
0.0
  0
ARC
  5
27E
  8
DETAIL
  6
CONTINUOUS
 62
     5
 39
50.0
 10
-26.5
 20
67.0
 30
0.0
 40
5.0
 50
90.0
 51
180.0
  0
ARC
  5
27F
  8
DETAIL
  6
CONTINUOUS
 62
     5
 39
50.0
 10
26.5
 20
67.0
 30
0.0
 40
5.0
 50
0.0
 51
90.0
  0
LINE
  5
280
  8
OUTLINE
  6
CONTINUOUS
 62
     3
 39
50.0
 10
26.5
 20
72.0
 30
0.0
 11
-26.5
 21
72.0
 31
0.0
  0
ARC
  5
281
  8
OUTLINE
  6
CONTINUOUS
 62
     3
 39
50.0
 10
-26.5
 20
67.0
 30
0.0
 40
5.0
 50
90.0
 51
180.0
  0
LINE
  5
282
  8
OUTLINE
  6
CONTINUOUS
 62
     3
 39
50.0
 10
-31.5
 20
67.0
 30
0.0
 11
-31.5
 21
60.0
 31
0.0
  0
ARC
  5
283
  8
OUTLINE
  6
CONTINUOUS
 62
     3
 39
50.0
 10
26.5
 20
67.0
 30
0.0
 40
5.0
 50
0.0
 51
90.0
  0
LINE
  5
284
  8
OUTLINE
  6
CONTINUOUS
 62
     3
 39
50.0
 10
31.5
 20
60.0
 30
0.0
 11
31.5
 21
67.0
 31
0.0
  0
LINE
  5
285
  8
OUTLINE
  6
CONTINUOUS
 62
     3
 39
50.0
 10
-70.0
 20
60.0
 30
0.0
 11
70.0
 21
60.0
 31
0.0
  0
LINE
  5
286
  8
OUTLINE
  6
CONTINUOUS
 62
     3
 39
50.0
 10
-70.0
 20
0.0
 30
0.0
 11
-70.0
 21
60.0
 31
0.0
  0
LINE
  5
287
  8
OUTLINE
  6
CONTINUOUS
 62
     3
 39
50.0
 10
-105.0
 20
0.0
 30
0.0
 11
105.0
 21
0.0
 31
0.0
  0
LINE
  5
288
  8
OUTLINE
  6
CONTINUOUS
 62
     3
 39
50.0
 10
70.0
 20
60.0
 30
0.0
 11
70.0
 21
0.0
 31
0.0
  0
LINE
  5
289
  8
NOTE
  6
CONTINUOUS
 62
     4
 10
95.0
 20
-20.0
 30
0.0
 11
95.0
 21
20.0
 31
0.0
  0
LINE
  5
28A
  8
NOTE
  6
CONTINUOUS
 62
     4
 10
75.0
 20
0.0
 30
0.0
 11
115.0
 21
0.0
 31
0.0
  0
LINE
  5
28B
  8
NOTE
  6
CONTINUOUS
 62
     4
 10
-95.0
 20
-20.0
 30
0.0
 11
-95.0
 21
20.0
 31
0.0
  0
LINE
  5
28C
  8
NOTE
  6
CONTINUOUS
 62
     4
 10
-115.0
 20
0.0
 30
0.0
 11
-75.0
 21
0.0
 31
0.0
  0
LINE
  5
28D
  8
SIZE
  6
CONTINUOUS
 62
    30
 10
-95.0
 20
20.0
 30
0.0
 11
-95.0
 21
451.80838776513559
 31
0.0
  0
LINE
  5
28E
  8
SIZE
  6
CONTINUOUS
 62
    30
 10
95.0
 20
20.0
 30
0.0
 11
95.0
 21
451.80838776513559
 31
0.0
  0
LINE
  5
28F
  8
SIZE
  6
CONTINUOUS
 62
    30
 10
-83.0
 20
431.38757642362282
 30
0.0
 11
83.0
 21
431.38757642362282
 31
0.0
  0
CIRCLE
  5
290
  8
SIZE
  6
CONTINUOUS
 62
    30
 10
-95.0
 20
431.38757642362282
 30
0.0
 40
6.0
  0
LINE
  5
291
  8
SIZE
  6
CONTINUOUS
 62
    30
 10
-95.0
 20
431.38757642362282
 30
0.0
 11
-83.0
 21
431.38757642362282
 31
0.0
  0
CIRCLE
  5
292
  8
SIZE
  6
CONTINUOUS
 62
    30
 10
95.0
 20
431.38757642362282
 30
0.0
 40
6.0
  0
LINE
  5
293
  8
SIZE
  6
CONTINUOUS
 62
    30
 10
95.0
 20
431.38757642362282
 30
0.0
 11
83.0
 21
431.38757642362282
 31
0.0
  0
TEXT
  5
294
  8
SIZE
  6
CONTINUOUS
 62
    30
 10
-68.571428571428569
 20
456.38757642362282
 30
0.0
 40
64.0
  1
190
 41
0.9
 72
     1
 11
0.0
 21
456.38757642362282
 31
0.0
  0
LINE
  5
295
  8
SIZE
  6
CONTINUOUS
 62
    30
 10
-70.0
 20
80.0
 30
0.0
 11
-70.0
 21
346.0405988484676
 31
0.0
  0
LINE
  5
296
  8
SIZE
  6
CONTINUOUS
 62
    30
 10
70.0
 20
80.0
 30
0.0
 11
70.0
 21
347.24250596723681
 31
0.0
  0
LINE
  5
297
  8
SIZE
  6
CONTINUOUS
 62
    30
 10
58.0
 20
323.20437242362271
 30
0.0
 11
-58.0
 21
323.20437242362271
 31
0.0
  0
LINE
  5
298
  8
SIZE
  6
CONTINUOUS
 62
    30
 10
-70.0
 20
323.20437242362271
 30
0.0
 11
-353.31051200000002
 21
323.20437242362271
 31
0.0
  0
CIRCLE
  5
299
  8
SIZE
  6
CONTINUOUS
 62
    30
 10
70.0
 20
323.20437242362271
 30
0.0
 40
6.0
  0
LINE
  5
29A
  8
SIZE
  6
CONTINUOUS
 62
    30
 10
70.0
 20
323.20437242362271
 30
0.0
 11
58.0
 21
323.20437242362271
 31
0.0
  0
CIRCLE
  5
29B
  8
SIZE
  6
CONTINUOUS
 62
    30
 10
-70.0
 20
323.20437242362271
 30
0.0
 40
6.0
  0
LINE
  5
29C
  8
SIZE
  6
CONTINUOUS
 62
    30
 10
-70.0
 20
323.20437242362271
 30
0.0
 11
-58.0
 21
323.20437242362271
 31
0.0
  0
TEXT
  5
29D
  8
SIZE
  6
CONTINUOUS
 62
    30
 10
-342.57336857142849
 20
348.20437242362271
 30
0.0
 40
64.0
  1
φ140
 41
0.9
 72
     1
 11
-233.68193999999991
 21
348.20437242362271
 31
0.0
  0
LINE
  5
29E
  8
NOTE
  6
CONTINUOUS
 62
     4
 10
110.54838100000001
 20
36.854413999999998
 30
0.0
 11
95.0
 21
0.0
 31
0.0
  0
LINE
  5
29F
  8
NOTE
  6
CONTINUOUS
 62
     4
 10
95.0
 20
0.0
 30
0.0
 11
126.892501
 21
24.142668
 31
0.0
  0
TEXT
  5
2A0
  8
NOTE
  6
CONTINUOUS
 62
     4
 10
151.90312999999981
 20
89.716707999999983
 30
0.0
 40
64.0
  1
2ヶ所×4×10取付用長穴
 41
0.9
  0
LINE
  5
2A1
  8
NOTE
  6
CONTINUOUS
 62
     4
 39
50.0
 10
95.0
 20
0.0
 30
0.0
 11
143.71370099999979
 21
60.011961999999983
 31
0.0
  0
LINE
  5
2A2
  8
NOTE
  6
CONTINUOUS
 62
     4
 39
50.0
 10
143.71370099999979
 20
60.011961999999983
 30
0.0
 11
996.00388499999997
 21
60.011961999999983
 31
0.0
  0
LINE
  5
2A3
  8
SIZE
  6
CONTINUOUS
 62
    30
 10
-90.0
 20
60.0
 30
0.0
 11
-243.3976974835557
 21
60.0
 31
0.0
  0
LINE
  5
2A4
  8
SIZE
  6
CONTINUOUS
 62
    30
 10
-125.0
 20
0.0
 30
0.0
 11
-387.68694036327003
 21
0.0
 31
0.0
  0
LINE
  5
2A5
  8
SIZE
  6
CONTINUOUS
 62
    30
 10
-221.93731560907139
 20
72.0
 30
0.0
 11
-221.93731560907139
 21
227.25714300000001
 31
0.0
  0
LINE
  5
2A6
  8
SIZE
  6
CONTINUOUS
 62
    30
 10
-221.93731560907139
 20
0.0
 30
0.0
 11
-221.93731560907139
 21
60.0
 31
0.0
  0
CIRCLE
  5
2A7
  8
SIZE
  6
CONTINUOUS
 62
    30
 10
-221.93731560907139
 20
0.0
 30
0.0
 40
6.0
  0
CIRCLE
  5
2A8
  8
SIZE
  6
CONTINUOUS
 62
    30
 10
-221.93731560907139
 20
60.0
 30
0.0
 40
6.0
  0
LINE
  5
2A9
  8
SIZE
  6
CONTINUOUS
 62
    30
 10
-221.93731560907139
 20
60.0
 30
0.0
 11
-221.93731560907139
 21
72.0
 31
0.0
  0
TEXT
  5
2AA
  8
SIZE
  6
CONTINUOUS
 62
    30
 10
-246.93731560907139
 20
108.9999995714286
 30
0.0
 40
64.0
  1
60
 50
90.0
 41
0.9
 72
     1
 11
-246.93731560907139
 21
155.62857099999999
 31
0.0
  0
LINE
  5
2AB
  8
SIZE
  6
CONTINUOUS
 62
    30
 10
-46.5
 20
72.0
 30
0.0
 11
-387.68694036327003
 21
72.0
 31
0.0
  0
LINE
  5
2AC
  8
SIZE
  6
CONTINUOUS
 62
    30
 10
-366.62312560907122
 20
12.0
 30
0.0
 11
-366.62312560907122
 21
65.0
 31
0.0
  0
LINE
  5
2AD
  8
SIZE
  6
CONTINUOUS
 62
    30
 10
-366.62312560907122
 20
77.0
 30
0.0
 11
-366.62312560907122
 21
232.2571429999999
 31
0.0
  0
CIRCLE
  5
2AE
  8
SIZE
  6
CONTINUOUS
 62
    30
 10
-366.62312560907122
 20
0.0
 30
0.0
 40
6.0
  0
LINE
  5
2AF
  8
SIZE
  6
CONTINUOUS
 62
    30
 10
-366.62312560907122
 20
0.0
 30
0.0
 11
-366.62312560907122
 21
12.0
 31
0.0
  0
CIRCLE
  5
2B0
  8
SIZE
  6
CONTINUOUS
 62
    30
 10
-366.62312560907122
 20
72.0
 30
0.0
 40
6.0
  0
LINE
  5
2B1
  8
SIZE
  6
CONTINUOUS
 62
    30
 10
-366.62312560907122
 20
77.0
 30
0.0
 11
-366.62312560907122
 21
65.0
 31
0.0
  0
TEXT
  5
2B2
  8
SIZE
  6
CONTINUOUS
 62
    30
 10
-391.62312560907122
 20
113.9999995714285
 30
0.0
 40
64.0
  1
72
 50
90.0
 41
0.9
 72
     1
 11
-391.62312560907122
 21
160.62857099999991
 31
0.0
  0
LINE
  5
2B3
  8
DETAIL
  6
CONTINUOUS
 62
     5
 39
50.0
 10
-105.0
 20
0.0
 30
0.0
 11
105.0
 21
0.0
 31
0.0
  0
LINE
  5
2B4
  8
DETAIL
  6
CONTINUOUS
 62
     5
 39
50.0
 10
105.0
 20
0.0
 30
0.0
 11
105.0
 21
-29.445115000000001
 31
0.0
  0
LINE
  5
2B5
  8
DETAIL
  6
CONTINUOUS
 62
     5
 39
50.0
 10
-105.0
 20
-29.445115000000001
 30
0.0
 11
-105.0
 21
0.0
 31
0.0
  0
ARC
  5
2B6
  8
DETAIL
  6
CONTINUOUS
 62
     5
 39
50.0
 10
0.0
 20
1066.0
 30
0.0
 40
1105.0
 50
264.78409099999988
 51
275.21590900000001
  0
ARC
  5
2B7
  8
DETAIL
  6
CONTINUOUS
 62
     5
 39
50.0
 10
-100.0
 20
-29.445115000000001
 30
0.0
 40
5.0
 50
180.0
 51
264.78409099999988
  0
ARC
  5
2B8
  8
DETAIL
  6
CONTINUOUS
 62
     5
 39
50.0
 10
100.0
 20
-29.445115000000001
 30
0.0
 40
5.0
 50
275.21590900000001
 51
0.0
  0
ARC
  5
2B9
  8
OUTLINE
  6
CONTINUOUS
 62
     3
 39
50.0
 10
100.0
 20
-29.445115000000001
 30
0.0
 40
5.0
 50
275.21590900000001
 51
0.0
  0
ARC
  5
2BA
  8
OUTLINE
  6
CONTINUOUS
 62
     3
 39
50.0
 10
0.0
 20
1066.0
 30
0.0
 40
1105.0
 50
264.78409099999988
 51
275.21590900000001
  0
LINE
  5
2BB
  8
OUTLINE
  6
CONTINUOUS
 62
     3
 39
50.0
 10
105.0
 20
0.0
 30
0.0
 11
105.0
 21
-29.445115000000001
 31
0.0
  0
ARC
  5
2BC
  8
OUTLINE
  6
CONTINUOUS
 62
     3
 39
50.0
 10
-100.0
 20
-29.445115000000001
 30
0.0
 40
5.0
 50
180.0
 51
264.78409099999988
  0
LINE
  5
2BD
  8
OUTLINE
  6
CONTINUOUS
 62
     3
 39
50.0
 10
-105.0
 20
-29.445115000000001
 30
0.0
 11
-105.0
 21
0.0
 31
0.0
  0
LINE
  5
2BE
  8
OUTLINE
  6
CONTINUOUS
 62
     3
 39
50.0
 10
-105.0
 20
0.0
 30
0.0
 11
105.0
 21
0.0
 31
0.0
  0
LINE
  5
2BF
  8
SIZE
  6
CONTINUOUS
 62
    30
 10
-20.0
 20
-39.0
 30
0.0
 11
-387.68694036327003
 21
-39.0
 31
0.0
  0
LINE
  5
2C0
  8
SIZE
  6
CONTINUOUS
 62
    30
 10
-366.62312560907122
 20
12.0
 30
0.0
 11
-366.62312560907122
 21
24.0
 31
0.0
  0
LINE
  5
2C1
  8
SIZE
  6
CONTINUOUS
 62
    30
 10
-366.62312560907122
 20
-51.0
 30
0.0
 11
-366.62312560907122
 21
-203.514286
 31
0.0
  0
LINE
  5
2C2
  8
SIZE
  6
CONTINUOUS
 62
    30
 10
-366.62312560907122
 20
0.0
 30
0.0
 11
-366.62312560907122
 21
-39.0
 31
0.0
  0
CIRCLE
  5
2C3
  8
SIZE
  6
CONTINUOUS
 62
    30
 10
-366.62312560907122
 20
0.0
 30
0.0
 40
6.0
  0
LINE
  5
2C4
  8
SIZE
  6
CONTINUOUS
 62
    30
 10
-366.62312560907122
 20
0.0
 30
0.0
 11
-366.62312560907122
 21
12.0
 31
0.0
  0
CIRCLE
  5
2C5
  8
SIZE
  6
CONTINUOUS
 62
    30
 10
-366.62312560907122
 20
-39.0
 30
0.0
 40
6.0
  0
LINE
  5
2C6
  8
SIZE
  6
CONTINUOUS
 62
    30
 10
-366.62312560907122
 20
-39.0
 30
0.0
 11
-366.62312560907122
 21
-51.0
 31
0.0
  0
TEXT
  5
2C7
  8
SIZE
  6
CONTINUOUS
 62
    30
 10
-391.62312560907122
 20
-178.51428585714271
 30
0.0
 40
64.0
  1
39
 50
90.0
 41
0.9
 72
     1
 11
-391.62312560907122
 21
-133.2571429999999
 31
0.0
  0
LINE
  5
2C8
  8
SIZE
  6
CONTINUOUS
 62
    30
 10
-105.0
 20
-49.445115000000001
 30
0.0
 11
-105.0
 21
-224.7744941512708
 31
0.0
  0
LINE
  5
2C9
  8
SIZE
  6
CONTINUOUS
 62
    30
 10
105.0
 20
-49.445115000000001
 30
0.0
 11
105.0
 21
-223.57258703250159
 31
0.0
  0
LINE
  5
2CA
  8
SIZE
  6
CONTINUOUS
 62
    30
 10
-105.0
 20
-204.47359689992209
 30
0.0
 11
105.0
 21
-204.47359689992209
 31
0.0
  0
CIRCLE
  5
2CB
  8
SIZE
  6
CONTINUOUS
 62
    30
 10
-105.0
 20
-204.47359689992209
 30
0.0
 40
6.0
  0
CIRCLE
  5
2CC
  8
SIZE
  6
CONTINUOUS
 62
    30
 10
105.0
 20
-204.47359689992209
 30
0.0
 40
6.0
  0
TEXT
  5
2CD
  8
SIZE
  6
CONTINUOUS
 62
    30
 10
-105.0514285714286
 20
-179.47359689992209
 30
0.0
 40
64.0
  1
□210
 41
0.9
 72
     1
 11
0.0
 21
-179.47359689992209
 31
0.0
  0
LINE
  5
2CE
  8
NOTE
  6
CONTINUOUS
 62
     4
 10
75.0
 20
-37.600000000000001
 30
0.0
 11
75.0
 21
2.3999999999999981
 31
0.0
  0
LINE
  5
2CF
  8
NOTE
  6
CONTINUOUS
 62
     4
 10
55.0
 20
-17.600000000000001
 30
0.0
 11
95.0
 21
-17.600000000000001
 31
0.0
  0
TEXT
  5
2D0
  8
NOTE
  6
CONTINUOUS
 62
     4
 10
160.572924
 20
-75.690271986911284
 30
0.0
 40
64.0
  1
EL
 41
0.9
  0
TEXT
  5
2D1
  8
ETC
  6
CONTINUOUS
 62
    61
 10
363.28047128999839
 20
495.5670736223118
 30
0.0
 40
50.0
  1
V-12PLD6_6
 41
0.9
  0
TEXT
  5
2D2
  8
ETC
  6
CONTINUOUS
 62
    61
 10
357.8546272899984
 20
426.57788804098573
 30
0.0
 40
50.0
  1
換気扇
 41
0.9
  0
TEXT
  5
2D3
  8
ETC
  6
CONTINUOUS
 62
    61
 10
467.7398794616297
 20
368.95241962231171
 30
0.0
 40
40.0
  1
V-12PLD6
 41
0.9
  0
CIRCLE
  5
2D4
  8
FIX
  6
CONTINUOUS
 62
    11
 39
50.0
 10
-95.0
 20
0.0
 30
0.0
 40
2.0
  0
CIRCLE
  5
2D5
  8
FIX
  6
CONTINUOUS
 62
    11
 39
50.0
 10
95.0
 20
0.0
 30
0.0
 40
2.0
  0
LINE
  5
2D6
  8
NOTE
  6
CONTINUOUS
 62
     4
 10
104.9715101684767
 20
-44.089782524982851
 30
0.0
 11
157.59546675202631
 21
-90.600524148157064
 31
0.0
1001
ACAD
1000
DSTYLE
1002
{
1070
    41
1040
40.0
1070
    42
1040
20.0
1070
    43
1040
200.0
1070
    44
1040
20.0
1070
    73
1070
     0
1070
    74
1070
     0
1070
    77
1070
     0
1070
    78
1070
     8
1070
   140
1040
64.0
1070
   147
1040
25.0
1070
   172
1070
     1
1070
   174
1070
     1
1070
   176
1070
   256
1070
   177
1070
   256
1070
   178
1070
   256
1070
   275
1070
     0
1070
   279
1070
     0
1070
   284
1070
     0
1070
   285
1070
     0
1070
   286
1070
     0
1070
   341
1005
1D6
1070
   342
1005
1D3
1070
   343
1005
1D3
1070
   344
1005
167
1002
}
  0
LINE
  5
2D7
  8
NOTE
  6
CONTINUOUS
 62
     4
 10
157.59546675202631
 20
-90.600524148157064
 30
0.0
 11
252.5186493043411
 21
-90.600524148157064
 31
0.0
1001
ACAD
1000
DSTYLE
1002
{
1070
    41
1040
40.0
1070
    42
1040
20.0
1070
    43
1040
200.0
1070
    44
1040
20.0
1070
    73
1070
     0
1070
    74
1070
     0
1070
    77
1070
     0
1070
    78
1070
     8
1070
   140
1040
64.0
1070
   147
1040
25.0
1070
   172
1070
     1
1070
   174
1070
     1
1070
   176
1070
   256
1070
   177
1070
   256
1070
   178
1070
   256
1070
   275
1070
     0
1070
   279
1070
     0
1070
   284
1070
     0
1070
   285
1070
     0
1070
   286
1070
     0
1070
   341
1005
1D6
1070
   342
1005
1D3
1070
   343
1005
1D3
1070
   344
1005
167
1002
}
  0
LINE
  5
2D8
  8
NOTE
  6
BYBLOCK
 62
     4
 10
97.873594397631564
 20
-52.120624397703011
 30
0.0
 11
75.0
 21
-17.600000000000001
 31
0.0
  0
LINE
  5
2D9
  8
NOTE
  6
BYBLOCK
 62
     4
 10
75.0
 20
-17.600000000000001
 30
0.0
 11
112.069425939322
 21
-36.05894065226272
 31
0.0
  0
LINE
  5
2DA
  8
NOTE
  6
BYBLOCK
 62
     4
 10
75.0
 20
-17.600000000000001
 30
0.0
 11
104.9715101684767
 21
-44.089782524982851
 31
0.0
  0
LINE
  5
2ED
  8
DETAIL
  6
HIDDEN
 62
     5
 39
50.0
 10
89.0
 20
-13.1
 30
0.0
 11
61.0
 21
-13.099999999999961
 31
0.0
  0
LINE
  5
2EE
  8
DETAIL
  6
HIDDEN
 62
     5
 39
50.0
 10
61.0
 20
-22.100000000000001
 30
0.0
 11
89.0
 21
-22.100000000000001
 31
0.0
  0
LINE
  5
2EF
  8
DETAIL
  6
HIDDEN
 62
     5
 39
50.0
 10
61.0
 20
-13.1
 30
0.0
 11
61.0
 21
-22.100000000000001
 31
0.0
  0
LINE
  5
2F0
  8
DETAIL
  6
HIDDEN
 62
     5
 39
50.0
 10
89.0
 20
-22.100000000000001
 30
0.0
 11
89.0
 21
-13.1
 31
0.0
  0
ENDSEC
  0
EOF
