  0
SECTION
  2
HEADER
  9
$ACADVER
  1
AC1009
  9
$INSBASE
 10
0.0
 20
0.0
 30
0.0
  9
$EXTMIN
 10
-404.93255299999993
 20
-203.514286
 30
0.0
  9
$EXTMAX
 10
996.00388499999997
 20
634.57197155302231
 30
50.0
  9
$LIMMIN
 10
-2970.0
 20
-2100.0
  9
$LIMMAX
 10
2970.0
 20
2100.0
  9
$ORTHOMODE
 70
     1
  9
$REGENMODE
 70
     1
  9
$FILLMODE
 70
     1
  9
$QTEXTMODE
 70
     0
  9
$MIRRTEXT
 70
     0
  9
$DRAGMODE
 70
     2
  9
$LTSCALE
 40
20.0
  9
$OSMODE
 70
   421
  9
$ATTMODE
 70
     1
  9
$TEXTSIZE
 40
64.0
  9
$TRACEWID
 40
0.05
  9
$TEXTSTYLE
  7
STANDARD
  9
$CLAYER
  8
FIX
  9
$CELTYPE
  6
CONTINUOUS
  9
$CECOLOR
 62
    11
  9
$DIMSCALE
 40
1.0
  9
$DIMASZ
 40
12.0
  9
$DIMEXO
 40
20.0
  9
$DIMDLI
 40
200.0
  9
$DIMRND
 40
0.0
  9
$DIMDLE
 40
0.0
  9
$DIMEXE
 40
20.0
  9
$DIMTP
 40
0.0
  9
$DIMTM
 40
0.0
  9
$DIMTXT
 40
64.0
  9
$DIMCEN
 40
0.09
  9
$DIMTSZ
 40
0.0
  9
$DIMTOL
 70
     0
  9
$DIMLIM
 70
     0
  9
$DIMTIH
 70
     0
  9
$DIMTOH
 70
     0
  9
$DIMSE1
 70
     0
  9
$DIMSE2
 70
     0
  9
$DIMTAD
 70
     1
  9
$DIMZIN
 70
     8
  9
$DIMBLK
  1
DOT1
  9
$DIMASO
 70
     1
  9
$DIMSHO
 70
     0
  9
$DIMPOST
  1

  9
$DIMAPOST
  1

  9
$DIMALT
 70
     0
  9
$DIMALTD
 70
     2
  9
$DIMALTF
 40
25.399999999999999
  9
$DIMLFAC
 40
1.0
  9
$DIMTOFL
 70
     1
  9
$DIMTVP
 40
0.0
  9
$DIMTIX
 70
     1
  9
$DIMSOXD
 70
     0
  9
$DIMSAH
 70
     1
  9
$DIMBLK1
  1
ORIGIN
  9
$DIMBLK2
  1
ORIGIN
  9
$DIMSTYLE
  2
STANDARD
  9
$DIMCLRD
 70
     7
  9
$DIMCLRE
 70
     7
  9
$DIMCLRT
 70
     7
  9
$DIMTFAC
 40
1.0
  9
$DIMGAP
 40
25.0
  9
$LUNITS
 70
     2
  9
$LUPREC
 70
     4
  9
$SKETCHINC
 40
0.1
  9
$FILLETRAD
 40
5.0
  9
$AUNITS
 70
     1
  9
$AUPREC
 70
     3
  9
$MENU
  1
ACAD
  9
$ELEVATION
 40
0.0
  9
$PELEVATION
 40
0.0
  9
$THICKNESS
 40
50.0
  9
$LIMCHECK
 70
     0
  9
$BLIPMODE
 70
     0
  9
$CHAMFERA
 40
0.0
  9
$CHAMFERB
 40
0.0
  9
$SKPOLY
 70
     0
  9
$TDCREATE
 40
2453019.6230103699
  9
$TDUPDATE
 40
2454722.397036308
  9
$TDINDWG
 40
0.3978894213
  9
$TDUSRTIMER
 40
0.3978892361
  9
$USRTIMER
 70
     1
  9
$ANGBASE
 50
0.0
  9
$ANGDIR
 70
     0
  9
$PDMODE
 70
     3
  9
$PDSIZE
 40
-2.0
  9
$PLINEWID
 40
0.0
  9
$COORDS
 70
     2
  9
$SPLFRAME
 70
     0
  9
$SPLINETYPE
 70
     6
  9
$SPLINESEGS
 70
     8
  9
$ATTDIA
 70
     0
  9
$ATTREQ
 70
     1
  9
$HANDLING
 70
 22529
  9
$HANDSEED
  5
23E
  9
$SURFTAB1
 70
     6
  9
$SURFTAB2
 70
     6
  9
$SURFTYPE
 70
     6
  9
$SURFU
 70
     6
  9
$SURFV
 70
     6
  9
$UCSNAME
  2

  9
$UCSORG
 10
0.0
 20
0.0
 30
0.0
  9
$UCSXDIR
 10
1.0
 20
0.0
 30
0.0
  9
$UCSYDIR
 10
0.0
 20
1.0
 30
0.0
  9
$PUCSNAME
  2

  9
$PUCSORG
 10
0.0
 20
0.0
 30
0.0
  9
$PUCSXDIR
 10
1.0
 20
0.0
 30
0.0
  9
$PUCSYDIR
 10
0.0
 20
1.0
 30
0.0
  9
$USERI1
 70
     0
  9
$USERI2
 70
     0
  9
$USERI3
 70
     0
  9
$USERI4
 70
     0
  9
$USERI5
 70
     0
  9
$USERR1
 40
20.0
  9
$USERR2
 40
0.0
  9
$USERR3
 40
0.0
  9
$USERR4
 40
0.0
  9
$USERR5
 40
0.0
  9
$WORLDVIEW
 70
     1
  9
$SHADEDGE
 70
     3
  9
$SHADEDIF
 70
    70
  9
$TILEMODE
 70
     1
  9
$MAXACTVP
 70
    48
  9
$PLIMCHECK
 70
     0
  9
$PEXTMIN
 10
-1.0000000000000000E+020
 20
-1.0000000000000000E+020
 30
-1.0000000000000000E+020
  9
$PEXTMAX
 10
1.0000000000000000E+020
 20
1.0000000000000000E+020
 30
1.0000000000000000E+020
  9
$PLIMMIN
 10
0.0
 20
0.0
  9
$PLIMMAX
 10
12.0
 20
9.0
  9
$UNITMODE
 70
     0
  9
$VISRETAIN
 70
     0
  9
$PLINEGEN
 70
     0
  9
$PSLTSCALE
 70
     0
  0
ENDSEC
  0
SECTION
  2
TABLES
  0
TABLE
  2
VPORT
 70
     3
  0
VPORT
  2
*ACTIVE
 70
     0
 10
0.0
 20
0.0
 11
1.0
 21
1.0
 12
295.53187083256847
 22
215.53281953690541
 13
0.0
 23
0.0
 14
1.0
 24
1.0
 15
0.0
 25
0.0
 16
0.0
 26
0.0
 36
1.0
 17
0.0
 27
0.0
 37
0.0
 40
1115.746910964303
 41
1.493654822335025
 42
50.0
 43
0.0
 44
0.0
 50
0.0
 51
0.0
 71
     0
 72
  1000
 73
     1
 74
     0
 75
     0
 76
     0
 77
     0
 78
     0
  0
ENDTAB
  0
TABLE
  2
LTYPE
 70
     2
  0
LTYPE
  2
CONTINUOUS
 70
     0
  3
実線
 72
    65
 73
     0
 40
0.0
  0
LTYPE
  2
DASHDOT
 70
     0
  3
____ _ ____ _ ____ _ ____ _ ____ _ ____ _ ____
 72
    65
 73
     4
 40
5.5
 49
4.0
 49
-0.6
 49
0.3
 49
-0.6
  0
ENDTAB
  0
TABLE
  2
LAYER
 70
    12
  0
LAYER
  2
0
 70
     0
 62
     7
  6
CONTINUOUS
  0
LAYER
  2
DEFPOINTS
 70
     0
 62
     7
  6
CONTINUOUS
  0
LAYER
  2
NOTE
 70
     0
 62
     4
  6
CONTINUOUS
  0
LAYER
  2
BASIS
 70
     0
 62
     6
  6
DASHDOT
  0
LAYER
  2
OUTLINE
 70
     0
 62
     3
  6
CONTINUOUS
  0
LAYER
  2
DETAIL
 70
     0
 62
     5
  6
CONTINUOUS
  0
LAYER
  2
SIZE
 70
     0
 62
    30
  6
CONTINUOUS
  0
LAYER
  2
ARRANGE
 70
     0
 62
     1
  6
CONTINUOUS
  0
LAYER
  2
ETC
 70
     0
 62
    61
  6
CONTINUOUS
  0
LAYER
  2
FIX
 70
     0
 62
    11
  6
CONTINUOUS
  0
LAYER
  2
SERVICESPACE
 70
     0
 62
     2
  6
DASHDOT
  0
LAYER
  2
SYMBOLLINE
 70
     0
 62
    15
  6
CONTINUOUS
  0
ENDTAB
  0
TABLE
  2
STYLE
 70
     1
  0
STYLE
  2
STANDARD
 70
     0
 40
64.0
 41
0.9
 50
0.0
 71
     0
 42
64.0
  3
SIMPLEX.shx
  4
BIGFONT.shx
  0
ENDTAB
  0
TABLE
  2
VIEW
 70
     1
  0
VIEW
  2
ALL
 70
     0
 40
4282.6198079999976
 10
0.0
 20
41.309903999999989
 41
5940.0
 11
0.0
 21
0.0
 31
1.0
 12
0.0
 22
0.0
 32
0.0
 42
50.0
 43
0.0
 44
0.0
 50
0.0
 71
     0
  0
ENDTAB
  0
TABLE
  2
UCS
 70
     0
  0
ENDTAB
  0
TABLE
  2
APPID
 70
     2
  0
APPID
  2
ACAD
 70
     0
  0
APPID
  2
AUTOCAD_POSTSCRIPT_FIGURE
 70
     0
  0
ENDTAB
  0
TABLE
  2
DIMSTYLE
 70
     1
  0
DIMSTYLE
  2
STANDARD
 70
     0
  3

  4

  5

  6

  7

 40
1.0
 41
0.18
 42
0.0625
 43
0.38
 44
0.18
 45
0.0
 46
0.0
 47
0.0
 48
0.0
140
0.18
141
0.09
142
0.0
143
25.399999999999999
144
1.0
145
0.0
146
1.0
147
0.09
 71
     0
 72
     0
 73
     1
 74
     1
 75
     0
 76
     0
 77
     0
 78
     0
170
     0
171
     2
172
     0
173
     0
174
     0
175
     0
176
     7
177
     7
178
     7
  0
ENDTAB
  0
ENDSEC
  0
SECTION
  2
BLOCKS
  0
BLOCK
  8
0
  2
$MODEL_SPACE
 70
     0
 10
0.0
 20
0.0
 30
0.0
  3
$MODEL_SPACE
  1

  0
ENDBLK
  5
10C
  8
0
  0
BLOCK
 67
     1
  8
0
  2
$PAPER_SPACE
 70
     0
 10
0.0
 20
0.0
 30
0.0
  3
$PAPER_SPACE
  1

  0
ENDBLK
  5
108
 67
     1
  8
0
  0
BLOCK
  8
0
  2
DOT1
 70
     0
 10
0.0
 20
0.0
 30
0.0
  3
DOT1
  1

  0
CIRCLE
  5
128
  8
SIZE
  6
CONTINUOUS
 62
     7
 10
0.0
 20
0.0
 30
0.0
 40
3.0
  0
ENDBLK
  5
129
  8
0
  0
BLOCK
  8
0
  2
_ORIGIN
 70
     0
 10
0.0
 20
0.0
 30
0.0
  3
_ORIGIN
  1

  0
CIRCLE
  5
12C
  8
0
  6
CONTINUOUS
 62
     7
 10
0.0
 20
0.0
 30
0.0
 40
0.5
  0
LINE
  5
12D
  8
0
  6
CONTINUOUS
 62
     7
 10
0.0
 20
0.0
 30
0.0
 11
-1.0
 21
0.0
 31
0.0
  0
ENDBLK
  5
12E
  8
0
  0
ENDSEC
  0
SECTION
  2
ENTITIES
  0
TEXT
  5
12F
  8
ETC
  6
CONTINUOUS
 62
    61
 10
323.12951107543591
 20
517.78455555302219
 30
0.0
 40
50.0
  1
換気扇
 41
0.9
  0
TEXT
  5
130
  8
ETC
  6
CONTINUOUS
 62
    61
 10
327.54237307543582
 20
584.57197155302208
 30
0.0
 40
50.0
  1
V-12PP6-BL_1
 41
0.9
  0
LINE
  5
131
  8
BASIS
  6
DASHDOT
 62
     6
 39
50.0
 10
0.0
 20
106.12298177407359
 30
0.0
 11
0.0
 21
-74.882718000000025
 31
0.0
  0
POINT
  5
132
  8
ARRANGE
  6
CONTINUOUS
 62
     1
 10
0.0
 20
0.0
 30
0.0
 39
50.0
  0
CIRCLE
  5
133
  8
ARRANGE
  6
CONTINUOUS
 62
     1
 39
50.0
 10
0.0
 20
0.0
 30
0.0
 40
40.0
  0
LINE
  5
134
  8
DETAIL
  6
CONTINUOUS
 62
     5
 39
50.0
 10
-105.0
 20
0.0
 30
0.0
 11
105.0
 21
0.0
 31
0.0
  0
LINE
  5
135
  8
DETAIL
  6
CONTINUOUS
 62
     5
 39
50.0
 10
-70.0
 20
0.0
 30
0.0
 11
-70.0
 21
60.0
 31
0.0
  0
LINE
  5
136
  8
DETAIL
  6
CONTINUOUS
 62
     5
 39
50.0
 10
-70.0
 20
60.0
 30
0.0
 11
70.0
 21
60.0
 31
0.0
  0
LINE
  5
137
  8
DETAIL
  6
CONTINUOUS
 62
     5
 39
50.0
 10
70.0
 20
60.0
 30
0.0
 11
70.0
 21
0.0
 31
0.0
  0
LINE
  5
138
  8
DETAIL
  6
CONTINUOUS
 62
     5
 39
50.0
 10
-31.5
 20
60.0
 30
0.0
 11
31.5
 21
60.0
 31
0.0
  0
LINE
  5
139
  8
DETAIL
  6
CONTINUOUS
 62
     5
 39
50.0
 10
31.5
 20
66.0
 30
0.0
 11
31.5
 21
88.0
 31
0.0
  0
LINE
  5
13A
  8
DETAIL
  6
CONTINUOUS
 62
     5
 39
50.0
 10
26.5
 20
93.0
 30
0.0
 11
-26.5
 21
93.0
 31
0.0
  0
LINE
  5
13B
  8
DETAIL
  6
CONTINUOUS
 62
     5
 39
50.0
 10
-31.5
 20
88.0
 30
0.0
 11
-31.5
 21
66.0
 31
0.0
  0
LINE
  5
13C
  8
DETAIL
  6
CONTINUOUS
 62
     5
 39
50.0
 10
-32.5
 20
66.0
 30
0.0
 11
-31.5
 21
66.0
 31
0.0
  0
LINE
  5
13D
  8
DETAIL
  6
CONTINUOUS
 62
     5
 39
50.0
 10
32.5
 20
66.0
 30
0.0
 11
32.5
 21
60.0
 31
0.0
  0
LINE
  5
13E
  8
DETAIL
  6
CONTINUOUS
 62
     5
 39
50.0
 10
38.5
 20
60.0
 30
0.0
 11
-38.5
 21
60.0
 31
0.0
  0
LINE
  5
13F
  8
DETAIL
  6
CONTINUOUS
 62
     5
 39
50.0
 10
-32.5
 20
60.0
 30
0.0
 11
-32.5
 21
66.0
 31
0.0
  0
LINE
  5
140
  8
DETAIL
  6
CONTINUOUS
 62
     5
 39
50.0
 10
31.5
 20
66.0
 30
0.0
 11
32.5
 21
66.0
 31
0.0
  0
ARC
  5
141
  8
DETAIL
  6
CONTINUOUS
 62
     5
 39
50.0
 10
-26.5
 20
88.0
 30
0.0
 40
5.0
 50
90.0
 51
180.0
  0
ARC
  5
142
  8
DETAIL
  6
CONTINUOUS
 62
     5
 39
50.0
 10
26.5
 20
88.0
 30
0.0
 40
5.0
 50
0.0
 51
90.0
  0
LINE
  5
143
  8
OUTLINE
  6
CONTINUOUS
 62
     3
 39
50.0
 10
26.5
 20
93.0
 30
0.0
 11
-26.5
 21
93.0
 31
0.0
  0
LINE
  5
144
  8
OUTLINE
  6
CONTINUOUS
 62
     3
 39
50.0
 10
-31.5
 20
60.0
 30
0.0
 11
31.5
 21
60.0
 31
0.0
  0
LINE
  5
145
  8
OUTLINE
  6
CONTINUOUS
 62
     3
 39
50.0
 10
38.5
 20
60.0
 30
0.0
 11
-38.5
 21
60.0
 31
0.0
  0
ARC
  5
146
  8
OUTLINE
  6
CONTINUOUS
 62
     3
 39
50.0
 10
-26.5
 20
88.0
 30
0.0
 40
5.0
 50
90.0
 51
180.0
  0
LINE
  5
147
  8
OUTLINE
  6
CONTINUOUS
 62
     3
 39
50.0
 10
-31.5
 20
88.0
 30
0.0
 11
-31.5
 21
82.0
 31
0.0
  0
ARC
  5
14A
  8
OUTLINE
  6
CONTINUOUS
 62
     3
 39
50.0
 10
26.5
 20
88.0
 30
0.0
 40
5.0
 50
0.0
 51
90.0
  0
LINE
  5
14B
  8
OUTLINE
  6
CONTINUOUS
 62
     3
 39
50.0
 10
31.5
 20
82.0
 30
0.0
 11
31.5
 21
88.0
 31
0.0
  0
LINE
  5
14E
  8
OUTLINE
  6
CONTINUOUS
 62
     3
 39
50.0
 10
-70.0
 20
60.0
 30
0.0
 11
70.0
 21
60.0
 31
0.0
  0
LINE
  5
14F
  8
OUTLINE
  6
CONTINUOUS
 62
     3
 39
50.0
 10
-70.0
 20
0.0
 30
0.0
 11
-70.0
 21
60.0
 31
0.0
  0
LINE
  5
150
  8
OUTLINE
  6
CONTINUOUS
 62
     3
 39
50.0
 10
-105.0
 20
0.0
 30
0.0
 11
105.0
 21
0.0
 31
0.0
  0
LINE
  5
151
  8
OUTLINE
  6
CONTINUOUS
 62
     3
 39
50.0
 10
70.0
 20
60.0
 30
0.0
 11
70.0
 21
0.0
 31
0.0
  0
LINE
  5
156
  8
NOTE
  6
CONTINUOUS
 62
     4
 10
95.0
 20
-20.0
 30
0.0
 11
95.0
 21
20.0
 31
0.0
  0
LINE
  5
157
  8
NOTE
  6
CONTINUOUS
 62
     4
 10
75.0
 20
0.0
 30
0.0
 11
115.0
 21
0.0
 31
0.0
  0
LINE
  5
15C
  8
NOTE
  6
CONTINUOUS
 62
     4
 10
-95.0
 20
-20.0
 30
0.0
 11
-95.0
 21
20.0
 31
0.0
  0
LINE
  5
15D
  8
NOTE
  6
CONTINUOUS
 62
     4
 10
-115.0
 20
0.0
 30
0.0
 11
-75.0
 21
0.0
 31
0.0
  0
LINE
  5
15E
  8
SIZE
  6
CONTINUOUS
 62
    30
 10
-95.0
 20
20.0
 30
0.0
 11
-95.0
 21
449.40253142991151
 31
0.0
  0
LINE
  5
15F
  8
SIZE
  6
CONTINUOUS
 62
    30
 10
95.0
 20
20.0
 30
0.0
 11
95.0
 21
452.23078565396412
 31
0.0
  0
LINE
  5
160
  8
SIZE
  6
CONTINUOUS
 62
    30
 10
-83.0
 20
431.21571272784951
 30
0.0
 11
83.0
 21
431.21571272784951
 31
0.0
  0
CIRCLE
  5
161
  8
SIZE
  6
CONTINUOUS
 62
    30
 10
-95.0
 20
431.21571272784951
 30
0.0
 40
6.0
  0
LINE
  5
162
  8
SIZE
  6
CONTINUOUS
 62
    30
 10
-95.0
 20
431.21571272784951
 30
0.0
 11
-83.0
 21
431.21571272784951
 31
0.0
  0
CIRCLE
  5
163
  8
SIZE
  6
CONTINUOUS
 62
    30
 10
95.0
 20
431.21571272784951
 30
0.0
 40
6.0
  0
LINE
  5
164
  8
SIZE
  6
CONTINUOUS
 62
    30
 10
95.0
 20
431.21571272784951
 30
0.0
 11
83.0
 21
431.21571272784951
 31
0.0
  0
TEXT
  5
165
  8
SIZE
  6
CONTINUOUS
 62
    30
 10
-68.571428571428569
 20
456.21571272784951
 30
0.0
 40
64.0
  1
190
 41
0.9
 72
     1
 11
0.0
 21
456.21571272784951
 31
0.0
  0
LINE
  5
170
  8
SIZE
  6
CONTINUOUS
 62
    30
 10
-70.0
 20
80.0
 30
0.0
 11
-70.0
 21
343.34293697961442
 31
0.0
  0
LINE
  5
171
  8
SIZE
  6
CONTINUOUS
 62
    30
 10
70.0
 20
80.0
 30
0.0
 11
70.0
 21
343.34293697961442
 31
0.0
  0
LINE
  5
172
  8
SIZE
  6
CONTINUOUS
 62
    30
 10
58.0
 20
323.03250872784952
 30
0.0
 11
-58.0
 21
323.03250872784952
 31
0.0
  0
LINE
  5
173
  8
SIZE
  6
CONTINUOUS
 62
    30
 10
-70.0
 20
323.03250872784952
 30
0.0
 11
-353.31051200000002
 21
323.03250872784952
 31
0.0
  0
CIRCLE
  5
174
  8
SIZE
  6
CONTINUOUS
 62
    30
 10
70.0
 20
323.03250872784952
 30
0.0
 40
6.0
  0
LINE
  5
175
  8
SIZE
  6
CONTINUOUS
 62
    30
 10
70.0
 20
323.03250872784952
 30
0.0
 11
58.0
 21
323.03250872784952
 31
0.0
  0
CIRCLE
  5
176
  8
SIZE
  6
CONTINUOUS
 62
    30
 10
-70.0
 20
323.03250872784952
 30
0.0
 40
6.0
  0
LINE
  5
177
  8
SIZE
  6
CONTINUOUS
 62
    30
 10
-70.0
 20
323.03250872784952
 30
0.0
 11
-58.0
 21
323.03250872784952
 31
0.0
  0
TEXT
  5
178
  8
SIZE
  6
CONTINUOUS
 62
    30
 10
-342.57336857142849
 20
348.03250872784952
 30
0.0
 40
64.0
  1
φ140
 41
0.9
 72
     1
 11
-233.68193999999991
 21
348.03250872784952
 31
0.0
  0
LINE
  5
179
  8
NOTE
  6
CONTINUOUS
 62
     4
 10
110.54838100000001
 20
36.854413999999998
 30
0.0
 11
95.0
 21
0.0
 31
0.0
  0
LINE
  5
17A
  8
NOTE
  6
CONTINUOUS
 62
     4
 10
95.0
 20
0.0
 30
0.0
 11
126.892501
 21
24.142668
 31
0.0
  0
TEXT
  5
17B
  8
NOTE
  6
CONTINUOUS
 62
     4
 10
151.90312999999981
 20
89.716707999999983
 30
0.0
 40
64.0
  1
2ヶ所×4×10取付用長穴
 41
0.9
  0
LINE
  5
17C
  8
NOTE
  6
CONTINUOUS
 62
     4
 39
50.0
 10
95.0
 20
0.0
 30
0.0
 11
143.7137009999999
 21
60.011961999999983
 31
0.0
  0
LINE
  5
17D
  8
NOTE
  6
CONTINUOUS
 62
     4
 39
50.0
 10
143.7137009999999
 20
60.011961999999983
 30
0.0
 11
996.00388499999997
 21
60.011961999999983
 31
0.0
  0
LINE
  5
17E
  8
SIZE
  6
CONTINUOUS
 62
    30
 10
-90.0
 20
60.0
 30
0.0
 11
-190.50805500000001
 21
60.0
 31
0.0
  0
LINE
  5
17F
  8
SIZE
  6
CONTINUOUS
 62
    30
 10
-125.0
 20
0.0
 30
0.0
 11
-190.50805500000001
 21
0.0
 31
0.0
  0
LINE
  5
180
  8
SIZE
  6
CONTINUOUS
 62
    30
 10
-170.50805500000001
 20
-12.0
 30
0.0
 11
-170.50805500000001
 21
-24.0
 31
0.0
  0
LINE
  5
181
  8
SIZE
  6
CONTINUOUS
 62
    30
 10
-170.50805500000001
 20
72.0
 30
0.0
 11
-170.50805500000001
 21
227.25714300000001
 31
0.0
  0
LINE
  5
182
  8
SIZE
  6
CONTINUOUS
 62
    30
 10
-170.50805500000001
 20
0.0
 30
0.0
 11
-170.50805500000001
 21
60.0
 31
0.0
  0
CIRCLE
  5
183
  8
SIZE
  6
CONTINUOUS
 62
    30
 10
-170.50805500000001
 20
0.0
 30
0.0
 40
6.0
  0
LINE
  5
184
  8
SIZE
  6
CONTINUOUS
 62
    30
 10
-170.50805500000001
 20
0.0
 30
0.0
 11
-170.50805500000001
 21
-12.0
 31
0.0
  0
CIRCLE
  5
185
  8
SIZE
  6
CONTINUOUS
 62
    30
 10
-170.50805500000001
 20
60.0
 30
0.0
 40
6.0
  0
LINE
  5
186
  8
SIZE
  6
CONTINUOUS
 62
    30
 10
-170.50805500000001
 20
60.0
 30
0.0
 11
-170.50805500000001
 21
72.0
 31
0.0
  0
TEXT
  5
187
  8
SIZE
  6
CONTINUOUS
 62
    30
 10
-195.50805500000001
 20
108.9999995714285
 30
0.0
 40
64.0
  1
60
 50
90.0
 41
0.9
 72
     1
 11
-195.50805500000001
 21
155.62857099999999
 31
0.0
  0
LINE
  5
188
  8
SIZE
  6
CONTINUOUS
 62
    30
 10
-46.5
 20
93.0
 30
0.0
 11
-335.19386500000002
 21
93.0
 31
0.0
  0
LINE
  5
189
  8
SIZE
  6
CONTINUOUS
 62
    30
 10
-125.0
 20
0.0
 30
0.0
 11
-335.19386500000002
 21
0.0
 31
0.0
  0
CIRCLE
  5
18C
  8
SIZE
  6
CONTINUOUS
 62
    30
 10
-315.19386500000002
 20
0.0
 30
0.0
 40
6.0
  0
CIRCLE
  5
18E
  8
SIZE
  6
CONTINUOUS
 62
    30
 10
-315.19386500000002
 20
93.0
 30
0.0
 40
6.0
  0
TEXT
  5
190
  8
SIZE
  6
CONTINUOUS
 62
    30
 10
-340.19386500000002
 20
113.9999995714284
 30
0.0
 40
64.0
  1
93
 50
90.0
 41
0.9
 72
     1
 11
-340.19386500000002
 21
160.62857099999991
 31
0.0
  0
LINE
  5
191
  8
DETAIL
  6
CONTINUOUS
 62
     5
 39
50.0
 10
-31.5
 20
66.0
 30
0.0
 11
31.5
 21
66.0
 31
0.0
  0
LINE
  5
192
  8
DETAIL
  6
CONTINUOUS
 62
     5
 39
50.0
 10
-105.0
 20
0.0
 30
0.0
 11
105.0
 21
0.0
 31
0.0
  0
LINE
  5
193
  8
DETAIL
  6
CONTINUOUS
 62
     5
 39
50.0
 10
105.0
 20
0.0
 30
0.0
 11
105.0
 21
-29.445115000000001
 31
0.0
  0
LINE
  5
194
  8
DETAIL
  6
CONTINUOUS
 62
     5
 39
50.0
 10
-105.0
 20
-29.445115000000001
 30
0.0
 11
-105.0
 21
0.0
 31
0.0
  0
ARC
  5
195
  8
DETAIL
  6
CONTINUOUS
 62
     5
 39
50.0
 10
0.0
 20
1066.0
 30
0.0
 40
1105.0
 50
264.78409099999982
 51
275.21590900000001
  0
ARC
  5
196
  8
DETAIL
  6
CONTINUOUS
 62
     5
 39
50.0
 10
-100.0
 20
-29.445115000000001
 30
0.0
 40
5.0
 50
180.0
 51
264.78409099999982
  0
ARC
  5
197
  8
DETAIL
  6
CONTINUOUS
 62
     5
 39
50.0
 10
100.0
 20
-29.445115000000001
 30
0.0
 40
5.0
 50
275.21590900000001
 51
0.0
  0
ARC
  5
198
  8
OUTLINE
  6
CONTINUOUS
 62
     3
 39
50.0
 10
100.0
 20
-29.445115000000001
 30
0.0
 40
5.0
 50
275.21590900000001
 51
0.0
  0
ARC
  5
199
  8
OUTLINE
  6
CONTINUOUS
 62
     3
 39
50.0
 10
0.0
 20
1066.0
 30
0.0
 40
1105.0
 50
264.78409099999982
 51
275.21590900000001
  0
LINE
  5
19A
  8
OUTLINE
  6
CONTINUOUS
 62
     3
 39
50.0
 10
105.0
 20
0.0
 30
0.0
 11
105.0
 21
-29.445115000000001
 31
0.0
  0
ARC
  5
19B
  8
OUTLINE
  6
CONTINUOUS
 62
     3
 39
50.0
 10
-100.0
 20
-29.445115000000001
 30
0.0
 40
5.0
 50
180.0
 51
264.78409099999982
  0
LINE
  5
19C
  8
OUTLINE
  6
CONTINUOUS
 62
     3
 39
50.0
 10
-105.0
 20
-29.445115000000001
 30
0.0
 11
-105.0
 21
0.0
 31
0.0
  0
LINE
  5
19D
  8
OUTLINE
  6
CONTINUOUS
 62
     3
 39
50.0
 10
-105.0
 20
0.0
 30
0.0
 11
105.0
 21
0.0
 31
0.0
  0
LINE
  5
19E
  8
SIZE
  6
CONTINUOUS
 62
    30
 10
-125.0
 20
0.0
 30
0.0
 11
-335.93255299999998
 21
0.0
 31
0.0
  0
LINE
  5
19F
  8
SIZE
  6
CONTINUOUS
 62
    30
 10
-20.0
 20
-39.0
 30
0.0
 11
-335.93255299999998
 21
-39.0
 31
0.0
  0
LINE
  5
1A1
  8
SIZE
  6
CONTINUOUS
 62
    30
 10
-315.93255299999993
 20
-51.0
 30
0.0
 11
-315.93255299999993
 21
-203.514286
 31
0.0
  0
LINE
  5
1A2
  8
SIZE
  6
CONTINUOUS
 62
    30
 10
-314.74412087784037
 20
211.12197472057451
 30
0.0
 11
-315.93255299999993
 21
-39.0
 31
0.0
  0
CIRCLE
  5
1A5
  8
SIZE
  6
CONTINUOUS
 62
    30
 10
-315.93255299999993
 20
-39.0
 30
0.0
 40
6.0
  0
LINE
  5
1A6
  8
SIZE
  6
CONTINUOUS
 62
    30
 10
-315.93255299999993
 20
-39.0
 30
0.0
 11
-315.93255299999993
 21
-51.0
 31
0.0
  0
TEXT
  5
1A7
  8
SIZE
  6
CONTINUOUS
 62
    30
 10
-340.93255299999993
 20
-178.51428585714271
 30
0.0
 40
64.0
  1
39
 50
90.0
 41
0.9
 72
     1
 11
-340.93255299999993
 21
-133.2571429999999
 31
0.0
  0
LINE
  5
1A8
  8
SIZE
  6
CONTINUOUS
 62
    30
 10
-105.0
 20
-49.445115000000001
 30
0.0
 11
-105.0
 21
-196.8297419999999
 31
0.0
  0
LINE
  5
1A9
  8
SIZE
  6
CONTINUOUS
 62
    30
 10
105.0
 20
-49.445115000000001
 30
0.0
 11
105.0
 21
-196.8297419999999
 31
0.0
  0
LINE
  5
1AC
  8
SIZE
  6
CONTINUOUS
 62
    30
 10
-105.0
 20
-176.8297419999999
 30
0.0
 11
105.0
 21
-176.8297419999999
 31
0.0
  0
CIRCLE
  5
1AD
  8
SIZE
  6
CONTINUOUS
 62
    30
 10
-105.0
 20
-176.8297419999999
 30
0.0
 40
6.0
  0
CIRCLE
  5
1AF
  8
SIZE
  6
CONTINUOUS
 62
    30
 10
105.0
 20
-176.8297419999999
 30
0.0
 40
6.0
  0
TEXT
  5
1B1
  8
SIZE
  6
CONTINUOUS
 62
    30
 10
-105.0514285714285
 20
-151.82974199999981
 30
0.0
 40
64.0
  1
□210
 41
0.9
 72
     1
 11
0.0
 21
-151.82974199999981
 31
0.0
  0
LINE
  5
1B2
  8
NOTE
  6
CONTINUOUS
 62
     4
 10
0.0
 20
40.0
 30
0.0
 11
0.0
 21
80.0
 31
0.0
  0
LINE
  5
1B3
  8
NOTE
  6
CONTINUOUS
 62
     4
 10
-20.0
 20
60.0
 30
0.0
 11
20.0
 21
60.0
 31
0.0
  0
LINE
  5
1B4
  8
NOTE
  6
CONTINUOUS
 62
     4
 10
22.143450999999999
 20
93.311673000000013
 30
0.0
 11
0.0
 21
60.0
 31
0.0
  0
LINE
  5
1B5
  8
NOTE
  6
CONTINUOUS
 62
     4
 10
0.0
 20
60.0
 30
0.0
 11
35.832627999999993
 21
77.777030000000025
 31
0.0
  0
TEXT
  5
1B6
  8
NOTE
  6
CONTINUOUS
 62
     4
 10
165.63550499999991
 20
207.22480999999991
 30
0.0
 40
64.0
  1
EL
 41
0.9
  0
LINE
  5
1B7
  8
NOTE
  6
CONTINUOUS
 62
     4
 39
50.0
 10
164.58457099999981
 20
193.569581
 30
0.0
 11
252.86307699999989
 21
193.569581
 31
0.0
  0
LINE
  5
1B8
  8
NOTE
  6
CONTINUOUS
 62
     4
 39
50.0
 10
0.0
 20
60.0
 30
0.0
 11
164.58457099999981
 21
193.569581
 31
0.0
  0
TEXT
  5
1B9
  8
ETC
  6
CONTINUOUS
 62
    61
 10
402.5693255429581
 20
464.52507405524602
 30
0.0
 40
40.0
  1
V-12PP6-BL
 41
0.9
  0
LINE
  5
1BE
  8
OUTLINE
  6
CONTINUOUS
 62
     3
 39
50.0
 10
-32.5
 20
60.0
 30
0.0
 11
-32.5
 21
66.0
 31
0.0
  0
LINE
  5
1BF
  8
OUTLINE
  6
CONTINUOUS
 62
     3
 39
50.0
 10
-32.5
 20
66.0
 30
0.0
 11
32.5
 21
66.0
 31
0.0
  0
LINE
  5
1C0
  8
OUTLINE
  6
CONTINUOUS
 62
     3
 39
50.0
 10
32.5
 20
66.0
 30
0.0
 11
32.5
 21
60.0
 31
0.0
  0
LINE
  5
1C1
  8
OUTLINE
  6
CONTINUOUS
 62
     3
 39
50.0
 10
31.5
 20
66.0
 30
0.0
 11
31.5
 21
82.0
 31
0.0
  0
LINE
  5
1C2
  8
OUTLINE
  6
CONTINUOUS
 62
     3
 39
50.0
 10
-31.5
 20
82.0
 30
0.0
 11
-31.5
 21
66.0
 31
0.0
  0
CIRCLE
  5
1C3
  8
FIX
  6
CONTINUOUS
 62
    11
 39
50.0
 10
-95.0
 20
0.0
 30
0.0
 40
2.0
  0
CIRCLE
  5
1C4
  8
FIX
  6
CONTINUOUS
 62
    11
 39
50.0
 10
95.0
 20
0.0
 30
0.0
 40
2.0
  0
ENDSEC
  0
EOF
