  0
SECTION
  2
HEADER
  9
$ACADVER
  1
AC1009
  9
$INSBASE
 10
0.0
 20
0.0
 30
0.0
  9
$EXTMIN
 10
-214.81016362646011
 20
-483.21532037017818
 30
-0.0015257624927045
  9
$EXTMAX
 10
1013.777172197327
 20
475.20447566081378
 30
50.001525995323327
  9
$LIMMIN
 10
-2970.0
 20
-2100.0
  9
$LIMMAX
 10
2970.0
 20
2100.0
  9
$ORTHOMODE
 70
     1
  9
$REGENMODE
 70
     1
  9
$FILLMODE
 70
     1
  9
$QTEXTMODE
 70
     0
  9
$MIRRTEXT
 70
     0
  9
$DRAGMODE
 70
     2
  9
$LTSCALE
 40
20.0
  9
$OSMODE
 70
    47
  9
$ATTMODE
 70
     1
  9
$TEXTSIZE
 40
64.0
  9
$TRACEWID
 40
0.05
  9
$TEXTSTYLE
  7
STANDARD
  9
$CLAYER
  8
SIZE
  9
$CELTYPE
  6
CONTINUOUS
  9
$CECOLOR
 62
    30
  9
$DIMSCALE
 40
1.0
  9
$DIMASZ
 40
40.0
  9
$DIMEXO
 40
20.0
  9
$DIMDLI
 40
200.0
  9
$DIMRND
 40
0.0
  9
$DIMDLE
 40
0.0
  9
$DIMEXE
 40
20.0
  9
$DIMTP
 40
0.0
  9
$DIMTM
 40
0.0
  9
$DIMTXT
 40
64.0
  9
$DIMCEN
 40
0.09
  9
$DIMTSZ
 40
0.0
  9
$DIMTOL
 70
     0
  9
$DIMLIM
 70
     0
  9
$DIMTIH
 70
     0
  9
$DIMTOH
 70
     0
  9
$DIMSE1
 70
     0
  9
$DIMSE2
 70
     0
  9
$DIMTAD
 70
     1
  9
$DIMZIN
 70
     8
  9
$DIMBLK
  1
NONE
  9
$DIMASO
 70
     1
  9
$DIMSHO
 70
     0
  9
$DIMPOST
  1

  9
$DIMAPOST
  1

  9
$DIMALT
 70
     0
  9
$DIMALTD
 70
     2
  9
$DIMALTF
 40
25.399999999999999
  9
$DIMLFAC
 40
1.0
  9
$DIMTOFL
 70
     1
  9
$DIMTVP
 40
0.0
  9
$DIMTIX
 70
     1
  9
$DIMSOXD
 70
     0
  9
$DIMSAH
 70
     0
  9
$DIMBLK1
  1
NONE
  9
$DIMBLK2
  1
ORIGIN
  9
$DIMSTYLE
  2
STANDARD
  9
$DIMCLRD
 70
   256
  9
$DIMCLRE
 70
   256
  9
$DIMCLRT
 70
   256
  9
$DIMTFAC
 40
1.0
  9
$DIMGAP
 40
25.0
  9
$LUNITS
 70
     2
  9
$LUPREC
 70
     4
  9
$SKETCHINC
 40
0.1
  9
$FILLETRAD
 40
5.0
  9
$AUNITS
 70
     1
  9
$AUPREC
 70
     3
  9
$MENU
  1
ACAD
  9
$ELEVATION
 40
0.0
  9
$PELEVATION
 40
0.0
  9
$THICKNESS
 40
50.0
  9
$LIMCHECK
 70
     0
  9
$BLIPMODE
 70
     0
  9
$CHAMFERA
 40
0.0
  9
$CHAMFERB
 40
0.0
  9
$SKPOLY
 70
     0
  9
$TDCREATE
 40
2453019.6230103709
  9
$TDUPDATE
 40
2455065.555515347
  9
$TDINDWG
 40
0.3873531944
  9
$TDUSRTIMER
 40
0.3873528356
  9
$USRTIMER
 70
     1
  9
$ANGBASE
 50
0.0
  9
$ANGDIR
 70
     0
  9
$PDMODE
 70
     3
  9
$PDSIZE
 40
-2.0
  9
$PLINEWID
 40
0.0
  9
$COORDS
 70
     0
  9
$SPLFRAME
 70
     0
  9
$SPLINETYPE
 70
     6
  9
$SPLINESEGS
 70
     8
  9
$ATTDIA
 70
     0
  9
$ATTREQ
 70
     1
  9
$HANDLING
 70
     1
  9
$HANDSEED
  5
5C4
  9
$SURFTAB1
 70
     6
  9
$SURFTAB2
 70
     6
  9
$SURFTYPE
 70
     6
  9
$SURFU
 70
     6
  9
$SURFV
 70
     6
  9
$UCSNAME
  2

  9
$UCSORG
 10
0.0
 20
0.0
 30
0.0
  9
$UCSXDIR
 10
1.0
 20
0.0
 30
0.0
  9
$UCSYDIR
 10
0.0
 20
1.0
 30
0.0
  9
$PUCSNAME
  2

  9
$PUCSORG
 10
0.0
 20
0.0
 30
0.0
  9
$PUCSXDIR
 10
1.0
 20
0.0
 30
0.0
  9
$PUCSYDIR
 10
0.0
 20
1.0
 30
0.0
  9
$USERI1
 70
     0
  9
$USERI2
 70
     0
  9
$USERI3
 70
     0
  9
$USERI4
 70
     0
  9
$USERI5
 70
     0
  9
$USERR1
 40
20.0
  9
$USERR2
 40
0.0
  9
$USERR3
 40
0.0
  9
$USERR4
 40
0.0
  9
$USERR5
 40
0.0
  9
$WORLDVIEW
 70
     1
  9
$SHADEDGE
 70
     3
  9
$SHADEDIF
 70
    70
  9
$TILEMODE
 70
     1
  9
$MAXACTVP
 70
    48
  9
$PLIMCHECK
 70
     0
  9
$PEXTMIN
 10
-1.0000000000000000E+020
 20
-1.0000000000000000E+020
 30
-1.0000000000000000E+020
  9
$PEXTMAX
 10
1.0000000000000000E+020
 20
1.0000000000000000E+020
 30
1.0000000000000000E+020
  9
$PLIMMIN
 10
0.0
 20
0.0
  9
$PLIMMAX
 10
12.0
 20
9.0
  9
$UNITMODE
 70
     0
  9
$VISRETAIN
 70
     0
  9
$PLINEGEN
 70
     0
  9
$PSLTSCALE
 70
     0
  0
ENDSEC
  0
SECTION
  2
TABLES
  0
TABLE
  2
VPORT
 70
     1
  0
VPORT
  2
*ACTIVE
 70
     0
 10
0.0
 20
0.0
 11
1.0
 21
1.0
 12
431.49078486735908
 22
-24.001391220083409
 13
0.0
 23
0.0
 14
1.0
 24
1.0
 15
0.0
 25
0.0
 16
0.0
 26
0.0
 36
1.0
 17
0.0
 27
0.0
 37
0.0
 40
1125.387741695042
 41
1.2318059299191371
 42
50.0
 43
0.0
 44
0.0
 50
0.0
 51
0.0
 71
     0
 72
  1000
 73
     1
 74
     0
 75
     0
 76
     0
 77
     0
 78
     0
  0
ENDTAB
  0
TABLE
  2
LTYPE
 70
     3
  0
LTYPE
  2
CONTINUOUS
 70
     0
  3
実線
 72
    65
 73
     0
 40
0.0
  0
LTYPE
  2
DASHDOT
 70
     0
  3
____ _ ____ _ ____ _ ____ _ ____ _ ____ _ ____
 72
    65
 73
     4
 40
5.5
 49
4.0
 49
-0.6
 49
0.3
 49
-0.6
  0
ENDTAB
  0
TABLE
  2
LAYER
 70
    13
  0
LAYER
  2
0
 70
     0
 62
     7
  6
CONTINUOUS
  0
LAYER
  2
SIZE
 70
     0
 62
    30
  6
CONTINUOUS
  0
LAYER
  2
OUTLINE
 70
     0
 62
     3
  6
CONTINUOUS
  0
LAYER
  2
ARRANGE
 70
     0
 62
     1
  6
CONTINUOUS
  0
LAYER
  2
BASIS
 70
     0
 62
     6
  6
DASHDOT
  0
LAYER
  2
DETAIL
 70
     0
 62
     5
  6
CONTINUOUS
  0
LAYER
  2
DEFPOINTS
 70
     0
 62
     7
  6
CONTINUOUS
  0
LAYER
  2
ETC
 70
     0
 62
    61
  6
CONTINUOUS
  0
LAYER
  2
FIX
 70
     0
 62
    11
  6
CONTINUOUS
  0
LAYER
  2
NOTE
 70
     0
 62
     4
  6
CONTINUOUS
  0
LAYER
  2
SERVICESPACE
 70
     0
 62
     2
  6
DASHDOT
  0
LAYER
  2
SYMBOLLINE
 70
     0
 62
    15
  6
CONTINUOUS
  0
LAYER
  2
ARRENGE
 70
     0
 62
     1
  6
CONTINUOUS
  0
ENDTAB
  0
TABLE
  2
STYLE
 70
     2
  0
STYLE
  2
STANDARD
 70
     0
 40
64.0
 41
0.9
 50
0.0
 71
     0
 42
64.0
  3
SIMPLEX.shx
  4
BIGFONT.shx
  0
STYLE
  2
ANNOTATIVE
 70
     0
 40
0.0
 41
1.0
 50
0.0
 71
     0
 42
0.2
  3
txt
  4

  0
ENDTAB
  0
TABLE
  2
VIEW
 70
     1
  0
VIEW
  2
ALL
 70
     0
 40
4282.6198079999967
 10
0.0
 20
41.309903999999989
 41
5940.0
 11
0.0
 21
0.0
 31
1.0
 12
0.0
 22
0.0
 32
0.0
 42
50.0
 43
0.0
 44
0.0
 50
0.0
 71
     0
  0
ENDTAB
  0
TABLE
  2
UCS
 70
     0
  0
ENDTAB
  0
TABLE
  2
APPID
 70
     6
  0
APPID
  2
ACAD
 70
     0
  0
APPID
  2
ACADANNOTATIVE
 70
     0
  0
APPID
  2
ACAD_MLEADERVER
 70
     0
  0
APPID
  2
AUTOCAD_POSTSCRIPT_FIGURE
 70
     0
  0
APPID
  2
CONTENTBLOCKDESCRIPTION
 70
     0
  0
APPID
  2
CONTENTBLOCKICON
 70
     0
  0
ENDTAB
  0
TABLE
  2
DIMSTYLE
 70
     3
  0
DIMSTYLE
  2
STANDARD
 70
     0
  3

  4

  5

  6

  7

 40
1.0
 41
0.18
 42
0.0625
 43
0.38
 44
0.18
 45
0.0
 46
0.0
 47
0.0
 48
0.0
140
0.18
141
0.09
142
0.0
143
25.399999999999999
144
1.0
145
0.0
146
1.0
147
0.09
 71
     0
 72
     0
 73
     1
 74
     1
 75
     0
 76
     0
 77
     0
 78
     0
170
     0
171
     2
172
     0
173
     0
174
     0
175
     0
176
     7
177
     7
178
     7
  0
DIMSTYLE
  2
ANNOTATIVE
 70
     0
  3

  4

  5

  6

  7

 40
1.0
 41
0.18
 42
0.0625
 43
0.38
 44
0.18
 45
0.0
 46
0.0
 47
0.0
 48
0.0
140
0.18
141
0.09
142
0.0
143
25.399999999999999
144
1.0
145
0.0
146
1.0
147
0.09
 71
     0
 72
     0
 73
     1
 74
     1
 75
     0
 76
     0
 77
     0
 78
     0
170
     0
171
     2
172
     0
173
     0
174
     0
175
     0
176
     0
177
     0
178
     0
  0
ENDTAB
  0
ENDSEC
  0
SECTION
  2
BLOCKS
  0
BLOCK
  8
0
  2
$MODEL_SPACE
 70
     0
 10
0.0
 20
0.0
 30
0.0
  3
$MODEL_SPACE
  1

  0
ENDBLK
  5
4D3
  8
0
  0
BLOCK
 67
     1
  8
0
  2
$PAPER_SPACE
 70
     0
 10
0.0
 20
0.0
 30
0.0
  3
$PAPER_SPACE
  1

  0
ENDBLK
  5
4CF
 67
     1
  8
0
  0
BLOCK
  8
0
  2
DOT1
 70
     0
 10
0.0
 20
0.0
 30
0.0
  3
DOT1
  1

  0
CIRCLE
  5
35B
  8
SIZE
  6
CONTINUOUS
 62
     7
 10
0.0
 20
0.0
 30
0.0
 40
3.0
  0
ENDBLK
  5
35C
  8
0
  0
BLOCK
  8
0
  2
_ORIGIN
 70
     0
 10
0.0
 20
0.0
 30
0.0
  3
_ORIGIN
  1

  0
CIRCLE
  5
35F
  8
0
  6
CONTINUOUS
 62
     7
 10
0.0
 20
0.0
 30
0.0
 40
0.5
  0
LINE
  5
360
  8
0
  6
CONTINUOUS
 62
     7
 10
0.0
 20
0.0
 30
0.0
 11
-1.0
 21
0.0
 31
0.0
  0
ENDBLK
  5
361
  8
0
  0
BLOCK
  8
0
 62
    30
  2
_NONE
 70
     0
 10
0.0
 20
0.0
 30
0.0
  3
_NONE
  1

  0
ENDBLK
  5
364
  8
0
 62
    30
  0
BLOCK
  8
0
 62
    30
  2
_OPEN30
 70
     0
 10
0.0
 20
0.0
 30
0.0
  3
_OPEN30
  1

  0
LINE
  5
367
  8
0
  6
BYBLOCK
 62
     0
 10
-1.0
 20
0.26794919
 30
0.0
 11
0.0
 21
0.0
 31
0.0
  0
LINE
  5
368
  8
0
  6
BYBLOCK
 62
     0
 10
0.0
 20
0.0
 30
0.0
 11
-1.0
 21
-0.26794919
 31
0.0
  0
LINE
  5
369
  8
0
  6
BYBLOCK
 62
     0
 10
0.0
 20
0.0
 30
0.0
 11
-1.0
 21
0.0
 31
0.0
  0
ENDBLK
  5
36A
  8
0
 62
    30
  0
BLOCK
  8
0
 62
    30
  2
*D6
 70
     1
 10
0.0
 20
0.0
 30
0.0
  3
*D6
  1

  0
LINE
  5
36D
  8
SIZE
  6
CONTINUOUS
 10
-42.572022247002671
 20
105.0
 30
0.0
 11
-149.31461655712829
 21
105.0
 31
0.0
  0
LINE
  5
36E
  8
SIZE
  6
CONTINUOUS
 10
-41.972769999999983
 20
-105.0
 30
0.0
 11
-149.31461655712829
 21
-104.9999999999998
 31
0.0
  0
LINE
  5
36F
  8
SIZE
  6
CONTINUOUS
 10
-129.3146165571282
 20
105.0
 30
0.0
 11
-129.3146165571282
 21
-104.9999999999998
 31
0.0
  0
TEXT
  5
370
  8
SIZE
  6
CONTINUOUS
 10
-154.31461655712829
 20
-68.571428571428541
 30
0.0
 40
64.0
  1
210
 50
90.0
 41
0.9
  0
POINT
  5
371
  8
DEFPOINTS
  6
CONTINUOUS
 62
     0
 10
-22.572022247002678
 20
105.0
 30
0.0
  0
POINT
  5
372
  8
DEFPOINTS
  6
CONTINUOUS
 62
     0
 10
-21.972770000000001
 20
-105.0
 30
0.0
  0
POINT
  5
373
  8
DEFPOINTS
  6
CONTINUOUS
 62
     0
 10
-129.3146165571282
 20
-104.9999999999998
 30
0.0
  0
ENDBLK
  5
374
  8
0
 62
    30
  0
BLOCK
  8
0
 62
     1
  2
配置点
 70
     0
 10
0.0
 20
0.0
 30
0.0
  3
配置点
  1

  0
LINE
  5
40A
  8
ARRENGE
 62
     1
 10
189.77681747763211
 20
149.03934829407481
 30
0.0
 11
218.06108872509409
 21
177.3236195415368
 31
0.0
  0
LINE
  5
40B
  8
ARRENGE
 62
     1
 10
189.77681747763211
 20
177.3236195415368
 30
0.0
 11
218.06108872509409
 21
149.03934829407481
 31
0.0
  0
CIRCLE
  5
40C
  8
ARRENGE
 62
     1
 10
203.91895310136309
 20
163.18148391780579
 30
0.0
 40
40.0
  0
ENDBLK
  5
40E
  8
0
 62
     1
  0
BLOCK
  8
0
 62
    30
  2
*D8
 70
     1
 10
0.0
 20
0.0
 30
0.0
  3
*D8
  1

  0
LINE
  5
4FC
  8
SIZE
  6
CONTINUOUS
 10
47.730746000000003
 20
104.9999999999999
 30
0.0
 11
235.2342582807496
 21
104.9999999999999
 31
0.0
  0
LINE
  5
4FD
  8
SIZE
  6
CONTINUOUS
 10
41.97276999999999
 20
-105.0
 30
0.0
 11
235.2342582807496
 21
-105.0
 31
0.0
  0
LINE
  5
4FE
  8
SIZE
  6
CONTINUOUS
 10
215.2342582807496
 20
104.9999999999999
 30
0.0
 11
215.2342582807496
 21
-105.0
 31
0.0
  0
TEXT
  5
4FF
  8
SIZE
  6
CONTINUOUS
 10
190.2342582807496
 20
-68.571428571428569
 30
0.0
 40
64.0
  1
210
 50
90.0
 41
0.9
  0
POINT
  5
500
  8
DEFPOINTS
  6
CONTINUOUS
 62
     0
 10
27.730746000000011
 20
105.0
 30
0.0
  0
POINT
  5
501
  8
DEFPOINTS
  6
CONTINUOUS
 62
     0
 10
21.972770000000001
 20
-105.0
 30
0.0
  0
POINT
  5
502
  8
DEFPOINTS
  6
CONTINUOUS
 62
     0
 10
215.2342582807496
 20
-105.0
 30
0.0
  0
ENDBLK
  5
503
  8
0
 62
    30
  0
BLOCK
  8
0
 62
    30
  2
V-12PP6-BL_5
 70
     0
 10
0.0
 20
0.0
 30
0.0
  3
V-12PP6-BL_5
  1

  0
LINE
  5
505
  8
BASIS
  6
DASHDOT
 62
     6
 39
50.0
 10
63.351306211597141
 20
0.0
 30
0.0
 11
-114.9560164241993
 21
0.0
 31
0.0
  0
CIRCLE
  5
506
  8
ARRANGE
  6
CONTINUOUS
 62
     1
 39
50.0
 10
0.0
 20
0.0
 30
0.0
 40
40.0
  0
LINE
  5
507
  8
DETAIL
  6
CONTINUOUS
 62
     5
 39
50.0
 10
0.0
 20
105.0
 30
0.0
 11
0.0
 21
-105.0
 31
0.0
  0
LINE
  5
508
  8
DETAIL
  6
CONTINUOUS
 62
     5
 39
50.0
 10
0.0
 20
-70.0
 30
0.0
 11
-60.0
 21
-70.0
 31
0.0
  0
LINE
  5
509
  8
DETAIL
  6
CONTINUOUS
 62
     5
 39
50.0
 10
-60.0
 20
-70.0
 30
0.0
 11
-60.0
 21
35.0
 31
0.0
  0
LINE
  5
50A
  8
DETAIL
  6
CONTINUOUS
 62
     5
 39
50.0
 10
-60.0
 20
70.0
 30
0.0
 11
0.0
 21
70.0
 31
0.0
  0
LINE
  5
50B
  8
DETAIL
  6
CONTINUOUS
 62
     5
 39
50.0
 10
-66.0
 20
32.5
 30
0.0
 11
-66.0
 21
-32.5
 31
0.0
  0
LINE
  5
50C
  8
DETAIL
  6
CONTINUOUS
 62
     5
 39
50.0
 10
-66.0
 20
31.5
 30
0.0
 11
-88.0
 21
31.5
 31
0.0
  0
LINE
  5
50D
  8
DETAIL
  6
CONTINUOUS
 62
     5
 39
50.0
 10
-93.0
 20
26.5
 30
0.0
 11
-93.0
 21
-26.5
 31
0.0
  0
LINE
  5
50E
  8
DETAIL
  6
CONTINUOUS
 62
     5
 39
50.0
 10
-88.0
 20
-31.5
 30
0.0
 11
-66.0
 21
-31.5
 31
0.0
  0
ARC
  5
50F
  8
DETAIL
  6
CONTINUOUS
 62
     5
 39
50.0
 10
-88.0
 20
26.5
 30
0.0
 40
5.0
 50
90.0
 51
180.0
  0
ARC
  5
510
  8
DETAIL
  6
CONTINUOUS
 62
     5
 39
50.0
 10
-88.0
 20
-26.5
 30
0.0
 40
5.0
 50
180.0
 51
270.0
  0
LINE
  5
511
  8
DETAIL
  6
CONTINUOUS
 62
     5
 39
50.0
 10
-60.0
 20
65.0
 30
0.0
 11
0.0
 21
65.0
 31
0.0
  0
LINE
  5
512
  8
DETAIL
  6
CONTINUOUS
 62
     5
 39
50.0
 10
-60.0
 20
35.0
 30
0.0
 11
-48.0
 21
35.0
 31
0.0
  0
LINE
  5
513
  8
DETAIL
  6
CONTINUOUS
 62
     5
 39
50.0
 10
-31.258268000000001
 20
37.952019
 30
0.0
 11
-31.258268000000001
 21
46.952018999999993
 31
0.0
  0
LINE
  5
514
  8
DETAIL
  6
CONTINUOUS
 62
     5
 39
50.0
 10
-48.0
 20
35.0
 30
0.0
 11
-31.258268000000001
 21
37.952019
 31
0.0
  0
LINE
  5
515
  8
DETAIL
  6
CONTINUOUS
 62
     5
 39
50.0
 10
-48.0
 20
43.978225999999999
 30
0.0
 11
-31.258268000000001
 21
46.930244999999992
 31
0.0
  0
LINE
  5
516
  8
DETAIL
  6
CONTINUOUS
 62
     5
 39
50.0
 10
-48.0
 20
43.978225999999999
 30
0.0
 11
-60.0
 21
43.978225999999999
 31
0.0
  0
LINE
  5
517
  8
DETAIL
  6
CONTINUOUS
 62
     5
 39
50.0
 10
-48.0
 20
43.978225999999999
 30
0.0
 11
-48.0
 21
35.0
 31
0.0
  0
LINE
  5
518
  8
DETAIL
  6
CONTINUOUS
 62
     5
 39
50.0
 10
-58.0
 20
43.978225999999999
 30
0.0
 11
-58.0
 21
35.0
 31
0.0
  0
LINE
  5
519
  8
DETAIL
  6
CONTINUOUS
 62
     5
 39
50.0
 10
-60.0
 20
43.978225999999999
 30
0.0
 11
-60.0
 21
70.0
 31
0.0
  0
LINE
  5
51A
  8
OUTLINE
  6
CONTINUOUS
 62
     3
 39
50.0
 10
0.0
 20
105.0
 30
0.0
 11
0.0
 21
-105.0
 31
0.0
  0
LINE
  5
51B
  8
OUTLINE
  6
CONTINUOUS
 62
     3
 39
50.0
 10
0.0
 20
-70.0
 30
0.0
 11
-60.0
 21
-70.0
 31
0.0
  0
LINE
  5
51C
  8
OUTLINE
  6
CONTINUOUS
 62
     3
 39
50.0
 10
-60.0
 20
-70.0
 30
0.0
 11
-60.0
 21
35.0
 31
0.0
  0
LINE
  5
51D
  8
OUTLINE
  6
CONTINUOUS
 62
     3
 39
50.0
 10
-93.0
 20
26.5
 30
0.0
 11
-93.0
 21
-26.5
 31
0.0
  0
ARC
  5
51E
  8
OUTLINE
  6
CONTINUOUS
 62
     3
 39
50.0
 10
-88.0
 20
-26.5
 30
0.0
 40
5.0
 50
180.0
 51
270.0
  0
LINE
  5
51F
  8
OUTLINE
  6
CONTINUOUS
 62
     3
 39
50.0
 10
-88.0
 20
-31.5
 30
0.0
 11
-66.0
 21
-31.5
 31
0.0
  0
ARC
  5
520
  8
OUTLINE
  6
CONTINUOUS
 62
     3
 39
50.0
 10
-88.0
 20
26.5
 30
0.0
 40
5.0
 50
90.0
 51
180.0
  0
LINE
  5
521
  8
OUTLINE
  6
CONTINUOUS
 62
     3
 39
50.0
 10
-66.0
 20
31.5
 30
0.0
 11
-88.0
 21
31.5
 31
0.0
  0
LINE
  5
522
  8
OUTLINE
  6
CONTINUOUS
 62
     3
 39
50.0
 10
-60.0
 20
70.0
 30
0.0
 11
0.0
 21
70.0
 31
0.0
  0
LINE
  5
523
  8
OUTLINE
  6
CONTINUOUS
 62
     3
 39
50.0
 10
-60.0
 20
43.978225999999999
 30
0.0
 11
-60.0
 21
70.0
 31
0.0
  0
LINE
  5
524
  8
OUTLINE
  6
CONTINUOUS
 62
     3
 39
50.0
 10
-48.0
 20
43.978225999999999
 30
0.0
 11
-31.258268000000001
 21
46.930244999999992
 31
0.0
  0
LINE
  5
525
  8
OUTLINE
  6
CONTINUOUS
 62
     3
 39
50.0
 10
-31.258268000000001
 20
37.952019
 30
0.0
 11
-31.258268000000001
 21
46.952018999999993
 31
0.0
  0
LINE
  5
526
  8
OUTLINE
  6
CONTINUOUS
 62
     3
 39
50.0
 10
-48.0
 20
35.0
 30
0.0
 11
-31.258268000000001
 21
37.952019
 31
0.0
  0
LINE
  5
527
  8
OUTLINE
  6
CONTINUOUS
 62
     3
 39
50.0
 10
-48.0
 20
43.978225999999999
 30
0.0
 11
-60.0
 21
43.978225999999999
 31
0.0
  0
LINE
  5
528
  8
OUTLINE
  6
CONTINUOUS
 62
     3
 39
50.0
 10
-60.0
 20
35.0
 30
0.0
 11
-48.0
 21
35.0
 31
0.0
  0
ARC
  5
529
  8
FIX
  6
CONTINUOUS
 62
    11
 39
50.0
 10
0.0
 20
0.0
 30
0.0
 40
2.0
 50
180.0
 51
0.0
  0
ARC
  5
52A
  8
FIX
  6
CONTINUOUS
 62
    11
 39
50.0
 10
0.0
 20
6.0
 30
0.0
 40
2.0
 50
0.0
 51
180.0
  0
LINE
  5
52B
  8
FIX
  6
CONTINUOUS
 62
    11
 39
50.0
 10
-2.0
 20
6.0
 30
0.0
 11
-2.0
 21
0.0
 31
0.0
  0
LINE
  5
52C
  8
FIX
  6
CONTINUOUS
 62
    11
 39
50.0
 10
2.0
 20
6.0
 30
0.0
 11
2.0
 21
0.0
 31
0.0
  0
LINE
  5
52D
  8
NOTE
  6
CONTINUOUS
 62
     4
 10
0.0
 20
-20.0
 30
0.0
 11
0.0
 21
20.0
 31
0.0
  0
LINE
  5
52E
  8
NOTE
  6
CONTINUOUS
 62
     4
 10
20.0
 20
0.0
 30
0.0
 11
-20.0
 21
0.0
 31
0.0
  0
LINE
  5
52F
  8
NOTE
  6
CONTINUOUS
 62
     4
 39
50.0
 10
0.0
 20
0.0
 30
0.0
 11
0.0
 21
6.0
 31
0.0
  0
LINE
  5
530
  8
NOTE
  6
CONTINUOUS
 62
     4
 10
0.0
 20
-14.0
 30
0.0
 11
0.0
 21
26.0
 31
0.0
  0
LINE
  5
531
  8
NOTE
  6
CONTINUOUS
 62
     4
 10
20.0
 20
6.0
 30
0.0
 11
-20.0
 21
6.0
 31
0.0
  0
LINE
  5
532
  8
SIZE
  6
CONTINUOUS
 62
    30
 10
-80.0
 20
-70.0
 30
0.0
 11
-390.13753276567769
 21
-70.0
 31
0.0
  0
LINE
  5
533
  8
SIZE
  6
CONTINUOUS
 62
    30
 10
-80.0
 20
70.0
 30
0.0
 11
-391.60810767440768
 21
70.0
 31
0.0
  0
LINE
  5
534
  8
SIZE
  6
CONTINUOUS
 62
    30
 10
-369.59954890213822
 20
58.0
 30
0.0
 11
-369.59954890213822
 21
-58.0
 31
0.0
  0
LINE
  5
535
  8
SIZE
  6
CONTINUOUS
 62
    30
 10
-369.59954890213822
 20
-70.0
 30
0.0
 11
-369.59954890213822
 21
-333.44971499999991
 31
0.0
  0
CIRCLE
  5
536
  8
SIZE
  6
CONTINUOUS
 62
    30
 10
-369.59954890213822
 20
70.0
 30
0.0
 40
6.0
  0
LINE
  5
537
  8
SIZE
  6
CONTINUOUS
 62
    30
 10
-369.59954890213822
 20
70.0
 30
0.0
 11
-369.59954890213822
 21
58.0
 31
0.0
  0
CIRCLE
  5
538
  8
SIZE
  6
CONTINUOUS
 62
    30
 10
-369.59954890213822
 20
-70.0
 30
0.0
 40
6.0
  0
LINE
  5
539
  8
SIZE
  6
CONTINUOUS
 62
    30
 10
-369.59954890213822
 20
-70.0
 30
0.0
 11
-369.59954890213822
 21
-58.0
 31
0.0
  0
TEXT
  5
53A
  8
SIZE
  6
CONTINUOUS
 62
    30
 10
-394.59954890213822
 20
-322.71257157142861
 30
0.0
 40
64.0
  1
φ140
 50
90.0
 41
0.9
 72
     1
 11
-394.59954890213822
 21
-213.82114300000001
 31
0.0
  0
LINE
  5
53B
  8
SIZE
  6
CONTINUOUS
 62
    30
 10
-60.0
 20
-90.0
 30
0.0
 11
-60.0
 21
-349.34302200000002
 31
0.0
  0
LINE
  5
53C
  8
SIZE
  6
CONTINUOUS
 62
    30
 10
-72.0
 20
-329.34302200000002
 30
0.0
 11
-270.39580000000001
 21
-329.34302200000002
 31
0.0
  0
LINE
  5
53D
  8
SIZE
  6
CONTINUOUS
 62
    30
 10
0.0
 20
-329.34302200000002
 30
0.0
 11
-60.0
 21
-329.34302200000002
 31
0.0
  0
CIRCLE
  5
53E
  8
SIZE
  6
CONTINUOUS
 62
    30
 10
0.0
 20
-329.34302200000002
 30
0.0
 40
6.0
  0
CIRCLE
  5
53F
  8
SIZE
  6
CONTINUOUS
 62
    30
 10
-60.0
 20
-329.34302200000002
 30
0.0
 40
6.0
  0
LINE
  5
540
  8
SIZE
  6
CONTINUOUS
 62
    30
 10
-60.0
 20
-329.34302200000002
 30
0.0
 11
-72.0
 21
-329.34302200000002
 31
0.0
  0
TEXT
  5
541
  8
SIZE
  6
CONTINUOUS
 62
    30
 10
-245.39580042857139
 20
-304.34302200000002
 30
0.0
 40
64.0
  1
60
 41
0.9
 72
     1
 11
-198.7672289999999
 21
-304.34302200000002
 31
0.0
  0
LINE
  5
542
  8
SIZE
  6
CONTINUOUS
 62
    30
 10
0.0
 20
-125.0
 30
0.0
 11
0.0
 21
-483.11417599999999
 31
0.0
  0
LINE
  5
543
  8
SIZE
  6
CONTINUOUS
 62
    30
 10
-93.0
 20
-46.5
 30
0.0
 11
-93.0
 21
-483.11417599999999
 31
0.0
  0
CIRCLE
  5
544
  8
SIZE
  6
CONTINUOUS
 62
    30
 10
0.0
 20
-463.11417599999999
 30
0.0
 40
6.0
  0
CIRCLE
  5
545
  8
SIZE
  6
CONTINUOUS
 62
    30
 10
-93.0
 20
-463.11417599999999
 30
0.0
 40
6.0
  0
TEXT
  5
546
  8
SIZE
  6
CONTINUOUS
 62
    30
 10
-247.4148784285714
 20
-438.11417599999999
 30
0.0
 40
64.0
  1
93
 41
0.9
 72
     1
 11
-200.78630699999991
 21
-438.11417599999999
 31
0.0
  0
TEXT
  5
547
  8
NOTE
  6
CONTINUOUS
 62
     4
 10
-949.83296399999995
 20
131.20128099999991
 30
0.0
 40
64.0
  1
2ヶ所×4×10取付用長穴
 41
0.9
  0
LINE
  5
548
  8
NOTE
  6
CONTINUOUS
 62
     4
 39
50.0
 10
0.0
 20
6.0
 30
0.0
 11
-125.454346
 21
116.80816899999991
 31
0.0
  0
LINE
  5
549
  8
NOTE
  6
CONTINUOUS
 62
     4
 39
50.0
 10
-125.454346
 20
116.80816899999991
 30
0.0
 11
-956.37026000000003
 21
116.80816899999991
 31
0.0
  0
LINE
  5
54A
  8
NOTE
  6
CONTINUOUS
 62
     4
 10
-21.751380000000001
 20
39.568995999999991
 30
0.0
 11
0.0
 21
6.0
 31
0.0
  0
LINE
  5
54B
  8
NOTE
  6
CONTINUOUS
 62
     4
 10
0.0
 20
6.0
 30
0.0
 11
-35.621746000000002
 21
24.195913000000001
 31
0.0
  0
LINE
  5
54C
  8
SIZE
  6
CONTINUOUS
 62
    30
 10
-40.0
 20
6.0
 30
0.0
 11
-225.542914
 21
6.0
 31
0.0
  0
LINE
  5
54D
  8
SIZE
  6
CONTINUOUS
 62
    30
 10
-125.98533630650211
 20
0.0
 30
0.0
 11
-225.542914
 21
0.0
 31
0.0
  0
LINE
  5
54E
  8
SIZE
  6
CONTINUOUS
 62
    30
 10
-205.542914
 20
18.0
 30
0.0
 11
-205.542914
 21
30.0
 31
0.0
  0
LINE
  5
54F
  8
SIZE
  6
CONTINUOUS
 62
    30
 10
-205.542914
 20
-12.0
 30
0.0
 11
-205.542914
 21
-171.3083399999999
 31
0.0
  0
LINE
  5
550
  8
SIZE
  6
CONTINUOUS
 62
    30
 10
-205.542914
 20
6.0
 30
0.0
 11
-205.542914
 21
0.0
 31
0.0
  0
CIRCLE
  5
551
  8
SIZE
  6
CONTINUOUS
 62
    30
 10
-205.542914
 20
6.0
 30
0.0
 40
6.0
  0
LINE
  5
552
  8
SIZE
  6
CONTINUOUS
 62
    30
 10
-205.542914
 20
6.0
 30
0.0
 11
-205.542914
 21
18.0
 31
0.0
  0
CIRCLE
  5
553
  8
SIZE
  6
CONTINUOUS
 62
    30
 10
-205.542914
 20
0.0
 30
0.0
 40
6.0
  0
LINE
  5
554
  8
SIZE
  6
CONTINUOUS
 62
    30
 10
-205.542914
 20
0.0
 30
0.0
 11
-205.542914
 21
-12.0
 31
0.0
  0
TEXT
  5
555
  8
SIZE
  6
CONTINUOUS
 62
    30
 10
-230.542914
 20
-146.30834042857111
 30
0.0
 40
64.0
  1
6
 50
90.0
 41
0.9
 72
     1
 11
-230.542914
 21
-128.47976899999969
 31
0.0
  0
LINE
  5
556
  8
NOTE
  6
CONTINUOUS
 62
     4
 10
-60.0
 20
50.0
 30
0.0
 11
-60.0
 21
90.0
 31
0.0
  0
LINE
  5
557
  8
NOTE
  6
CONTINUOUS
 62
     4
 10
-40.0
 20
70.0
 30
0.0
 11
-80.0
 21
70.0
 31
0.0
  0
TEXT
  5
558
  8
NOTE
  6
CONTINUOUS
 62
     4
 10
-214.29607100000001
 20
243.56359900000001
 30
0.0
 40
64.0
  1
EL
 41
0.9
  0
LINE
  5
559
  8
NOTE
  6
CONTINUOUS
 62
     4
 10
-65.510223999999994
 20
109.6186499999999
 30
0.0
 11
-60.0
 21
70.0
 31
0.0
  0
LINE
  5
55A
  8
NOTE
  6
CONTINUOUS
 62
     4
 10
-60.0
 20
70.0
 30
0.0
 11
-84.581319999999977
 21
101.555645
 31
0.0
  0
LINE
  5
55B
  8
NOTE
  6
CONTINUOUS
 62
     4
 39
50.0
 10
-128.43808799999999
 20
223.66779999999989
 30
0.0
 11
-219.47355200000001
 21
223.66779999999989
 31
0.0
  0
LINE
  5
55C
  8
NOTE
  6
CONTINUOUS
 62
     4
 39
50.0
 10
-128.43808799999999
 20
223.66779999999989
 30
0.0
 11
-60.0
 21
70.0
 31
0.0
  0
LINE
  5
55D
  8
DETAIL
  6
CONTINUOUS
 62
     5
 39
50.0
 10
0.0
 20
105.0
 30
0.0
 11
0.0
 21
-105.0
 31
0.0
  0
LINE
  5
55E
  8
DETAIL
  6
CONTINUOUS
 62
     5
 39
50.0
 10
0.0
 20
105.0
 30
0.0
 11
27.730746000000011
 21
105.0
 31
0.0
  0
LINE
  5
55F
  8
DETAIL
  6
CONTINUOUS
 62
     5
 39
50.0
 10
0.0
 20
-105.0
 30
0.0
 11
21.972770000000001
 21
-105.0
 31
0.0
  0
ARC
  5
560
  8
DETAIL
  6
CONTINUOUS
 62
     5
 39
50.0
 10
-517.70000000000005
 20
15.619999999999999
 30
0.0
 40
556.91909099999987
 50
347.90769599999987
 51
8.7941380000000002
  0
ARC
  5
561
  8
DETAIL
  6
CONTINUOUS
 62
     5
 39
50.0
 10
27.730746000000011
 20
100.0
 30
0.0
 40
5.0
 50
8.7941380000000002
 51
90.0
  0
ARC
  5
562
  8
DETAIL
  6
CONTINUOUS
 62
     5
 39
50.0
 10
21.972770000000001
 20
-100.0
 30
0.0
 40
5.0
 50
270.0
 51
347.90769599999987
  0
ARC
  5
563
  8
OUTLINE
  6
CONTINUOUS
 62
     3
 39
50.0
 10
-517.70000000000005
 20
15.619999999999999
 30
0.0
 40
556.91909099999987
 50
347.90769599999987
 51
8.7941380000000002
  0
LINE
  5
564
  8
OUTLINE
  6
CONTINUOUS
 62
     3
 39
50.0
 10
0.0
 20
105.0
 30
0.0
 11
0.0
 21
-105.0
 31
0.0
  0
ARC
  5
565
  8
OUTLINE
  6
CONTINUOUS
 62
     3
 39
50.0
 10
21.972770000000001
 20
-100.0
 30
0.0
 40
5.0
 50
270.0
 51
347.90769599999987
  0
LINE
  5
566
  8
OUTLINE
  6
CONTINUOUS
 62
     3
 39
50.0
 10
0.0
 20
-105.0
 30
0.0
 11
21.972770000000001
 21
-105.0
 31
0.0
  0
ARC
  5
567
  8
OUTLINE
  6
CONTINUOUS
 62
     3
 39
50.0
 10
27.730746000000011
 20
100.0
 30
0.0
 40
5.0
 50
8.7941380000000002
 51
90.0
  0
LINE
  5
568
  8
OUTLINE
  6
CONTINUOUS
 62
     3
 39
50.0
 10
0.0
 20
105.0
 30
0.0
 11
27.730746000000011
 21
105.0
 31
0.0
  0
LINE
  5
569
  8
SIZE
  6
CONTINUOUS
 62
    30
 10
39.0
 20
-20.0
 30
0.0
 11
39.0
 21
-483.11417599999999
 31
0.0
  0
LINE
  5
56A
  8
SIZE
  6
CONTINUOUS
 62
    30
 10
51.0
 20
-463.11417599999999
 30
0.0
 11
203.514286
 21
-463.11417599999999
 31
0.0
  0
LINE
  5
56B
  8
SIZE
  6
CONTINUOUS
 62
    30
 10
-266.19552502654079
 20
-463.11417599999999
 30
0.0
 11
39.0
 21
-463.11417599999999
 31
0.0
  0
CIRCLE
  5
56C
  8
SIZE
  6
CONTINUOUS
 62
    30
 10
0.0
 20
-463.11417599999999
 30
0.0
 40
6.0
  0
CIRCLE
  5
56D
  8
SIZE
  6
CONTINUOUS
 62
    30
 10
39.0
 20
-463.11417599999999
 30
0.0
 40
6.0
  0
LINE
  5
56E
  8
SIZE
  6
CONTINUOUS
 62
    30
 10
39.0
 20
-463.11417599999999
 30
0.0
 11
51.0
 21
-463.11417599999999
 31
0.0
  0
TEXT
  5
56F
  8
SIZE
  6
CONTINUOUS
 62
    30
 10
88.000000142857047
 20
-438.11417599999999
 30
0.0
 40
64.0
  1
39
 41
0.9
 72
     1
 11
133.2571429999999
 21
-438.11417599999999
 31
0.0
  0
POINT
  5
570
  8
ARRANGE
  6
CONTINUOUS
 62
     1
 10
0.0
 20
0.0
 30
0.0
 39
50.0
  0
TEXT
  5
571
  8
ETC
  6
CONTINUOUS
 62
    61
 10
53.824471262665661
 20
314.83472537405862
 30
0.0
 40
50.0
  1
換気扇
 41
0.9
  0
TEXT
  5
572
  8
ETC
  6
CONTINUOUS
 62
    61
 10
133.26428573018791
 20
261.57524387628229
 30
0.0
 40
40.0
  1
V-12PP6-BL
 41
0.9
  0
TEXT
  5
573
  8
ETC
  6
CONTINUOUS
 62
    61
 10
58.237333262665622
 20
381.62214137405851
 30
0.0
 40
50.0
  1
V-12PP6-BL_5
 41
0.9
  0
LINE
  5
574
  8
DETAIL
  6
CONTINUOUS
 62
     5
 39
50.0
 10
-66.0
 20
-32.5
 30
0.0
 11
-60.0
 21
-32.5
 31
0.0
  0
LINE
  5
575
  8
DETAIL
  6
CONTINUOUS
 62
     5
 39
50.0
 10
-66.0
 20
32.5
 30
0.0
 11
-60.0
 21
32.5
 31
0.0
  0
LINE
  5
576
  8
OUTLINE
  6
CONTINUOUS
 62
     3
 39
50.0
 10
-60.0
 20
32.5
 30
0.0
 11
-66.0
 21
32.5
 31
0.0
  0
LINE
  5
577
  8
OUTLINE
  6
CONTINUOUS
 62
     3
 39
50.0
 10
-66.0
 20
32.5
 30
0.0
 11
-66.0
 21
-32.5
 31
0.0
  0
LINE
  5
578
  8
OUTLINE
  6
CONTINUOUS
 62
     3
 39
50.0
 10
-66.0
 20
-32.5
 30
0.0
 11
-60.0
 21
-32.5
 31
0.0
  0
CIRCLE
  5
579
  8
SIZE
  6
CONTINUOUS
 62
    30
 39
50.0
 10
215.2342582807496
 20
104.9999999999999
 30
0.0
 40
6.0
  0
CIRCLE
  5
57A
  8
SIZE
  6
CONTINUOUS
 62
    30
 39
50.0
 10
215.2342582807496
 20
-105.0
 30
0.0
 40
6.0
  0
LINE
  5
57B
  8
SIZE
  6
CONTINUOUS
 10
47.730746000000003
 20
104.9999999999999
 30
0.0
 11
235.2342582807496
 21
104.9999999999999
 31
0.0
  0
LINE
  5
57C
  8
SIZE
  6
CONTINUOUS
 10
41.97276999999999
 20
-105.0
 30
0.0
 11
235.2342582807496
 21
-105.0
 31
0.0
  0
LINE
  5
57D
  8
SIZE
  6
CONTINUOUS
 10
215.2342582807496
 20
104.9999999999999
 30
0.0
 11
215.2342582807496
 21
-105.0
 31
0.0
  0
TEXT
  5
57E
  8
SIZE
  6
CONTINUOUS
 62
    30
 10
193.17192511391181
 20
-103.08238995799471
 30
0.0
 40
64.0
  1
□210
 50
90.0
 41
0.9
 72
     1
 11
193.17192511391181
 21
1.9690386134338651
 31
0.0
  0
ENDBLK
  5
580
  8
0
 62
    30
  0
ENDSEC
  0
SECTION
  2
ENTITIES
  0
LINE
  5
375
  8
BASIS
  6
DASHDOT
 62
     6
 39
50.0
 10
-60.431670803353882
 20
0.0
 30
0.0
 11
112.6739172754686
 21
0.0
 31
0.0
  0
LINE
  5
377
  8
DETAIL
  6
CONTINUOUS
 62
     5
 39
50.0
 10
0.0
 20
105.0
 30
0.0
 11
0.0
 21
-105.0
 31
0.0
  0
LINE
  5
378
  8
DETAIL
  6
CONTINUOUS
 62
     5
 39
50.0
 10
0.0
 20
-70.0
 30
0.0
 11
60.0
 21
-70.0
 31
0.0
  0
LINE
  5
379
  8
DETAIL
  6
CONTINUOUS
 62
     5
 39
50.0
 10
60.0
 20
-70.0
 30
0.0
 11
60.0
 21
35.0
 31
0.0
  0
LINE
  5
37A
  8
DETAIL
  6
CONTINUOUS
 62
     5
 39
50.0
 10
60.0
 20
70.0
 30
0.0
 11
0.0
 21
70.0
 31
0.0
  0
LINE
  5
37B
  8
DETAIL
  6
CONTINUOUS
 62
     5
 39
50.0
 10
65.999999999999986
 20
32.5
 30
0.0
 11
65.999999999999986
 21
-32.5
 31
0.0
  0
LINE
  5
37C
  8
DETAIL
  6
CONTINUOUS
 62
     5
 39
50.0
 10
65.999999999999986
 20
31.5
 30
0.0
 11
87.999999999999986
 21
31.5
 31
0.0
  0
LINE
  5
37D
  8
DETAIL
  6
CONTINUOUS
 62
     5
 39
50.0
 10
92.999999999999986
 20
26.5
 30
0.0
 11
92.999999999999986
 21
-26.5
 31
0.0
  0
LINE
  5
37E
  8
DETAIL
  6
CONTINUOUS
 62
     5
 39
50.0
 10
87.999999999999986
 20
-31.5
 30
0.0
 11
65.999999999999986
 21
-31.5
 31
0.0
  0
ARC
  5
37F
  8
DETAIL
  6
CONTINUOUS
 62
     5
 39
50.0
 10
87.999999999999986
 20
26.5
 30
0.0
 40
5.0
 50
0.0
 51
90.0
  0
ARC
  5
380
  8
DETAIL
  6
CONTINUOUS
 62
     5
 39
50.0
 10
87.999999999999986
 20
-26.5
 30
0.0
 40
5.0
 50
270.0
 51
0.0
  0
LINE
  5
381
  8
DETAIL
  6
CONTINUOUS
 62
     5
 39
50.0
 10
60.0
 20
65.0
 30
0.0
 11
0.0
 21
65.0
 31
0.0
  0
LINE
  5
382
  8
DETAIL
  6
CONTINUOUS
 62
     5
 39
50.0
 10
60.0
 20
35.0
 30
0.0
 11
48.0
 21
35.0
 31
0.0
  0
LINE
  5
383
  8
DETAIL
  6
CONTINUOUS
 62
     5
 39
50.0
 10
31.258268000000001
 20
37.952019
 30
0.0
 11
31.258268000000001
 21
46.952018999999993
 31
0.0
  0
LINE
  5
384
  8
DETAIL
  6
CONTINUOUS
 62
     5
 39
50.0
 10
48.0
 20
35.0
 30
0.0
 11
31.258268000000001
 21
37.952019
 31
0.0
  0
LINE
  5
385
  8
DETAIL
  6
CONTINUOUS
 62
     5
 39
50.0
 10
48.0
 20
43.978225999999999
 30
0.0
 11
31.258268000000001
 21
46.930244999999992
 31
0.0
  0
LINE
  5
386
  8
DETAIL
  6
CONTINUOUS
 62
     5
 39
50.0
 10
48.0
 20
43.978225999999999
 30
0.0
 11
60.0
 21
43.978225999999999
 31
0.0
  0
LINE
  5
387
  8
DETAIL
  6
CONTINUOUS
 62
     5
 39
50.0
 10
48.0
 20
43.978225999999999
 30
0.0
 11
48.0
 21
35.0
 31
0.0
  0
LINE
  5
388
  8
DETAIL
  6
CONTINUOUS
 62
     5
 39
50.0
 10
57.999999999999979
 20
43.978225999999999
 30
0.0
 11
57.999999999999979
 21
35.0
 31
0.0
  0
LINE
  5
389
  8
DETAIL
  6
CONTINUOUS
 62
     5
 39
50.0
 10
60.0
 20
43.978225999999999
 30
0.0
 11
60.0
 21
70.0
 31
0.0
  0
ARC
  5
399
  8
FIX
  6
CONTINUOUS
 62
    11
 39
50.0
 10
0.0
 20
0.0
 30
0.0
 40
2.0
 50
180.0
 51
0.0
  0
ARC
  5
39A
  8
FIX
  6
CONTINUOUS
 62
    11
 39
50.0
 10
0.0
 20
6.0
 30
0.0
 40
2.0
 50
0.0
 51
180.0
  0
LINE
  5
39B
  8
FIX
  6
CONTINUOUS
 62
    11
 39
50.0
 10
2.0
 20
6.0
 30
0.0
 11
2.0
 21
0.0
 31
0.0
  0
LINE
  5
39C
  8
FIX
  6
CONTINUOUS
 62
    11
 39
50.0
 10
-2.0
 20
6.0
 30
0.0
 11
-2.0
 21
0.0
 31
0.0
  0
LINE
  5
39D
  8
NOTE
  6
CONTINUOUS
 62
     4
 10
0.0
 20
-20.0
 30
0.0
 11
0.0
 21
20.0
 31
0.0
  0
LINE
  5
39E
  8
NOTE
  6
CONTINUOUS
 62
     4
 10
-19.999999999999989
 20
0.0
 30
0.0
 11
19.999999999999989
 21
0.0
 31
0.0
  0
LINE
  5
39F
  8
NOTE
  6
CONTINUOUS
 62
     4
 39
50.0
 10
0.0
 20
0.0
 30
0.0
 11
0.0
 21
6.0
 31
0.0
  0
LINE
  5
3A0
  8
NOTE
  6
CONTINUOUS
 62
     4
 10
0.0
 20
-14.0
 30
0.0
 11
0.0
 21
26.0
 31
0.0
  0
LINE
  5
3A1
  8
NOTE
  6
CONTINUOUS
 62
     4
 10
-19.999999999999989
 20
6.0
 30
0.0
 11
19.999999999999989
 21
6.0
 31
0.0
  0
LINE
  5
3A2
  8
SIZE
  6
CONTINUOUS
 62
    30
 10
79.999999999999986
 20
-70.0
 30
0.0
 11
414.46752832921987
 21
-70.0
 31
0.0
  0
LINE
  5
3A3
  8
SIZE
  6
CONTINUOUS
 62
    30
 10
79.999999999999986
 20
70.0
 30
0.0
 11
415.87203518996222
 21
70.0
 31
0.0
  0
LINE
  5
3A4
  8
SIZE
  6
CONTINUOUS
 62
    30
 10
395.5391290879262
 20
58.0
 30
0.0
 11
395.5391290879262
 21
-58.0
 31
0.0
  0
LINE
  5
3A5
  8
SIZE
  6
CONTINUOUS
 62
    30
 10
395.5391290879262
 20
-70.0
 30
0.0
 11
395.5391290879262
 21
-333.44971499999991
 31
0.0
  0
CIRCLE
  5
3A6
  8
SIZE
  6
CONTINUOUS
 62
    30
 10
395.5391290879262
 20
70.0
 30
0.0
 40
6.0
  0
LINE
  5
3A7
  8
SIZE
  6
CONTINUOUS
 62
    30
 10
395.5391290879262
 20
70.0
 30
0.0
 11
395.5391290879262
 21
58.0
 31
0.0
  0
CIRCLE
  5
3A8
  8
SIZE
  6
CONTINUOUS
 62
    30
 10
395.5391290879262
 20
-70.0
 30
0.0
 40
6.0
  0
LINE
  5
3A9
  8
SIZE
  6
CONTINUOUS
 62
    30
 10
395.5391290879262
 20
-70.0
 30
0.0
 11
395.5391290879262
 21
-58.0
 31
0.0
  0
TEXT
  5
3AA
  8
SIZE
  6
CONTINUOUS
 62
    30
 10
370.5391290879262
 20
-322.71257157142861
 30
0.0
 40
64.0
  1
φ140
 50
90.0
 41
0.9
 72
     1
 11
370.5391290879262
 21
-213.82114300000001
 31
0.0
  0
LINE
  5
3AB
  8
SIZE
  6
CONTINUOUS
 62
    30
 10
0.0
 20
-125.0
 30
0.0
 11
0.0
 21
-349.34302200000002
 31
0.0
  0
LINE
  5
3AC
  8
SIZE
  6
CONTINUOUS
 62
    30
 10
60.0
 20
-90.0
 30
0.0
 11
60.0
 21
-349.34302200000002
 31
0.0
  0
LINE
  5
3AD
  8
SIZE
  6
CONTINUOUS
 62
    30
 10
71.999999999999986
 20
-329.34302200000002
 30
0.0
 11
270.39580000000001
 21
-329.34302200000002
 31
0.0
  0
LINE
  5
3AE
  8
SIZE
  6
CONTINUOUS
 62
    30
 10
0.0
 20
-329.34302200000002
 30
0.0
 11
60.0
 21
-329.34302200000002
 31
0.0
  0
CIRCLE
  5
3AF
  8
SIZE
  6
CONTINUOUS
 62
    30
 10
0.0
 20
-329.34302200000002
 30
0.0
 40
6.0
  0
CIRCLE
  5
3B0
  8
SIZE
  6
CONTINUOUS
 62
    30
 10
60.0
 20
-329.34302200000002
 30
0.0
 40
6.0
  0
LINE
  5
3B1
  8
SIZE
  6
CONTINUOUS
 62
    30
 10
60.0
 20
-329.34302200000002
 30
0.0
 11
71.999999999999986
 21
-329.34302200000002
 31
0.0
  0
TEXT
  5
3B2
  8
SIZE
  6
CONTINUOUS
 62
    30
 10
152.1386575714283
 20
-304.34302200000002
 30
0.0
 40
64.0
  1
60
 41
0.9
 72
     1
 11
198.7672289999997
 21
-304.34302200000002
 31
0.0
  0
LINE
  5
3B3
  8
SIZE
  6
CONTINUOUS
 62
    30
 10
0.0
 20
-125.0
 30
0.0
 11
0.0
 21
-483.11417599999999
 31
0.0
  0
LINE
  5
3B4
  8
SIZE
  6
CONTINUOUS
 62
    30
 10
92.999999999999986
 20
-46.5
 30
0.0
 11
92.999999999999986
 21
-483.11417599999999
 31
0.0
  0
CIRCLE
  5
3B5
  8
SIZE
  6
CONTINUOUS
 62
    30
 10
0.0
 20
-463.11417599999999
 30
0.0
 40
6.0
  0
CIRCLE
  5
3B6
  8
SIZE
  6
CONTINUOUS
 62
    30
 10
92.999999999999986
 20
-463.11417599999999
 30
0.0
 40
6.0
  0
TEXT
  5
3B7
  8
SIZE
  6
CONTINUOUS
 62
    30
 10
154.1577355714285
 20
-438.11417599999999
 30
0.0
 40
64.0
  1
93
 41
0.9
 72
     1
 11
200.78630699999991
 21
-438.11417599999999
 31
0.0
  0
TEXT
  5
3B8
  8
NOTE
  6
CONTINUOUS
 62
     4
 10
134.65582099999969
 20
131.20128099999991
 30
0.0
 40
64.0
  1
2ヶ所×4×10取付用長穴
 41
0.9
  0
LINE
  5
3B9
  8
NOTE
  6
CONTINUOUS
 62
     4
 39
50.0
 10
0.0
 20
6.0
 30
0.0
 11
125.4543459999999
 21
116.80816899999991
 31
0.0
  0
LINE
  5
3BA
  8
NOTE
  6
CONTINUOUS
 62
     4
 39
50.0
 10
125.4543459999999
 20
116.80816899999991
 30
0.0
 11
956.37026000000003
 21
116.80816899999991
 31
0.0
  0
LINE
  5
3BB
  8
NOTE
  6
CONTINUOUS
 62
     4
 10
21.751380000000001
 20
39.568995999999991
 30
0.0
 11
0.0
 21
6.0
 31
0.0
  0
LINE
  5
3BC
  8
NOTE
  6
CONTINUOUS
 62
     4
 10
0.0
 20
6.0
 30
0.0
 11
35.621746000000002
 21
24.195913000000001
 31
0.0
  0
LINE
  5
3BD
  8
SIZE
  6
CONTINUOUS
 62
    30
 10
40.0
 20
6.0
 30
0.0
 11
225.54291399999991
 21
6.0
 31
0.0
  0
LINE
  5
3BE
  8
SIZE
  6
CONTINUOUS
 62
    30
 10
152.08586199999999
 20
0.0
 30
0.0
 11
225.54291399999991
 21
0.0
 31
0.0
  0
LINE
  5
3BF
  8
SIZE
  6
CONTINUOUS
 62
    30
 10
205.542914
 20
18.0
 30
0.0
 11
205.542914
 21
30.0
 31
0.0
  0
LINE
  5
3C0
  8
SIZE
  6
CONTINUOUS
 62
    30
 10
205.542914
 20
-12.0
 30
0.0
 11
205.542914
 21
-171.3083399999999
 31
0.0
  0
LINE
  5
3C1
  8
SIZE
  6
CONTINUOUS
 62
    30
 10
205.542914
 20
6.0
 30
0.0
 11
205.542914
 21
0.0
 31
0.0
  0
CIRCLE
  5
3C2
  8
SIZE
  6
CONTINUOUS
 62
    30
 10
205.542914
 20
6.0
 30
0.0
 40
6.0
  0
LINE
  5
3C3
  8
SIZE
  6
CONTINUOUS
 62
    30
 10
205.542914
 20
6.0
 30
0.0
 11
205.542914
 21
18.0
 31
0.0
  0
CIRCLE
  5
3C4
  8
SIZE
  6
CONTINUOUS
 62
    30
 10
205.542914
 20
0.0
 30
0.0
 40
6.0
  0
LINE
  5
3C5
  8
SIZE
  6
CONTINUOUS
 62
    30
 10
205.542914
 20
0.0
 30
0.0
 11
205.542914
 21
-12.0
 31
0.0
  0
TEXT
  5
3C6
  8
SIZE
  6
CONTINUOUS
 62
    30
 10
180.542914
 20
-146.308340428571
 30
0.0
 40
64.0
  1
6
 50
90.0
 41
0.9
 72
     1
 11
180.542914
 21
-128.47976899999961
 31
0.0
  0
LINE
  5
3C7
  8
NOTE
  6
CONTINUOUS
 62
     4
 10
60.0
 20
50.0
 30
0.0
 11
60.0
 21
90.0
 31
0.0
  0
LINE
  5
3C8
  8
NOTE
  6
CONTINUOUS
 62
     4
 10
40.0
 20
70.0
 30
0.0
 11
79.999999999999986
 21
70.0
 31
0.0
  0
TEXT
  5
3C9
  8
NOTE
  6
CONTINUOUS
 62
     4
 10
131.96076599999969
 20
243.27740299999999
 30
0.0
 40
64.0
  1
EL
 41
0.9
  0
LINE
  5
3CA
  8
NOTE
  6
CONTINUOUS
 62
     4
 10
67.396357999999992
 20
109.310226
 30
0.0
 11
60.0
 21
70.0
 31
0.0
  0
LINE
  5
3CB
  8
NOTE
  6
CONTINUOUS
 62
     4
 10
60.0
 20
70.0
 30
0.0
 11
86.060546999999985
 21
100.34547499999969
 31
0.0
  0
LINE
  5
3CC
  8
NOTE
  6
CONTINUOUS
 62
     4
 39
50.0
 10
131.13135399999979
 20
223.38160499999969
 30
0.0
 11
222.16681799999981
 21
223.38160499999969
 31
0.0
  0
LINE
  5
3CD
  8
NOTE
  6
CONTINUOUS
 62
     4
 39
50.0
 10
131.13135399999979
 20
223.38160499999969
 30
0.0
 11
60.0
 21
70.0
 31
0.0
  0
LINE
  5
3CE
  8
DETAIL
  6
CONTINUOUS
 62
     5
 39
50.0
 10
0.0
 20
105.0
 30
0.0
 11
0.0
 21
-105.0
 31
0.0
  0
LINE
  5
3CF
  8
DETAIL
  6
CONTINUOUS
 62
     5
 39
50.0
 10
0.0
 20
105.0
 30
0.0
 11
-27.730746000000011
 21
105.0
 31
0.0
  0
LINE
  5
3D0
  8
DETAIL
  6
CONTINUOUS
 62
     5
 39
50.0
 10
0.0
 20
-105.0
 30
0.0
 11
-21.97276999999999
 21
-105.0
 31
0.0
  0
ARC
  5
3D1
  8
DETAIL
  6
CONTINUOUS
 62
     5
 39
50.0
 10
517.69999999999993
 20
15.619999999999999
 30
0.0
 40
556.91909099999987
 50
171.205862
 51
192.09230400000001
  0
ARC
  5
3D2
  8
DETAIL
  6
CONTINUOUS
 62
     5
 39
50.0
 10
-27.730746000000011
 20
100.0
 30
0.0
 40
5.0
 50
90.0
 51
171.205862
  0
ARC
  5
3D3
  8
DETAIL
  6
CONTINUOUS
 62
     5
 39
50.0
 10
-21.97276999999999
 20
-100.0
 30
0.0
 40
5.0
 50
192.09230400000001
 51
270.0
  0
LINE
  5
3DA
  8
SIZE
  6
CONTINUOUS
 62
    30
 10
0.0
 20
-125.0
 30
0.0
 11
0.0
 21
-483.11417599999999
 31
0.0
  0
LINE
  5
3DB
  8
SIZE
  6
CONTINUOUS
 62
    30
 10
-39.0
 20
-20.0
 30
0.0
 11
-39.0
 21
-483.11417599999999
 31
0.0
  0
LINE
  5
3DC
  8
SIZE
  6
CONTINUOUS
 62
    30
 10
-50.999999999999993
 20
-463.11417599999999
 30
0.0
 11
-203.51428599999991
 21
-463.11417599999999
 31
0.0
  0
LINE
  5
3DD
  8
SIZE
  6
CONTINUOUS
 62
    30
 10
260.4983625998924
 20
-463.11417599999999
 30
0.0
 11
-39.0
 21
-463.11417599999999
 31
0.0
  0
CIRCLE
  5
3DE
  8
SIZE
  6
CONTINUOUS
 62
    30
 10
0.0
 20
-463.11417599999999
 30
0.0
 40
6.0
  0
CIRCLE
  5
3DF
  8
SIZE
  6
CONTINUOUS
 62
    30
 10
-39.0
 20
-463.11417599999999
 30
0.0
 40
6.0
  0
LINE
  5
3E0
  8
SIZE
  6
CONTINUOUS
 62
    30
 10
-39.0
 20
-463.11417599999999
 30
0.0
 11
-50.999999999999993
 21
-463.11417599999999
 31
0.0
  0
TEXT
  5
3E1
  8
SIZE
  6
CONTINUOUS
 62
    30
 10
-178.5142858571426
 20
-438.11417599999999
 30
0.0
 40
64.0
  1
39
 41
0.9
 72
     1
 11
-133.25714299999979
 21
-438.11417599999999
 31
0.0
  0
TEXT
  5
3E3
  8
ETC
  6
CONTINUOUS
 62
    61
 10
479.80796053277231
 20
358.39196360662038
 30
0.0
 40
50.0
  1
換気扇
 41
0.9
  0
TEXT
  5
3E4
  8
ETC
  6
CONTINUOUS
 62
    61
 10
559.24777500029495
 20
305.13248210884399
 30
0.0
 40
40.0
  1
V-12PP6-BL
 41
0.9
  0
TEXT
  5
3E5
  8
ETC
  6
CONTINUOUS
 62
    61
 10
484.22082253277222
 20
425.17937960662039
 30
0.0
 40
50.0
  1
V-12PP6-BL_4
 41
0.9
  0
LINE
  5
3E6
  8
DETAIL
  6
CONTINUOUS
 62
     5
 39
50.0
 10
65.999999999999986
 20
-32.5
 30
0.0
 11
60.0
 21
-32.5
 31
0.0
  0
LINE
  5
3E7
  8
DETAIL
  6
CONTINUOUS
 62
     5
 39
50.0
 10
65.999999999999986
 20
32.5
 30
0.0
 11
60.0
 21
32.5
 31
0.0
  0
CIRCLE
  5
3EB
  8
SIZE
  6
CONTINUOUS
 62
    30
 39
50.0
 10
-129.31461655712829
 20
105.0
 30
0.0
 40
6.0
  0
CIRCLE
  5
3EC
  8
SIZE
  6
CONTINUOUS
 62
    30
 39
50.0
 10
-129.31461655712829
 20
-104.9999999999998
 30
0.0
 40
6.0
  0
LINE
  5
3ED
  8
SIZE
  6
CONTINUOUS
 10
-42.572022247002671
 20
105.0
 30
0.0
 11
-149.3146165571282
 21
105.0
 31
0.0
  0
LINE
  5
3EE
  8
SIZE
  6
CONTINUOUS
 10
-41.972769999999983
 20
-105.0
 30
0.0
 11
-149.31461655712829
 21
-104.9999999999998
 31
0.0
  0
LINE
  5
3EF
  8
SIZE
  6
CONTINUOUS
 10
-129.31461655712829
 20
105.0
 30
0.0
 11
-129.31461655712829
 21
-104.9999999999998
 31
0.0
  0
TEXT
  5
3F0
  8
SIZE
  6
CONTINUOUS
 62
    30
 10
-150.61521627918361
 20
-99.472348641087606
 30
0.0
 40
64.0
  1
□210
 50
90.0
 41
0.9
 72
     1
 11
-150.61521627918361
 21
5.5790799303409804
 31
0.0
  0
LINE
  5
3F2
  8
OUTLINE
  6
CONTINUOUS
 62
     3
 39
50.0
 10
0.0
 20
-70.0
 30
0.0
 11
60.0
 21
-70.0
 31
0.0
  0
LINE
  5
3F3
  8
OUTLINE
  6
CONTINUOUS
 62
     3
 39
50.0
 10
60.0
 20
70.0
 30
0.0
 11
0.0
 21
70.0
 31
0.0
  0
LINE
  5
3F4
  8
OUTLINE
  6
CONTINUOUS
 62
     3
 39
50.0
 10
0.0
 20
105.0
 30
0.0
 11
0.0
 21
-105.0
 31
0.0
  0
ARC
  5
3F5
  8
OUTLINE
  6
CONTINUOUS
 62
     3
 39
50.0
 10
517.69999999999993
 20
15.619999999999999
 30
0.0
 40
556.91909099999987
 50
171.205862
 51
192.09230400000001
  0
LINE
  5
3F6
  8
OUTLINE
  6
CONTINUOUS
 62
     3
 39
50.0
 10
0.0
 20
-105.0
 30
0.0
 11
-21.97276999999999
 21
-105.0
 31
0.0
  0
ARC
  5
3F7
  8
OUTLINE
  6
CONTINUOUS
 62
     3
 39
50.0
 10
-21.97276999999999
 20
-100.0
 30
0.0
 40
5.0
 50
192.09230400000001
 51
270.0
  0
ARC
  5
3F8
  8
OUTLINE
  6
CONTINUOUS
 62
     3
 39
50.0
 10
-27.730745999999989
 20
100.0
 30
0.0
 40
5.0
 50
90.0
 51
171.205862
  0
LINE
  5
3F9
  8
OUTLINE
  6
CONTINUOUS
 62
     3
 39
50.0
 10
0.0
 20
105.0
 30
0.0
 11
-27.730745999999989
 21
105.0
 31
0.0
  0
LINE
  5
3FA
  8
OUTLINE
  6
CONTINUOUS
 62
     3
 39
50.0
 10
65.999999999999986
 20
32.5
 30
0.0
 11
65.999999999999986
 21
-32.5
 31
0.0
  0
LINE
  5
3FB
  8
OUTLINE
  6
CONTINUOUS
 62
     3
 39
50.0
 10
92.999999999999986
 20
26.5
 30
0.0
 11
92.999999999999986
 21
-26.5
 31
0.0
  0
LINE
  5
3FC
  8
OUTLINE
  6
CONTINUOUS
 62
     3
 39
50.0
 10
60.0
 20
-70.0
 30
0.0
 11
60.0
 21
35.0
 31
0.0
  0
LINE
  5
3FD
  8
OUTLINE
  6
CONTINUOUS
 62
     3
 39
50.0
 10
65.999999999999986
 20
-32.5
 30
0.0
 11
60.0
 21
-32.5
 31
0.0
  0
LINE
  5
3FE
  8
OUTLINE
  6
CONTINUOUS
 62
     3
 39
50.0
 10
87.999999999999986
 20
-31.5
 30
0.0
 11
65.999999999999986
 21
-31.5
 31
0.0
  0
ARC
  5
3FF
  8
OUTLINE
  6
CONTINUOUS
 62
     3
 39
50.0
 10
87.999999999999986
 20
-26.5
 30
0.0
 40
5.0
 50
270.0
 51
0.0
  0
LINE
  5
400
  8
OUTLINE
  6
CONTINUOUS
 62
     3
 39
50.0
 10
60.0
 20
32.5
 30
0.0
 11
65.999999999999986
 21
32.5
 31
0.0
  0
LINE
  5
401
  8
OUTLINE
  6
CONTINUOUS
 62
     3
 39
50.0
 10
60.0
 20
35.0
 30
0.0
 11
48.0
 21
35.0
 31
0.0
  0
LINE
  5
402
  8
OUTLINE
  6
CONTINUOUS
 62
     3
 39
50.0
 10
48.0
 20
43.978225999999999
 30
0.0
 11
60.0
 21
43.978225999999999
 31
0.0
  0
LINE
  5
403
  8
OUTLINE
  6
CONTINUOUS
 62
     3
 39
50.0
 10
48.0
 20
35.0
 30
0.0
 11
31.258268000000001
 21
37.952019
 31
0.0
  0
LINE
  5
404
  8
OUTLINE
  6
CONTINUOUS
 62
     3
 39
50.0
 10
31.258268000000001
 20
37.952019
 30
0.0
 11
31.258268000000001
 21
46.952018999999993
 31
0.0
  0
LINE
  5
405
  8
OUTLINE
  6
CONTINUOUS
 62
     3
 39
50.0
 10
48.0
 20
43.978225999999999
 30
0.0
 11
31.258268000000001
 21
46.930244999999992
 31
0.0
  0
LINE
  5
406
  8
OUTLINE
  6
CONTINUOUS
 62
     3
 39
50.0
 10
60.0
 20
43.978225999999999
 30
0.0
 11
60.0
 21
70.0
 31
0.0
  0
LINE
  5
407
  8
OUTLINE
  6
CONTINUOUS
 62
     3
 39
50.0
 10
65.999999999999986
 20
31.5
 30
0.0
 11
87.999999999999986
 21
31.5
 31
0.0
  0
ARC
  5
408
  8
OUTLINE
  6
CONTINUOUS
 62
     3
 39
50.0
 10
87.999999999999986
 20
26.5
 30
0.0
 40
5.0
 50
0.0
 51
90.0
  0
LINE
  5
416
  8
ARRENGE
 62
     1
 10
-14.142135623730949
 20
-14.142135623730949
 30
0.0
 11
14.142135623730949
 21
14.142135623730949
 31
0.0
  0
LINE
  5
417
  8
ARRENGE
 62
     1
 10
-14.142135623730949
 20
14.142135623730949
 30
0.0
 11
14.142135623730949
 21
-14.142135623730949
 31
0.0
  0
CIRCLE
  5
418
  8
ARRENGE
 62
     1
 10
0.0
 20
0.0
 30
0.0
 40
40.0
  0
ENDSEC
  0
EOF
