  0
SECTION
  2
HEADER
  9
$ACADVER
  1
AC1009
  9
$INSBASE
 10
0.0
 20
0.0
 30
0.0
  9
$EXTMIN
 10
-956.37026000000003
 20
-483.11417599999999
 30
0.0
  9
$EXTMAX
 10
585.38019040552263
 20
431.62214137405857
 30
50.0
  9
$LIMMIN
 10
-2970.0
 20
-2100.0
  9
$LIMMAX
 10
2970.0
 20
2100.0
  9
$ORTHOMODE
 70
     0
  9
$REGENMODE
 70
     1
  9
$FILLMODE
 70
     1
  9
$QTEXTMODE
 70
     0
  9
$MIRRTEXT
 70
     0
  9
$DRAGMODE
 70
     2
  9
$LTSCALE
 40
20.0
  9
$OSMODE
 70
   421
  9
$ATTMODE
 70
     1
  9
$TEXTSIZE
 40
64.0
  9
$TRACEWID
 40
0.05
  9
$TEXTSTYLE
  7
STANDARD
  9
$CLAYER
  8
SIZE
  9
$CELTYPE
  6
CONTINUOUS
  9
$CECOLOR
 62
    30
  9
$DIMSCALE
 40
1.0
  9
$DIMASZ
 40
40.0
  9
$DIMEXO
 40
20.0
  9
$DIMDLI
 40
200.0
  9
$DIMRND
 40
0.0
  9
$DIMDLE
 40
0.0
  9
$DIMEXE
 40
20.0
  9
$DIMTP
 40
0.0
  9
$DIMTM
 40
0.0
  9
$DIMTXT
 40
64.0
  9
$DIMCEN
 40
0.09
  9
$DIMTSZ
 40
0.0
  9
$DIMTOL
 70
     0
  9
$DIMLIM
 70
     0
  9
$DIMTIH
 70
     0
  9
$DIMTOH
 70
     0
  9
$DIMSE1
 70
     0
  9
$DIMSE2
 70
     0
  9
$DIMTAD
 70
     1
  9
$DIMZIN
 70
     8
  9
$DIMBLK
  1
NONE
  9
$DIMASO
 70
     1
  9
$DIMSHO
 70
     0
  9
$DIMPOST
  1

  9
$DIMAPOST
  1

  9
$DIMALT
 70
     0
  9
$DIMALTD
 70
     2
  9
$DIMALTF
 40
25.399999999999999
  9
$DIMLFAC
 40
1.0
  9
$DIMTOFL
 70
     1
  9
$DIMTVP
 40
0.0
  9
$DIMTIX
 70
     1
  9
$DIMSOXD
 70
     0
  9
$DIMSAH
 70
     0
  9
$DIMBLK1
  1
NONE
  9
$DIMBLK2
  1
ORIGIN
  9
$DIMSTYLE
  2
STANDARD
  9
$DIMCLRD
 70
   256
  9
$DIMCLRE
 70
   256
  9
$DIMCLRT
 70
   256
  9
$DIMTFAC
 40
1.0
  9
$DIMGAP
 40
25.0
  9
$LUNITS
 70
     2
  9
$LUPREC
 70
     4
  9
$SKETCHINC
 40
0.1
  9
$FILLETRAD
 40
5.0
  9
$AUNITS
 70
     1
  9
$AUPREC
 70
     3
  9
$MENU
  1
ACAD
  9
$ELEVATION
 40
0.0
  9
$PELEVATION
 40
0.0
  9
$THICKNESS
 40
50.0
  9
$LIMCHECK
 70
     0
  9
$BLIPMODE
 70
     0
  9
$CHAMFERA
 40
0.0
  9
$CHAMFERB
 40
0.0
  9
$SKPOLY
 70
     0
  9
$TDCREATE
 40
2453019.6230103699
  9
$TDUPDATE
 40
2454722.4052985641
  9
$TDINDWG
 40
0.380903125
  9
$TDUSRTIMER
 40
0.380903125
  9
$USRTIMER
 70
     1
  9
$ANGBASE
 50
0.0
  9
$ANGDIR
 70
     0
  9
$PDMODE
 70
     3
  9
$PDSIZE
 40
-2.0
  9
$PLINEWID
 40
0.0
  9
$COORDS
 70
     2
  9
$SPLFRAME
 70
     0
  9
$SPLINETYPE
 70
     6
  9
$SPLINESEGS
 70
     8
  9
$ATTDIA
 70
     0
  9
$ATTREQ
 70
     1
  9
$HANDLING
 70
 22529
  9
$HANDSEED
  5
320
  9
$SURFTAB1
 70
     6
  9
$SURFTAB2
 70
     6
  9
$SURFTYPE
 70
     6
  9
$SURFU
 70
     6
  9
$SURFV
 70
     6
  9
$UCSNAME
  2

  9
$UCSORG
 10
0.0
 20
0.0
 30
0.0
  9
$UCSXDIR
 10
1.0
 20
0.0
 30
0.0
  9
$UCSYDIR
 10
0.0
 20
1.0
 30
0.0
  9
$PUCSNAME
  2

  9
$PUCSORG
 10
0.0
 20
0.0
 30
0.0
  9
$PUCSXDIR
 10
1.0
 20
0.0
 30
0.0
  9
$PUCSYDIR
 10
0.0
 20
1.0
 30
0.0
  9
$USERI1
 70
     0
  9
$USERI2
 70
     0
  9
$USERI3
 70
     0
  9
$USERI4
 70
     0
  9
$USERI5
 70
     0
  9
$USERR1
 40
20.0
  9
$USERR2
 40
0.0
  9
$USERR3
 40
0.0
  9
$USERR4
 40
0.0
  9
$USERR5
 40
0.0
  9
$WORLDVIEW
 70
     1
  9
$SHADEDGE
 70
     3
  9
$SHADEDIF
 70
    70
  9
$TILEMODE
 70
     1
  9
$MAXACTVP
 70
    48
  9
$PLIMCHECK
 70
     0
  9
$PEXTMIN
 10
-1.0000000000000000E+020
 20
-1.0000000000000000E+020
 30
-1.0000000000000000E+020
  9
$PEXTMAX
 10
1.0000000000000000E+020
 20
1.0000000000000000E+020
 30
1.0000000000000000E+020
  9
$PLIMMIN
 10
0.0
 20
0.0
  9
$PLIMMAX
 10
12.0
 20
9.0
  9
$UNITMODE
 70
     0
  9
$VISRETAIN
 70
     0
  9
$PLINEGEN
 70
     0
  9
$PSLTSCALE
 70
     0
  0
ENDSEC
  0
SECTION
  2
TABLES
  0
TABLE
  2
VPORT
 70
     3
  0
VPORT
  2
*ACTIVE
 70
     0
 10
0.0
 20
0.0
 11
1.0
 21
1.0
 12
-185.49767145054469
 22
-25.742547808716829
 13
0.0
 23
0.0
 14
1.0
 24
1.0
 15
0.0
 25
0.0
 16
0.0
 26
0.0
 36
1.0
 17
0.0
 27
0.0
 37
0.0
 40
1159.7983430102161
 41
1.493654822335025
 42
50.0
 43
0.0
 44
0.0
 50
0.0
 51
0.0
 71
     0
 72
  1000
 73
     1
 74
     0
 75
     0
 76
     0
 77
     0
 78
     0
  0
ENDTAB
  0
TABLE
  2
LTYPE
 70
     2
  0
LTYPE
  2
CONTINUOUS
 70
     0
  3
実線
 72
    65
 73
     0
 40
0.0
  0
LTYPE
  2
DASHDOT
 70
     0
  3
____ _ ____ _ ____ _ ____ _ ____ _ ____ _ ____
 72
    65
 73
     4
 40
5.5
 49
4.0
 49
-0.6
 49
0.3
 49
-0.6
  0
ENDTAB
  0
TABLE
  2
LAYER
 70
    12
  0
LAYER
  2
0
 70
     0
 62
     7
  6
CONTINUOUS
  0
LAYER
  2
OUTLINE
 70
     0
 62
     3
  6
CONTINUOUS
  0
LAYER
  2
ARRANGE
 70
     0
 62
     1
  6
CONTINUOUS
  0
LAYER
  2
BASIS
 70
     0
 62
     6
  6
DASHDOT
  0
LAYER
  2
DETAIL
 70
     0
 62
     5
  6
CONTINUOUS
  0
LAYER
  2
SIZE
 70
     0
 62
    30
  6
CONTINUOUS
  0
LAYER
  2
DEFPOINTS
 70
     0
 62
     7
  6
CONTINUOUS
  0
LAYER
  2
ETC
 70
     0
 62
    61
  6
CONTINUOUS
  0
LAYER
  2
FIX
 70
     0
 62
    11
  6
CONTINUOUS
  0
LAYER
  2
NOTE
 70
     0
 62
     4
  6
CONTINUOUS
  0
LAYER
  2
SERVICESPACE
 70
     0
 62
     2
  6
DASHDOT
  0
LAYER
  2
SYMBOLLINE
 70
     0
 62
    15
  6
CONTINUOUS
  0
ENDTAB
  0
TABLE
  2
STYLE
 70
     1
  0
STYLE
  2
STANDARD
 70
     0
 40
64.0
 41
0.9
 50
0.0
 71
     0
 42
64.0
  3
SIMPLEX.shx
  4
BIGFONT.shx
  0
ENDTAB
  0
TABLE
  2
VIEW
 70
     1
  0
VIEW
  2
ALL
 70
     0
 40
4282.6198079999967
 10
0.0
 20
41.309903999999989
 41
5940.0
 11
0.0
 21
0.0
 31
1.0
 12
0.0
 22
0.0
 32
0.0
 42
50.0
 43
0.0
 44
0.0
 50
0.0
 71
     0
  0
ENDTAB
  0
TABLE
  2
UCS
 70
     0
  0
ENDTAB
  0
TABLE
  2
APPID
 70
     2
  0
APPID
  2
ACAD
 70
     0
  0
APPID
  2
AUTOCAD_POSTSCRIPT_FIGURE
 70
     0
  0
ENDTAB
  0
TABLE
  2
DIMSTYLE
 70
     1
  0
DIMSTYLE
  2
STANDARD
 70
     0
  3

  4

  5

  6

  7

 40
1.0
 41
0.18
 42
0.0625
 43
0.38
 44
0.18
 45
0.0
 46
0.0
 47
0.0
 48
0.0
140
0.18
141
0.09
142
0.0
143
25.399999999999999
144
1.0
145
0.0
146
1.0
147
0.09
 71
     0
 72
     0
 73
     1
 74
     1
 75
     0
 76
     0
 77
     0
 78
     0
170
     0
171
     2
172
     0
173
     0
174
     0
175
     0
176
     7
177
     7
178
     7
  0
ENDTAB
  0
ENDSEC
  0
SECTION
  2
BLOCKS
  0
BLOCK
  8
0
  2
$MODEL_SPACE
 70
     0
 10
0.0
 20
0.0
 30
0.0
  3
$MODEL_SPACE
  1

  0
ENDBLK
  5
220
  8
0
  0
BLOCK
 67
     1
  8
0
  2
$PAPER_SPACE
 70
     0
 10
0.0
 20
0.0
 30
0.0
  3
$PAPER_SPACE
  1

  0
ENDBLK
  5
21C
 67
     1
  8
0
  0
BLOCK
  8
0
  2
DOT1
 70
     0
 10
0.0
 20
0.0
 30
0.0
  3
DOT1
  1

  0
CIRCLE
  5
23C
  8
SIZE
  6
CONTINUOUS
 62
     7
 10
0.0
 20
0.0
 30
0.0
 40
3.0
  0
ENDBLK
  5
23D
  8
0
  0
BLOCK
  8
0
  2
_ORIGIN
 70
     0
 10
0.0
 20
0.0
 30
0.0
  3
_ORIGIN
  1

  0
CIRCLE
  5
240
  8
0
  6
CONTINUOUS
 62
     7
 10
0.0
 20
0.0
 30
0.0
 40
0.5
  0
LINE
  5
241
  8
0
  6
CONTINUOUS
 62
     7
 10
0.0
 20
0.0
 30
0.0
 11
-1.0
 21
0.0
 31
0.0
  0
ENDBLK
  5
242
  8
0
  0
BLOCK
  8
0
 62
    30
  2
_NONE
 70
     0
 10
0.0
 20
0.0
 30
0.0
  3
_NONE
  1

  0
ENDBLK
  5
2BC
  8
0
 62
    30
  0
BLOCK
  8
0
 62
    30
  2
_OPEN30
 70
     0
 10
0.0
 20
0.0
 30
0.0
  3
_OPEN30
  1

  0
LINE
  5
2BE
  8
0
  6
BYBLOCK
 62
     0
 10
-1.0
 20
0.26794919
 30
0.0
 11
0.0
 21
0.0
 31
0.0
  0
LINE
  5
2BF
  8
0
  6
BYBLOCK
 62
     0
 10
0.0
 20
0.0
 30
0.0
 11
-1.0
 21
-0.26794919
 31
0.0
  0
LINE
  5
2C0
  8
0
  6
BYBLOCK
 62
     0
 10
0.0
 20
0.0
 30
0.0
 11
-1.0
 21
0.0
 31
0.0
  0
ENDBLK
  5
2C2
  8
0
 62
    30
  0
BLOCK
  8
0
 62
    30
  2
*D6
 70
     1
 10
0.0
 20
0.0
 30
0.0
  3
*D6
  1

  0
LINE
  5
2C5
  8
SIZE
  6
CONTINUOUS
 10
47.730746000000003
 20
104.9999999999999
 30
0.0
 11
235.2342582807496
 21
104.9999999999999
 31
0.0
  0
LINE
  5
2C6
  8
SIZE
  6
CONTINUOUS
 10
41.972769999999997
 20
-105.0
 30
0.0
 11
235.2342582807496
 21
-105.0
 31
0.0
  0
LINE
  5
2C7
  8
SIZE
  6
CONTINUOUS
 10
215.2342582807496
 20
104.9999999999999
 30
0.0
 11
215.2342582807496
 21
-105.0
 31
0.0
  0
TEXT
  5
2C8
  8
SIZE
  6
CONTINUOUS
 10
190.2342582807496
 20
-68.571428571428584
 30
0.0
 40
64.0
  1
210
 50
90.0
 41
0.9
  0
POINT
  5
2C9
  8
DEFPOINTS
  6
CONTINUOUS
 62
     0
 10
27.730746
 20
105.0
 30
0.0
  0
POINT
  5
2CA
  8
DEFPOINTS
  6
CONTINUOUS
 62
     0
 10
21.972770000000001
 20
-105.0
 30
0.0
  0
POINT
  5
2CB
  8
DEFPOINTS
  6
CONTINUOUS
 62
     0
 10
215.2342582807496
 20
-105.0
 30
0.0
  0
ENDBLK
  5
2CD
  8
0
 62
    30
  0
ENDSEC
  0
SECTION
  2
ENTITIES
  0
LINE
  5
243
  8
BASIS
  6
DASHDOT
 62
     6
 39
50.0
 10
63.351306211597141
 20
0.0
 30
0.0
 11
-114.9560164241993
 21
0.0
 31
0.0
  0
CIRCLE
  5
244
  8
ARRANGE
  6
CONTINUOUS
 62
     1
 39
50.0
 10
0.0
 20
0.0
 30
0.0
 40
40.0
  0
LINE
  5
245
  8
DETAIL
  6
CONTINUOUS
 62
     5
 39
50.0
 10
0.0
 20
105.0
 30
0.0
 11
0.0
 21
-105.0
 31
0.0
  0
LINE
  5
246
  8
DETAIL
  6
CONTINUOUS
 62
     5
 39
50.0
 10
0.0
 20
-70.0
 30
0.0
 11
-60.0
 21
-70.0
 31
0.0
  0
LINE
  5
247
  8
DETAIL
  6
CONTINUOUS
 62
     5
 39
50.0
 10
-60.0
 20
-70.0
 30
0.0
 11
-60.0
 21
35.0
 31
0.0
  0
LINE
  5
248
  8
DETAIL
  6
CONTINUOUS
 62
     5
 39
50.0
 10
-60.0
 20
70.0
 30
0.0
 11
0.0
 21
70.0
 31
0.0
  0
LINE
  5
249
  8
DETAIL
  6
CONTINUOUS
 62
     5
 39
50.0
 10
-66.0
 20
32.5
 30
0.0
 11
-66.0
 21
-32.5
 31
0.0
  0
LINE
  5
24A
  8
DETAIL
  6
CONTINUOUS
 62
     5
 39
50.0
 10
-66.0
 20
31.5
 30
0.0
 11
-88.0
 21
31.5
 31
0.0
  0
LINE
  5
24B
  8
DETAIL
  6
CONTINUOUS
 62
     5
 39
50.0
 10
-93.0
 20
26.5
 30
0.0
 11
-93.0
 21
-26.5
 31
0.0
  0
LINE
  5
24C
  8
DETAIL
  6
CONTINUOUS
 62
     5
 39
50.0
 10
-88.0
 20
-31.5
 30
0.0
 11
-66.0
 21
-31.5
 31
0.0
  0
ARC
  5
24D
  8
DETAIL
  6
CONTINUOUS
 62
     5
 39
50.0
 10
-88.0
 20
26.5
 30
0.0
 40
5.0
 50
90.0
 51
180.0
  0
ARC
  5
24E
  8
DETAIL
  6
CONTINUOUS
 62
     5
 39
50.0
 10
-88.0
 20
-26.5
 30
0.0
 40
5.0
 50
180.0
 51
270.0
  0
LINE
  5
24F
  8
DETAIL
  6
CONTINUOUS
 62
     5
 39
50.0
 10
-60.0
 20
65.0
 30
0.0
 11
0.0
 21
65.0
 31
0.0
  0
LINE
  5
250
  8
DETAIL
  6
CONTINUOUS
 62
     5
 39
50.0
 10
-60.0
 20
35.0
 30
0.0
 11
-48.0
 21
35.0
 31
0.0
  0
LINE
  5
251
  8
DETAIL
  6
CONTINUOUS
 62
     5
 39
50.0
 10
-31.258268000000001
 20
37.952019
 30
0.0
 11
-31.258268000000001
 21
46.952018999999993
 31
0.0
  0
LINE
  5
252
  8
DETAIL
  6
CONTINUOUS
 62
     5
 39
50.0
 10
-48.0
 20
35.0
 30
0.0
 11
-31.258268000000001
 21
37.952019
 31
0.0
  0
LINE
  5
253
  8
DETAIL
  6
CONTINUOUS
 62
     5
 39
50.0
 10
-48.0
 20
43.978225999999999
 30
0.0
 11
-31.258268000000001
 21
46.930244999999992
 31
0.0
  0
LINE
  5
254
  8
DETAIL
  6
CONTINUOUS
 62
     5
 39
50.0
 10
-48.0
 20
43.978225999999999
 30
0.0
 11
-60.0
 21
43.978225999999999
 31
0.0
  0
LINE
  5
255
  8
DETAIL
  6
CONTINUOUS
 62
     5
 39
50.0
 10
-48.0
 20
43.978225999999999
 30
0.0
 11
-48.0
 21
35.0
 31
0.0
  0
LINE
  5
256
  8
DETAIL
  6
CONTINUOUS
 62
     5
 39
50.0
 10
-58.0
 20
43.978225999999999
 30
0.0
 11
-58.0
 21
35.0
 31
0.0
  0
LINE
  5
257
  8
DETAIL
  6
CONTINUOUS
 62
     5
 39
50.0
 10
-60.0
 20
43.978225999999999
 30
0.0
 11
-60.0
 21
70.0
 31
0.0
  0
LINE
  5
258
  8
OUTLINE
  6
CONTINUOUS
 62
     3
 39
50.0
 10
0.0
 20
105.0
 30
0.0
 11
0.0
 21
-105.0
 31
0.0
  0
LINE
  5
259
  8
OUTLINE
  6
CONTINUOUS
 62
     3
 39
50.0
 10
0.0
 20
-70.0
 30
0.0
 11
-60.0
 21
-70.0
 31
0.0
  0
LINE
  5
25A
  8
OUTLINE
  6
CONTINUOUS
 62
     3
 39
50.0
 10
-60.0
 20
-70.0
 30
0.0
 11
-60.0
 21
35.0
 31
0.0
  0
LINE
  5
25B
  8
OUTLINE
  6
CONTINUOUS
 62
     3
 39
50.0
 10
-93.0
 20
26.5
 30
0.0
 11
-93.0
 21
-26.5
 31
0.0
  0
ARC
  5
25C
  8
OUTLINE
  6
CONTINUOUS
 62
     3
 39
50.0
 10
-88.0
 20
-26.5
 30
0.0
 40
5.0
 50
180.0
 51
270.0
  0
LINE
  5
25D
  8
OUTLINE
  6
CONTINUOUS
 62
     3
 39
50.0
 10
-88.0
 20
-31.5
 30
0.0
 11
-66.0
 21
-31.5
 31
0.0
  0
ARC
  5
25E
  8
OUTLINE
  6
CONTINUOUS
 62
     3
 39
50.0
 10
-88.0
 20
26.5
 30
0.0
 40
5.0
 50
90.0
 51
180.0
  0
LINE
  5
25F
  8
OUTLINE
  6
CONTINUOUS
 62
     3
 39
50.0
 10
-66.0
 20
31.5
 30
0.0
 11
-88.0
 21
31.5
 31
0.0
  0
LINE
  5
260
  8
OUTLINE
  6
CONTINUOUS
 62
     3
 39
50.0
 10
-60.0
 20
70.0
 30
0.0
 11
0.0
 21
70.0
 31
0.0
  0
LINE
  5
261
  8
OUTLINE
  6
CONTINUOUS
 62
     3
 39
50.0
 10
-60.0
 20
43.978225999999999
 30
0.0
 11
-60.0
 21
70.0
 31
0.0
  0
LINE
  5
262
  8
OUTLINE
  6
CONTINUOUS
 62
     3
 39
50.0
 10
-48.0
 20
43.978225999999999
 30
0.0
 11
-31.258268000000001
 21
46.930244999999992
 31
0.0
  0
LINE
  5
263
  8
OUTLINE
  6
CONTINUOUS
 62
     3
 39
50.0
 10
-31.258268000000001
 20
37.952019
 30
0.0
 11
-31.258268000000001
 21
46.952018999999993
 31
0.0
  0
LINE
  5
264
  8
OUTLINE
  6
CONTINUOUS
 62
     3
 39
50.0
 10
-48.0
 20
35.0
 30
0.0
 11
-31.258268000000001
 21
37.952019
 31
0.0
  0
LINE
  5
265
  8
OUTLINE
  6
CONTINUOUS
 62
     3
 39
50.0
 10
-48.0
 20
43.978225999999999
 30
0.0
 11
-60.0
 21
43.978225999999999
 31
0.0
  0
LINE
  5
266
  8
OUTLINE
  6
CONTINUOUS
 62
     3
 39
50.0
 10
-60.0
 20
35.0
 30
0.0
 11
-48.0
 21
35.0
 31
0.0
  0
ARC
  5
267
  8
FIX
  6
CONTINUOUS
 62
    11
 39
50.0
 10
0.0
 20
0.0
 30
0.0
 40
2.0
 50
180.0
 51
0.0
  0
ARC
  5
268
  8
FIX
  6
CONTINUOUS
 62
    11
 39
50.0
 10
0.0
 20
6.0
 30
0.0
 40
2.0
 50
0.0
 51
180.0
  0
LINE
  5
269
  8
FIX
  6
CONTINUOUS
 62
    11
 39
50.0
 10
-2.0
 20
6.0
 30
0.0
 11
-2.0
 21
0.0
 31
0.0
  0
LINE
  5
26A
  8
FIX
  6
CONTINUOUS
 62
    11
 39
50.0
 10
2.0
 20
6.0
 30
0.0
 11
2.0
 21
0.0
 31
0.0
  0
LINE
  5
26B
  8
NOTE
  6
CONTINUOUS
 62
     4
 10
0.0
 20
-20.0
 30
0.0
 11
0.0
 21
20.0
 31
0.0
  0
LINE
  5
26C
  8
NOTE
  6
CONTINUOUS
 62
     4
 10
20.0
 20
0.0
 30
0.0
 11
-20.0
 21
0.0
 31
0.0
  0
LINE
  5
26D
  8
NOTE
  6
CONTINUOUS
 62
     4
 39
50.0
 10
0.0
 20
0.0
 30
0.0
 11
0.0
 21
6.0
 31
0.0
  0
LINE
  5
26E
  8
NOTE
  6
CONTINUOUS
 62
     4
 10
0.0
 20
-14.0
 30
0.0
 11
0.0
 21
26.0
 31
0.0
  0
LINE
  5
26F
  8
NOTE
  6
CONTINUOUS
 62
     4
 10
20.0
 20
6.0
 30
0.0
 11
-20.0
 21
6.0
 31
0.0
  0
LINE
  5
270
  8
SIZE
  6
CONTINUOUS
 62
    30
 10
-80.0
 20
-70.0
 30
0.0
 11
-390.13753276567769
 21
-70.0
 31
0.0
  0
LINE
  5
271
  8
SIZE
  6
CONTINUOUS
 62
    30
 10
-80.0
 20
70.0
 30
0.0
 11
-391.60810767440768
 21
70.0
 31
0.0
  0
LINE
  5
272
  8
SIZE
  6
CONTINUOUS
 62
    30
 10
-369.59954890213822
 20
58.0
 30
0.0
 11
-369.59954890213822
 21
-58.0
 31
0.0
  0
LINE
  5
273
  8
SIZE
  6
CONTINUOUS
 62
    30
 10
-369.59954890213822
 20
-70.0
 30
0.0
 11
-369.59954890213822
 21
-333.44971499999991
 31
0.0
  0
CIRCLE
  5
274
  8
SIZE
  6
CONTINUOUS
 62
    30
 10
-369.59954890213822
 20
70.0
 30
0.0
 40
6.0
  0
LINE
  5
275
  8
SIZE
  6
CONTINUOUS
 62
    30
 10
-369.59954890213822
 20
70.0
 30
0.0
 11
-369.59954890213822
 21
58.0
 31
0.0
  0
CIRCLE
  5
276
  8
SIZE
  6
CONTINUOUS
 62
    30
 10
-369.59954890213822
 20
-70.0
 30
0.0
 40
6.0
  0
LINE
  5
277
  8
SIZE
  6
CONTINUOUS
 62
    30
 10
-369.59954890213822
 20
-70.0
 30
0.0
 11
-369.59954890213822
 21
-58.0
 31
0.0
  0
TEXT
  5
278
  8
SIZE
  6
CONTINUOUS
 62
    30
 10
-394.59954890213822
 20
-322.7125715714285
 30
0.0
 40
64.0
  1
φ140
 50
90.0
 41
0.9
 72
     1
 11
-394.59954890213822
 21
-213.82114300000001
 31
0.0
  0
LINE
  5
279
  8
SIZE
  6
CONTINUOUS
 62
    30
 10
-60.0
 20
-90.0
 30
0.0
 11
-60.0
 21
-349.34302200000002
 31
0.0
  0
LINE
  5
27B
  8
SIZE
  6
CONTINUOUS
 62
    30
 10
-72.0
 20
-329.34302200000002
 30
0.0
 11
-270.39580000000001
 21
-329.34302200000002
 31
0.0
  0
LINE
  5
27C
  8
SIZE
  6
CONTINUOUS
 62
    30
 10
0.0
 20
-329.34302200000002
 30
0.0
 11
-60.0
 21
-329.34302200000002
 31
0.0
  0
CIRCLE
  5
27D
  8
SIZE
  6
CONTINUOUS
 62
    30
 10
0.0
 20
-329.34302200000002
 30
0.0
 40
6.0
  0
CIRCLE
  5
27F
  8
SIZE
  6
CONTINUOUS
 62
    30
 10
-60.0
 20
-329.34302200000002
 30
0.0
 40
6.0
  0
LINE
  5
280
  8
SIZE
  6
CONTINUOUS
 62
    30
 10
-60.0
 20
-329.34302200000002
 30
0.0
 11
-72.0
 21
-329.34302200000002
 31
0.0
  0
TEXT
  5
281
  8
SIZE
  6
CONTINUOUS
 62
    30
 10
-245.39580042857131
 20
-304.34302200000002
 30
0.0
 40
64.0
  1
60
 41
0.9
 72
     1
 11
-198.7672289999999
 21
-304.34302200000002
 31
0.0
  0
LINE
  5
282
  8
SIZE
  6
CONTINUOUS
 62
    30
 10
0.0
 20
-125.0
 30
0.0
 11
0.0
 21
-483.11417599999999
 31
0.0
  0
LINE
  5
283
  8
SIZE
  6
CONTINUOUS
 62
    30
 10
-93.0
 20
-46.5
 30
0.0
 11
-93.0
 21
-483.11417599999999
 31
0.0
  0
CIRCLE
  5
284
  8
SIZE
  6
CONTINUOUS
 62
    30
 10
0.0
 20
-463.11417599999999
 30
0.0
 40
6.0
  0
CIRCLE
  5
285
  8
SIZE
  6
CONTINUOUS
 62
    30
 10
-93.0
 20
-463.11417599999999
 30
0.0
 40
6.0
  0
TEXT
  5
286
  8
SIZE
  6
CONTINUOUS
 62
    30
 10
-247.41487842857131
 20
-438.11417599999999
 30
0.0
 40
64.0
  1
93
 41
0.9
 72
     1
 11
-200.78630699999991
 21
-438.11417599999999
 31
0.0
  0
TEXT
  5
287
  8
NOTE
  6
CONTINUOUS
 62
     4
 10
-949.83296399999995
 20
131.20128099999991
 30
0.0
 40
64.0
  1
2ヶ所×4×10取付用長穴
 41
0.9
  0
LINE
  5
288
  8
NOTE
  6
CONTINUOUS
 62
     4
 39
50.0
 10
0.0
 20
6.0
 30
0.0
 11
-125.454346
 21
116.80816899999991
 31
0.0
  0
LINE
  5
289
  8
NOTE
  6
CONTINUOUS
 62
     4
 39
50.0
 10
-125.454346
 20
116.80816899999991
 30
0.0
 11
-956.37026000000003
 21
116.80816899999991
 31
0.0
  0
LINE
  5
28A
  8
NOTE
  6
CONTINUOUS
 62
     4
 10
-21.751380000000001
 20
39.568995999999991
 30
0.0
 11
0.0
 21
6.0
 31
0.0
  0
LINE
  5
28B
  8
NOTE
  6
CONTINUOUS
 62
     4
 10
0.0
 20
6.0
 30
0.0
 11
-35.621746000000002
 21
24.195913000000001
 31
0.0
  0
LINE
  5
28C
  8
SIZE
  6
CONTINUOUS
 62
    30
 10
-40.0
 20
6.0
 30
0.0
 11
-225.542914
 21
6.0
 31
0.0
  0
LINE
  5
28D
  8
SIZE
  6
CONTINUOUS
 62
    30
 10
-125.98533630650211
 20
0.0
 30
0.0
 11
-225.542914
 21
0.0
 31
0.0
  0
LINE
  5
28E
  8
SIZE
  6
CONTINUOUS
 62
    30
 10
-205.542914
 20
18.0
 30
0.0
 11
-205.542914
 21
30.0
 31
0.0
  0
LINE
  5
28F
  8
SIZE
  6
CONTINUOUS
 62
    30
 10
-205.542914
 20
-12.0
 30
0.0
 11
-205.542914
 21
-171.3083399999999
 31
0.0
  0
LINE
  5
290
  8
SIZE
  6
CONTINUOUS
 62
    30
 10
-205.542914
 20
6.0
 30
0.0
 11
-205.542914
 21
0.0
 31
0.0
  0
CIRCLE
  5
291
  8
SIZE
  6
CONTINUOUS
 62
    30
 10
-205.542914
 20
6.0
 30
0.0
 40
6.0
  0
LINE
  5
292
  8
SIZE
  6
CONTINUOUS
 62
    30
 10
-205.542914
 20
6.0
 30
0.0
 11
-205.542914
 21
18.0
 31
0.0
  0
CIRCLE
  5
293
  8
SIZE
  6
CONTINUOUS
 62
    30
 10
-205.542914
 20
0.0
 30
0.0
 40
6.0
  0
LINE
  5
294
  8
SIZE
  6
CONTINUOUS
 62
    30
 10
-205.542914
 20
0.0
 30
0.0
 11
-205.542914
 21
-12.0
 31
0.0
  0
TEXT
  5
295
  8
SIZE
  6
CONTINUOUS
 62
    30
 10
-230.542914
 20
-146.30834042857111
 30
0.0
 40
64.0
  1
6
 50
90.0
 41
0.9
 72
     1
 11
-230.542914
 21
-128.47976899999969
 31
0.0
  0
LINE
  5
296
  8
NOTE
  6
CONTINUOUS
 62
     4
 10
-60.0
 20
50.0
 30
0.0
 11
-60.0
 21
90.0
 31
0.0
  0
LINE
  5
297
  8
NOTE
  6
CONTINUOUS
 62
     4
 10
-40.0
 20
70.0
 30
0.0
 11
-80.0
 21
70.0
 31
0.0
  0
TEXT
  5
298
  8
NOTE
  6
CONTINUOUS
 62
     4
 10
-214.29607100000001
 20
243.56359900000001
 30
0.0
 40
64.0
  1
EL
 41
0.9
  0
LINE
  5
299
  8
NOTE
  6
CONTINUOUS
 62
     4
 10
-65.510223999999994
 20
109.6186499999999
 30
0.0
 11
-60.0
 21
70.0
 31
0.0
  0
LINE
  5
29A
  8
NOTE
  6
CONTINUOUS
 62
     4
 10
-60.0
 20
70.0
 30
0.0
 11
-84.581319999999977
 21
101.555645
 31
0.0
  0
LINE
  5
29B
  8
NOTE
  6
CONTINUOUS
 62
     4
 39
50.0
 10
-128.43808799999999
 20
223.66779999999989
 30
0.0
 11
-219.47355200000001
 21
223.66779999999989
 31
0.0
  0
LINE
  5
29C
  8
NOTE
  6
CONTINUOUS
 62
     4
 39
50.0
 10
-128.43808799999999
 20
223.66779999999989
 30
0.0
 11
-60.0
 21
70.0
 31
0.0
  0
LINE
  5
29D
  8
DETAIL
  6
CONTINUOUS
 62
     5
 39
50.0
 10
0.0
 20
105.0
 30
0.0
 11
0.0
 21
-105.0
 31
0.0
  0
LINE
  5
29E
  8
DETAIL
  6
CONTINUOUS
 62
     5
 39
50.0
 10
0.0
 20
105.0
 30
0.0
 11
27.730746
 21
105.0
 31
0.0
  0
LINE
  5
29F
  8
DETAIL
  6
CONTINUOUS
 62
     5
 39
50.0
 10
0.0
 20
-105.0
 30
0.0
 11
21.972770000000001
 21
-105.0
 31
0.0
  0
ARC
  5
2A0
  8
DETAIL
  6
CONTINUOUS
 62
     5
 39
50.0
 10
-517.70000000000005
 20
15.619999999999999
 30
0.0
 40
556.91909099999987
 50
347.90769599999982
 51
8.7941380000000002
  0
ARC
  5
2A1
  8
DETAIL
  6
CONTINUOUS
 62
     5
 39
50.0
 10
27.730746
 20
100.0
 30
0.0
 40
5.0
 50
8.7941380000000002
 51
90.0
  0
ARC
  5
2A2
  8
DETAIL
  6
CONTINUOUS
 62
     5
 39
50.0
 10
21.972770000000001
 20
-100.0
 30
0.0
 40
5.0
 50
270.0
 51
347.90769599999982
  0
ARC
  5
2A3
  8
OUTLINE
  6
CONTINUOUS
 62
     3
 39
50.0
 10
-517.70000000000005
 20
15.619999999999999
 30
0.0
 40
556.91909099999987
 50
347.90769599999982
 51
8.7941380000000002
  0
LINE
  5
2A4
  8
OUTLINE
  6
CONTINUOUS
 62
     3
 39
50.0
 10
0.0
 20
105.0
 30
0.0
 11
0.0
 21
-105.0
 31
0.0
  0
ARC
  5
2A5
  8
OUTLINE
  6
CONTINUOUS
 62
     3
 39
50.0
 10
21.972770000000001
 20
-100.0
 30
0.0
 40
5.0
 50
270.0
 51
347.90769599999982
  0
LINE
  5
2A6
  8
OUTLINE
  6
CONTINUOUS
 62
     3
 39
50.0
 10
0.0
 20
-105.0
 30
0.0
 11
21.972770000000001
 21
-105.0
 31
0.0
  0
ARC
  5
2A7
  8
OUTLINE
  6
CONTINUOUS
 62
     3
 39
50.0
 10
27.730746
 20
100.0
 30
0.0
 40
5.0
 50
8.7941380000000002
 51
90.0
  0
LINE
  5
2A8
  8
OUTLINE
  6
CONTINUOUS
 62
     3
 39
50.0
 10
0.0
 20
105.0
 30
0.0
 11
27.730746
 21
105.0
 31
0.0
  0
LINE
  5
2A9
  8
SIZE
  6
CONTINUOUS
 62
    30
 10
39.0
 20
-20.0
 30
0.0
 11
39.0
 21
-483.11417599999999
 31
0.0
  0
LINE
  5
2AA
  8
SIZE
  6
CONTINUOUS
 62
    30
 10
51.0
 20
-463.11417599999999
 30
0.0
 11
203.514286
 21
-463.11417599999999
 31
0.0
  0
LINE
  5
2AB
  8
SIZE
  6
CONTINUOUS
 62
    30
 10
-266.19552502654079
 20
-463.11417599999999
 30
0.0
 11
39.0
 21
-463.11417599999999
 31
0.0
  0
CIRCLE
  5
2AC
  8
SIZE
  6
CONTINUOUS
 62
    30
 10
0.0
 20
-463.11417599999999
 30
0.0
 40
6.0
  0
CIRCLE
  5
2AD
  8
SIZE
  6
CONTINUOUS
 62
    30
 10
39.0
 20
-463.11417599999999
 30
0.0
 40
6.0
  0
LINE
  5
2AE
  8
SIZE
  6
CONTINUOUS
 62
    30
 10
39.0
 20
-463.11417599999999
 30
0.0
 11
51.0
 21
-463.11417599999999
 31
0.0
  0
TEXT
  5
2AF
  8
SIZE
  6
CONTINUOUS
 62
    30
 10
88.000000142857047
 20
-438.11417599999999
 30
0.0
 40
64.0
  1
39
 41
0.9
 72
     1
 11
133.2571429999999
 21
-438.11417599999999
 31
0.0
  0
POINT
  5
2B0
  8
ARRANGE
  6
CONTINUOUS
 62
     1
 10
0.0
 20
0.0
 30
0.0
 39
50.0
  0
TEXT
  5
2B1
  8
ETC
  6
CONTINUOUS
 62
    61
 10
53.824471262665661
 20
314.83472537405862
 30
0.0
 40
50.0
  1
換気扇
 41
0.9
  0
TEXT
  5
2B2
  8
ETC
  6
CONTINUOUS
 62
    61
 10
133.26428573018791
 20
261.57524387628229
 30
0.0
 40
40.0
  1
V-12PP6-BL
 41
0.9
  0
TEXT
  5
2B3
  8
ETC
  6
CONTINUOUS
 62
    61
 10
58.237333262665622
 20
381.62214137405851
 30
0.0
 40
50.0
  1
V-12PP6-BL_5
 41
0.9
  0
LINE
  5
2B4
  8
DETAIL
  6
CONTINUOUS
 62
     5
 39
50.0
 10
-66.0
 20
-32.5
 30
0.0
 11
-60.0
 21
-32.5
 31
0.0
  0
LINE
  5
2B5
  8
DETAIL
  6
CONTINUOUS
 62
     5
 39
50.0
 10
-66.0
 20
32.5
 30
0.0
 11
-60.0
 21
32.5
 31
0.0
  0
LINE
  5
2B6
  8
OUTLINE
  6
CONTINUOUS
 62
     3
 39
50.0
 10
-60.0
 20
32.5
 30
0.0
 11
-66.0
 21
32.5
 31
0.0
  0
LINE
  5
2B7
  8
OUTLINE
  6
CONTINUOUS
 62
     3
 39
50.0
 10
-66.0
 20
32.5
 30
0.0
 11
-66.0
 21
-32.5
 31
0.0
  0
LINE
  5
2B8
  8
OUTLINE
  6
CONTINUOUS
 62
     3
 39
50.0
 10
-66.0
 20
-32.5
 30
0.0
 11
-60.0
 21
-32.5
 31
0.0
  0
CIRCLE
  5
2CE
  8
SIZE
  6
CONTINUOUS
 62
    30
 39
50.0
 10
215.2342582807496
 20
104.9999999999999
 30
0.0
 40
6.0
  0
CIRCLE
  5
2CF
  8
SIZE
  6
CONTINUOUS
 62
    30
 39
50.0
 10
215.2342582807496
 20
-105.0
 30
0.0
 40
6.0
  0
LINE
  5
2D0
  8
SIZE
  6
CONTINUOUS
 10
47.730746000000003
 20
104.9999999999999
 30
0.0
 11
235.2342582807496
 21
104.9999999999999
 31
0.0
  0
LINE
  5
2D1
  8
SIZE
  6
CONTINUOUS
 10
41.972769999999997
 20
-105.0
 30
0.0
 11
235.2342582807496
 21
-105.0
 31
0.0
  0
LINE
  5
2D2
  8
SIZE
  6
CONTINUOUS
 10
215.2342582807496
 20
104.9999999999999
 30
0.0
 11
215.2342582807496
 21
-105.0
 31
0.0
  0
TEXT
  5
2DA
  8
SIZE
  6
CONTINUOUS
 62
    30
 10
193.17192511391181
 20
-103.08238995799471
 30
0.0
 40
64.0
  1
□210
 50
90.0
 41
0.9
 72
     1
 11
193.17192511391181
 21
1.969038613433866
 31
0.0
  0
ENDSEC
  0
EOF
