  0
SECTION
  2
HEADER
  9
$ACADVER
  1
AC1009
  9
$DWGCODEPAGE
  3
dos932
  9
$INSBASE
 10
0.0
 20
0.0
 30
0.0
  9
$EXTMIN
 10
-237.01627937496781
 20
-282.94371369171859
 30
-0.0015258207003583
  9
$EXTMAX
 10
1069.0658685507531
 20
668.7469563548766
 30
0.0000000349246037
  9
$LIMMIN
 10
-2970.0
 20
-2100.0
  9
$LIMMAX
 10
2970.0
 20
2100.0
  9
$ORTHOMODE
 70
     1
  9
$REGENMODE
 70
     1
  9
$FILLMODE
 70
     1
  9
$QTEXTMODE
 70
     0
  9
$MIRRTEXT
 70
     0
  9
$LTSCALE
 40
20.0
  9
$ATTMODE
 70
     1
  9
$TEXTSIZE
 40
64.0
  9
$TRACEWID
 40
0.05
  9
$TEXTSTYLE
  7
STANDARD
  9
$CLAYER
  8
SIZE
  9
$CELTYPE
  6
CONTINUOUS
  9
$CECOLOR
 62
     7
  9
$DIMSCALE
 40
1.0
  9
$DIMASZ
 40
12.0
  9
$DIMEXO
 40
20.0
  9
$DIMDLI
 40
200.0
  9
$DIMRND
 40
0.0
  9
$DIMDLE
 40
0.0
  9
$DIMEXE
 40
20.0
  9
$DIMTP
 40
0.0
  9
$DIMTM
 40
0.0
  9
$DIMTXT
 40
64.0
  9
$DIMCEN
 40
0.09
  9
$DIMTSZ
 40
0.0
  9
$DIMTOL
 70
     0
  9
$DIMLIM
 70
     0
  9
$DIMTIH
 70
     0
  9
$DIMTOH
 70
     0
  9
$DIMSE1
 70
     0
  9
$DIMSE2
 70
     0
  9
$DIMTAD
 70
     1
  9
$DIMZIN
 70
     8
  9
$DIMBLK
  1

  9
$DIMASO
 70
     1
  9
$DIMSHO
 70
     0
  9
$DIMPOST
  1

  9
$DIMAPOST
  1

  9
$DIMALT
 70
     0
  9
$DIMALTD
 70
     2
  9
$DIMALTF
 40
25.399999999999999
  9
$DIMLFAC
 40
1.0
  9
$DIMTOFL
 70
     1
  9
$DIMTVP
 40
0.0
  9
$DIMTIX
 70
     1
  9
$DIMSOXD
 70
     0
  9
$DIMSAH
 70
     0
  9
$DIMBLK1
  1

  9
$DIMBLK2
  1

  9
$DIMSTYLE
  2
STANDARD
  9
$DIMCLRD
 70
     7
  9
$DIMCLRE
 70
     7
  9
$DIMCLRT
 70
     7
  9
$DIMTFAC
 40
1.0
  9
$DIMGAP
 40
25.0
  9
$LUNITS
 70
     2
  9
$LUPREC
 70
     4
  9
$SKETCHINC
 40
0.1
  9
$FILLETRAD
 40
3.0
  9
$AUNITS
 70
     1
  9
$AUPREC
 70
     3
  9
$MENU
  1
ACAD
  9
$ELEVATION
 40
0.0
  9
$PELEVATION
 40
0.0
  9
$THICKNESS
 40
0.0
  9
$LIMCHECK
 70
     0
  9
$CHAMFERA
 40
0.0
  9
$CHAMFERB
 40
0.0
  9
$SKPOLY
 70
     0
  9
$TDCREATE
 40
2453019.623009259
  9
$TDUPDATE
 40
2459356.667722141
  9
$TDINDWG
 40
1.7200391319
  9
$TDUSRTIMER
 40
1.7200391319
  9
$USRTIMER
 70
     1
  9
$ANGBASE
 50
0.0
  9
$ANGDIR
 70
     0
  9
$PDMODE
 70
     3
  9
$PDSIZE
 40
-2.0
  9
$PLINEWID
 40
0.0
  9
$SPLFRAME
 70
     0
  9
$SPLINETYPE
 70
     6
  9
$SPLINESEGS
 70
     8
  9
$SURFTAB1
 70
     6
  9
$SURFTAB2
 70
     6
  9
$SURFTYPE
 70
     6
  9
$SURFU
 70
     6
  9
$SURFV
 70
     6
  9
$UCSNAME
  2

  9
$UCSORG
 10
0.0
 20
0.0
 30
0.0
  9
$UCSXDIR
 10
1.0
 20
0.0
 30
0.0
  9
$UCSYDIR
 10
0.0
 20
1.0
 30
0.0
  9
$PUCSNAME
  2

  9
$PUCSORG
 10
0.0
 20
0.0
 30
0.0
  9
$PUCSXDIR
 10
1.0
 20
0.0
 30
0.0
  9
$PUCSYDIR
 10
0.0
 20
1.0
 30
0.0
  9
$USERI1
 70
     0
  9
$USERI2
 70
     0
  9
$USERI3
 70
     0
  9
$USERI4
 70
     0
  9
$USERI5
 70
     0
  9
$USERR1
 40
20.0
  9
$USERR2
 40
0.0
  9
$USERR3
 40
0.0
  9
$USERR4
 40
0.0
  9
$USERR5
 40
0.0
  9
$WORLDVIEW
 70
     1
  9
$SHADEDGE
 70
     3
  9
$SHADEDIF
 70
    70
  9
$TILEMODE
 70
     1
  9
$MAXACTVP
 70
    48
  9
$PINSBASE
 10
0.0
 20
0.0
 30
0.0
  9
$PLIMCHECK
 70
     0
  9
$PEXTMIN
 10
-100000000000000000000.0
 20
-100000000000000000000.0
 30
-100000000000000000000.0
  9
$PEXTMAX
 10
100000000000000000000.0
 20
100000000000000000000.0
 30
100000000000000000000.0
  9
$PLIMMIN
 10
0.0
 20
0.0
  9
$PLIMMAX
 10
12.0
 20
9.0
  9
$UNITMODE
 70
     0
  9
$VISRETAIN
 70
     0
  9
$PLINEGEN
 70
     0
  9
$PSLTSCALE
 70
     0
  9
$TREEDEPTH
 70
  3020
  9
$ATTDIA
 70
     0
  9
$ATTREQ
 70
     1
  9
$BLIPMODE
 70
     1
  9
$COORDS
 70
     1
  9
$DRAGMODE
 70
     2
  9
$OSMODE
 70
     0
  9
$HANDLING
 70
     0
  9
$HANDSEED
  5
264
  0
ENDSEC
  0
SECTION
  2
TABLES
  0
TABLE
  2
LTYPE
 70
     2
  0
LTYPE
  2
CONTINUOUS
 70
     0
  3
実線
 72
    65
 73
     0
 40
0.0
  0
LTYPE
  2
DASHDOT
 70
     0
  3
____ _ ____ _ ____ _ ____ _ ____ _ ____ _ ____
 72
    65
 73
     4
 40
5.5
 49
4.0
 49
-0.6
 49
0.3
 49
-0.6
  0
ENDTAB
  0
TABLE
  2
LAYER
 70
    12
  0
LAYER
  2
SIZE
 70
     0
 62
    30
  6
CONTINUOUS
  0
LAYER
  2
BASIS
 70
     0
 62
     6
  6
DASHDOT
  0
LAYER
  2
OUTLINE
 70
     0
 62
     3
  6
CONTINUOUS
  0
LAYER
  2
DETAIL
 70
     0
 62
     5
  6
CONTINUOUS
  0
LAYER
  2
ARRANGE
 70
     0
 62
     1
  6
CONTINUOUS
  0
LAYER
  2
ETC
 70
     0
 62
    61
  6
CONTINUOUS
  0
LAYER
  2
FIX
 70
     0
 62
    11
  6
CONTINUOUS
  0
LAYER
  2
NOTE
 70
     0
 62
     4
  6
CONTINUOUS
  0
LAYER
  2
0
 70
    64
 62
     7
  6
CONTINUOUS
  0
LAYER
  2
DEFPOINTS
 70
    64
 62
     7
  6
CONTINUOUS
  0
LAYER
  2
SERVICESPACE
 70
    64
 62
     2
  6
DASHDOT
  0
LAYER
  2
SYMBOLLINE
 70
    64
 62
    15
  6
CONTINUOUS
  0
ENDTAB
  0
TABLE
  2
STYLE
 70
     1
  0
STYLE
  2
STANDARD
 70
     0
 40
64.0
 41
0.9
 50
0.0
 71
     0
 42
64.0
  3
SIMPLEX.shx
  4
BIGFONT.shx
  0
ENDTAB
  0
TABLE
  2
APPID
 70
    20
  0
APPID
  2
ACAD
 70
     0
  0
APPID
  2
ACADANNOTATIVE
 70
     0
  0
APPID
  2
AUTOCAD_POSTSCRIPT_FIGURE
 70
     0
  0
APPID
  2
ACAD_EXEMPT_FROM_CAD_STANDARDS
 70
     0
  0
APPID
  2
ACAD_PSEXT
 70
     0
  0
APPID
  2
ACAUTHENVIRON
 70
     0
  0
APPID
  2
GENIUS_GENOENT_13
 70
     0
  0
APPID
  2
GENIUS_GENCFG_13
 70
     0
  0
APPID
  2
GENIUS_GENCFG0_13
 70
     0
  0
APPID
  2
GENIUS_GENCFG1_13
 70
     0
  0
APPID
  2
GENIUS_GENCFG2_13
 70
     0
  0
APPID
  2
GENIUS_GENCFG3_13
 70
     0
  0
APPID
  2
GENIUS_GENCFG4_13
 70
     0
  0
APPID
  2
GENIUS_GEVCFG0_13
 70
     0
  0
APPID
  2
CONTENTBLOCKICON
 70
     0
  0
APPID
  2
CONTENTBLOCKDESCRIPTION
 70
     0
  0
APPID
  2
ACAD_NAV_VCDISPLAY
 70
     0
  0
APPID
  2
ACAD_MLEADERVER
 70
     0
  0
APPID
  2
ACDBDYNAMICBLOCKTRUENAME
 70
     0
  0
APPID
  2
ACDBDYNAMICBLOCKGUID
 70
     0
  0
ENDTAB
  0
TABLE
  2
DIMSTYLE
 70
     1
  0
DIMSTYLE
  2
STANDARD
 70
     0
  3

  4

  5

  6

  7

 40
1.0
 41
12.0
 42
20.0
 43
200.0
 44
20.0
 45
0.0
 46
0.0
 47
0.0
 48
0.0
140
64.0
141
0.09
142
0.0
143
25.399999999999999
144
1.0
145
0.0
146
1.0
147
25.0
 71
     0
 72
     0
 73
     0
 74
     0
 75
     0
 76
     0
 77
     1
 78
     8
170
     0
171
     2
172
     1
173
     0
174
     1
175
     0
176
     7
177
     7
178
     7
  0
ENDTAB
  0
TABLE
  2
VIEW
 70
     1
  0
VIEW
  2
ALL
 70
     0
 40
4282.6198079999986
 10
0.0
 20
41.309904000000003
 41
5940.0
 11
0.0
 21
0.0
 31
1.0
 12
0.0
 22
0.0
 32
0.0
 42
50.0
 43
0.0
 44
0.0
 50
0.0
 71
     0
  0
ENDTAB
  0
TABLE
  2
UCS
 70
     0
  0
ENDTAB
  0
TABLE
  2
VPORT
 70
     1
  0
VPORT
  2
*ACTIVE
 70
     0
 10
0.0
 20
0.0
 11
1.0
 21
1.0
 12
416.02479458789281
 22
192.90162133157901
 13
0.0
 23
0.0
 14
1.0
 24
1.0
 15
0.0
 25
0.0
 16
0.0
 26
0.0
 36
1.0
 17
0.0
 27
0.0
 37
0.0
 40
691.52366997027616
 41
2.0992248062015499
 42
50.0
 43
0.0
 44
0.0
 50
0.0
 51
0.0
 71
     0
 72
  1000
 73
     1
 74
     3
 75
     0
 76
     0
 77
     0
 78
     0
  0
ENDTAB
  0
ENDSEC
  0
SECTION
  2
BLOCKS
  0
ENDSEC
  0
SECTION
  2
ENTITIES
  0
TEXT
  8
ETC
  6
CONTINUOUS
 62
    61
 10
391.30929115932122
 20
604.63994669096769
 30
0.0
 40
64.0
  1
V-12PP8-BL_4
 41
0.9
  0
TEXT
  8
ETC
  6
CONTINUOUS
 62
    61
 10
387.12329715932083
 20
486.68463667613639
 30
0.0
 40
64.0
  1
換気扇
 41
0.9
  0
CIRCLE
  8
ARRANGE
  6
CONTINUOUS
 62
     1
 10
0.0
 20
0.0
 30
0.0
 40
40.0
  0
POINT
  8
ARRANGE
  6
CONTINUOUS
 62
     1
 10
0.0
 20
0.0
 30
0.0
  0
LINE
  8
BASIS
  6
DASHDOT
 62
     6
 10
0.0
 20
-123.2481241666499
 30
0.0
 11
0.0
 21
123.2481241666499
 31
0.0
  0
LINE
  8
BASIS
  6
DASHDOT
 62
     6
 10
-73.363129061615808
 20
0.0
 30
0.0
 11
102.33955296210659
 21
0.0
 31
0.0
  0
TEXT
  8
ETC
  6
CONTINUOUS
 62
    61
 10
437.82469540787679
 20
378.53586378991122
 30
0.0
 40
40.0
  1
V-12PP8-BL
 41
0.9
  0
LINE
  8
SIZE
  6
CONTINUOUS
 62
    30
 10
0.0
 20
143.24812416664989
 30
0.0
 11
0.0000000000000284
 21
537.6450467341889
 31
0.0
  0
LINE
  8
SIZE
  6
CONTINUOUS
 62
    30
 10
-39.300000000000637
 20
20.0
 30
0.0
 11
-39.300000000000608
 21
537.6450467341889
 31
0.0
  0
LINE
  8
SIZE
  6
CONTINUOUS
 62
    30
 10
12.000000000000011
 20
517.6450467341889
 30
0.0
 11
24.000000000000011
 21
517.6450467341889
 31
0.0
  0
LINE
  8
SIZE
  6
CONTINUOUS
 62
    30
 10
-51.300000000000608
 20
517.6450467341889
 30
0.0
 11
-236.80713803697961
 21
517.6450467341889
 31
0.0
  0
LINE
  8
SIZE
  6
CONTINUOUS
 62
    30
 10
0.0000000000000284
 20
517.6450467341889
 30
0.0
 11
-39.300000000000608
 21
517.6450467341889
 31
0.0
  0
CIRCLE
  8
SIZE
  6
CONTINUOUS
 62
    30
 10
0.0000000000000284
 20
517.6450467341889
 30
0.0
 40
6.0
  0
LINE
  8
SIZE
  6
CONTINUOUS
 62
    30
 10
0.0000000000000284
 20
517.6450467341889
 30
0.0
 11
12.00000000000003
 21
517.6450467341889
 31
0.0
  0
CIRCLE
  8
SIZE
  6
CONTINUOUS
 62
    30
 10
-39.300000000000608
 20
517.6450467341889
 30
0.0
 40
6.0
  0
LINE
  8
SIZE
  6
CONTINUOUS
 62
    30
 10
-39.300000000000608
 20
517.6450467341889
 30
0.0
 11
-51.300000000000608
 21
517.6450467341889
 31
0.0
  0
TEXT
  8
SIZE
  6
CONTINUOUS
 62
    30
 10
-211.80713803697961
 20
542.6450467341889
 30
0.0
 40
64.0
  1
39
 41
0.9
 72
     1
 11
-166.54999517983671
 21
542.6450467341889
 31
0.0
  0
LINE
  8
NOTE
  6
CONTINUOUS
 62
     4
 10
59.699999999999761
 20
68.656268211280121
 30
0.0
 11
59.699999999999847
 21
77.02619973991635
 31
0.0
  0
LINE
  8
SIZE
  6
CONTINUOUS
 62
    30
 10
59.699999999999818
 20
99.318232138800127
 30
0.0
 11
59.699999999999847
 21
417.96734539852793
 31
0.0
  0
LINE
  8
SIZE
  6
CONTINUOUS
 62
    30
 10
0.0
 20
143.24812416664989
 30
0.0
 11
0.0000000000000142
 21
417.96734539852793
 31
0.0
  0
LINE
  8
SIZE
  6
CONTINUOUS
 62
    30
 10
-12.0
 20
397.96734539852793
 30
0.0
 11
-23.999999999999972
 21
397.96734539852793
 31
0.0
  0
LINE
  8
SIZE
  6
CONTINUOUS
 62
    30
 10
71.699999999999847
 20
397.96734539852793
 30
0.0
 11
247.81445469024311
 21
397.96734539852793
 31
0.0
  0
LINE
  8
SIZE
  6
CONTINUOUS
 62
    30
 10
0.0000000000000142
 20
397.96734539852793
 30
0.0
 11
59.699999999999847
 21
397.96734539852793
 31
0.0
  0
CIRCLE
  8
SIZE
  6
CONTINUOUS
 62
    30
 10
0.0000000000000142
 20
397.96734539852793
 30
0.0
 40
6.0
  0
LINE
  8
SIZE
  6
CONTINUOUS
 62
    30
 10
0.0000000000000142
 20
397.96734539852793
 30
0.0
 11
-12.0
 21
397.96734539852793
 31
0.0
  0
CIRCLE
  8
SIZE
  6
CONTINUOUS
 62
    30
 10
59.699999999999847
 20
397.96734539852793
 30
0.0
 40
6.0
  0
LINE
  8
SIZE
  6
CONTINUOUS
 62
    30
 10
59.699999999999847
 20
397.96734539852793
 30
0.0
 11
71.699999999999847
 21
397.96734539852793
 31
0.0
  0
TEXT
  8
SIZE
  6
CONTINUOUS
 62
    30
 10
129.55731183310019
 20
422.96734539852793
 30
0.0
 40
64.0
  1
60
 41
0.9
 72
     1
 11
176.18588326167159
 21
422.96734539852793
 31
0.0
  0
TEXT
  8
NOTE
  6
CONTINUOUS
 62
     4
 10
165.06684914846571
 20
300.30872862054588
 30
0.0
 40
64.0
  1
EL
 41
0.9
  0
TEXT
  8
NOTE
  6
CONTINUOUS
 62
     4
 10
107.4972429677305
 20
-237.22757909298781
 30
0.0
 40
64.0
  1
2-φ4×10
 41
0.9
  0
LINE
  8
NOTE
  6
CONTINUOUS
 62
     4
 10
60.833179530678777
 20
78.72686135330467
 30
0.0
 11
59.699999999999818
 21
72.61943935697515
 31
0.0
  0
LINE
  8
NOTE
  6
CONTINUOUS
 62
     4
 10
59.699999999999818
 20
72.61943935697515
 30
0.0
 11
63.735080375458239
 21
77.342026111455198
 31
0.0
  0
LINE
  8
NOTE
  6
CONTINUOUS
 62
     4
 10
59.699999999999818
 20
72.61943935697515
 30
0.0
 11
64.868259906137212
 21
83.449448107784733
 31
0.0
  0
LINE
  8
NOTE
  6
CONTINUOUS
 62
     4
 10
64.868259906137212
 20
83.449448107784733
 30
0.0
 11
153.06684914846571
 21
268.30872862054588
 31
0.0
  0
LINE
  8
NOTE
  6
CONTINUOUS
 62
     4
 10
153.06684914846571
 20
268.30872862054588
 30
0.0
 11
250.09542057703709
 21
268.30872862054588
 31
0.0
  0
LINE
  8
NOTE
  6
CONTINUOUS
 62
     4
 10
0.4024975931202164
 20
-0.1986042765717144
 30
0.0
 11
0.0
 21
5.9999999999999432
 31
0.0
  0
LINE
  8
NOTE
  6
CONTINUOUS
 62
     4
 10
0.0
 20
5.9999999999999432
 30
0.0
 11
3.4478830651136581
 21
0.8331052208020537
 31
0.0
  0
LINE
  8
NOTE
  6
CONTINUOUS
 62
     4
 10
0.0
 20
5.9999999999999432
 30
0.0
 11
3.8503806582338731
 21
-5.3654990557696038
 31
0.0
  0
LINE
  8
NOTE
  6
CONTINUOUS
 62
     4
 10
3.8503806582338731
 20
-5.3654990557696038
 30
0.0
 11
97.80517306057709
 21
-282.82624264533189
 31
0.0
  0
LINE
  8
NOTE
  6
CONTINUOUS
 62
     4
 10
97.80517306057709
 20
-282.82624264533189
 30
0.0
 11
502.58231591771982
 21
-282.82624264533189
 31
0.0
  0
LINE
  8
SIZE
  6
CONTINUOUS
 62
    30
 10
91.499999999999631
 20
48.532986652399927
 30
0.0
 11
91.499999999999659
 21
537.6450467341889
 31
0.0
  0
LINE
  8
SIZE
  6
CONTINUOUS
 62
    30
 10
0.0
 20
143.24812416664989
 30
0.0
 11
0.0000000000000284
 21
537.6450467341889
 31
0.0
  0
LINE
  8
SIZE
  6
CONTINUOUS
 62
    30
 10
12.000000000000011
 20
517.6450467341889
 30
0.0
 11
79.499999999999659
 21
517.6450467341889
 31
0.0
  0
LINE
  8
SIZE
  6
CONTINUOUS
 62
    30
 10
91.499999999999659
 20
517.6450467341889
 30
0.0
 11
336.9285714285711
 21
517.6450467341889
 31
0.0
  0
CIRCLE
  8
SIZE
  6
CONTINUOUS
 62
    30
 10
0.0000000000000284
 20
517.6450467341889
 30
0.0
 40
6.0
  0
LINE
  8
SIZE
  6
CONTINUOUS
 62
    30
 10
0.0000000000000284
 20
517.6450467341889
 30
0.0
 11
12.00000000000003
 21
517.6450467341889
 31
0.0
  0
CIRCLE
  8
SIZE
  6
CONTINUOUS
 62
    30
 10
91.499999999999659
 20
517.6450467341889
 30
0.0
 40
6.0
  0
LINE
  8
SIZE
  6
CONTINUOUS
 62
    30
 10
91.499999999999659
 20
517.6450467341889
 30
0.0
 11
79.499999999999659
 21
517.6450467341889
 31
0.0
  0
TEXT
  8
SIZE
  6
CONTINUOUS
 62
    30
 10
147.35714285714249
 20
542.6450467341889
 30
0.0
 40
64.0
  1
91.5
 41
0.9
 72
     1
 11
229.6428571428568
 21
542.6450467341889
 31
0.0
  0
LINE
  8
SIZE
  6
CONTINUOUS
 62
    30
 10
20.0
 20
69.716727307831434
 30
0.0
 11
820.36330437154254
 21
69.716727307831206
 31
0.0
  0
LINE
  8
SIZE
  6
CONTINUOUS
 62
    30
 10
20.0
 20
-69.811447054151586
 30
0.0
 11
820.36330437154254
 21
-69.811447054151827
 31
0.0
  0
LINE
  8
SIZE
  6
CONTINUOUS
 62
    30
 10
800.36330437154254
 20
-57.811447054151813
 30
0.0
 11
800.36330437154254
 21
57.716727307831221
 31
0.0
  0
LINE
  8
SIZE
  6
CONTINUOUS
 62
    30
 10
800.36330437154254
 20
69.716727307831206
 30
0.0
 11
800.36330437154277
 21
329.20244159354547
 31
0.0
  0
CIRCLE
  8
SIZE
  6
CONTINUOUS
 62
    30
 10
800.36330437154254
 20
-69.811447054151813
 30
0.0
 40
6.0
  0
LINE
  8
SIZE
  6
CONTINUOUS
 62
    30
 10
800.36330437154254
 20
-69.811447054151813
 30
0.0
 11
800.36330437154254
 21
-57.811447054151813
 31
0.0
  0
CIRCLE
  8
SIZE
  6
CONTINUOUS
 62
    30
 10
800.36330437154254
 20
69.716727307831206
 30
0.0
 40
6.0
  0
LINE
  8
SIZE
  6
CONTINUOUS
 62
    30
 10
800.36330437154254
 20
69.716727307831206
 30
0.0
 11
800.36330437154254
 21
57.716727307831221
 31
0.0
  0
TEXT
  8
SIZE
  6
CONTINUOUS
 62
    30
 10
764.69663770487591
 20
96.568155879259919
 30
0.0
 40
64.0
  1
φ140
 50
90.0
 41
0.9
 72
     1
 11
764.69663770487591
 21
205.45958445068851
 31
0.0
  0
LINE
  8
SIZE
  6
CONTINUOUS
 62
    30
 10
79.699999999999804
 20
31.702757766340401
 30
0.0
 11
657.02906359986218
 21
31.70275776634023
 31
0.0
  0
LINE
  8
SIZE
  6
CONTINUOUS
 62
    30
 10
79.699999999999804
 20
-31.702757766340401
 30
0.0
 11
657.02906359986218
 21
-31.702757766340572
 31
0.0
  0
LINE
  8
SIZE
  6
CONTINUOUS
 62
    30
 10
637.02906359986218
 20
-43.702757766340547
 30
0.0
 11
637.02906359986218
 21
-55.702757766340547
 31
0.0
  0
LINE
  8
SIZE
  6
CONTINUOUS
 62
    30
 10
637.02906359986218
 20
43.702757766340227
 30
0.0
 11
637.02906359986218
 21
300.37845494483417
 31
0.0
  0
LINE
  8
SIZE
  6
CONTINUOUS
 62
    30
 10
637.02906359986218
 20
-31.70275776634055
 30
0.0
 11
637.02906359986218
 21
31.70275776634023
 31
0.0
  0
CIRCLE
  8
SIZE
  6
CONTINUOUS
 62
    30
 10
637.02906359986218
 20
-31.70275776634055
 30
0.0
 40
6.0
  0
LINE
  8
SIZE
  6
CONTINUOUS
 62
    30
 10
637.02906359986218
 20
-31.70275776634055
 30
0.0
 11
637.02906359986218
 21
-43.702757766340568
 31
0.0
  0
CIRCLE
  8
SIZE
  6
CONTINUOUS
 62
    30
 10
637.02906359986218
 20
31.70275776634023
 30
0.0
 40
6.0
  0
LINE
  8
SIZE
  6
CONTINUOUS
 62
    30
 10
637.02906359986218
 20
31.70275776634023
 30
0.0
 11
637.02906359986218
 21
43.702757766340227
 31
0.0
  0
TEXT
  8
SIZE
  6
CONTINUOUS
 62
    30
 10
601.36239693319567
 20
111.62988351626301
 30
0.0
 40
64.0
  1
φ63
 50
90.0
 41
0.9
 72
     1
 11
601.36239693319567
 21
198.57845494483439
 31
0.0
  0
LINE
  8
SIZE
  6
CONTINUOUS
 62
    30
 10
-20.30523572199991
 20
104.96510354610341
 30
0.0
 11
-145.45612470509059
 21
104.96510354610341
 31
0.0
  0
LINE
  8
SIZE
  6
CONTINUOUS
 62
    30
 10
-20.30523572199991
 20
-105.02424063519651
 30
0.0
 11
-145.45612470509059
 21
-105.02424063519651
 31
0.0
  0
LINE
  8
SIZE
  6
CONTINUOUS
 62
    30
 10
-125.4561247050906
 20
92.965103546103421
 30
0.0
 11
-125.4561247050906
 21
-93.024240635196477
 31
0.0
  0
CIRCLE
  8
SIZE
  6
CONTINUOUS
 62
    30
 10
-125.4561247050906
 20
104.96510354610341
 30
0.0
 40
6.0
  0
LINE
  8
SIZE
  6
CONTINUOUS
 62
    30
 10
-125.4561247050906
 20
104.96510354610341
 30
0.0
 11
-125.4561247050906
 21
92.965103546103421
 31
0.0
  0
CIRCLE
  8
SIZE
  6
CONTINUOUS
 62
    30
 10
-125.4561247050906
 20
-105.02424063519651
 30
0.0
 40
6.0
  0
LINE
  8
SIZE
  6
CONTINUOUS
 62
    30
 10
-125.4561247050906
 20
-105.02424063519651
 30
0.0
 11
-125.4561247050906
 21
-93.024240635196477
 31
0.0
  0
TEXT
  8
SIZE
  6
CONTINUOUS
 62
    30
 10
-150.45612470509059
 20
-105.08099711597509
 30
0.0
 40
64.0
  1
□210
 50
90.0
 41
0.9
 72
     1
 11
-150.45612470509059
 21
-0.0295685445465494
 31
0.0
  0
LINE
  8
DETAIL
  6
CONTINUOUS
 62
     5
 10
0.0
 20
104.6651492376034
 30
0.0
 11
0.0
 21
-104.7242863265967
 31
0.0
  0
ARC
  8
DETAIL
  6
CONTINUOUS
 62
     5
 10
-0.3000000000001819
 20
-104.7242863265967
 30
0.0
 40
0.3000000000000275
 50
269.00000000000477
 51
0.0
  0
LINE
  8
DETAIL
  6
CONTINUOUS
 62
     5
 10
-31.668695864148962
 20
-104.4767894020415
 30
0.0
 11
-0.3052357219999067
 21
-105.02424063519651
 31
0.0
  0
LINE
  8
DETAIL
  6
CONTINUOUS
 62
     5
 10
-31.670782170474009
 20
104.41761589633759
 30
0.0
 11
-0.3052357219999067
 21
104.96510354610341
 31
0.0
  0
ARC
  8
DETAIL
  6
CONTINUOUS
 62
     5
 10
-0.3000000000001819
 20
104.6651492375577
 30
0.0
 40
0.300000000000065
 50
0.0
 51
90.999999999995239
  0
ARC
  8
DETAIL
  6
CONTINUOUS
 62
     5
 10
2760.6999999999989
 20
0.0
 30
0.0
 40
2800.0
 50
177.98134102836809
 51
182.0198731802079
  0
ARC
  8
DETAIL
  6
CONTINUOUS
 62
     5
 10
-31.56606773185058
 20
98.418529725399367
 30
0.0
 40
5.9999999999999956
 50
90.999999999995239
 51
177.98134102836809
  0
ARC
  8
DETAIL
  6
CONTINUOUS
 62
     5
 10
-31.56398142552553
 20
-98.477703231103305
 30
0.0
 40
6.0000000000002052
 50
182.0198731802079
 51
268.99999999999818
  0
LINE
  8
DETAIL
  6
CONTINUOUS
 62
     5
 10
59.699999999999818
 20
-69.290453047065427
 30
0.0
 11
0.0
 21
-69.811447054151586
 31
0.0
  0
LINE
  8
DETAIL
  6
CONTINUOUS
 62
     5
 10
59.699999999999818
 20
69.195733300718544
 30
0.0
 11
0.0
 21
69.716727307831434
 31
0.0
  0
LINE
  8
DETAIL
  6
CONTINUOUS
 62
     5
 10
59.699999999999818
 20
72.634251362245848
 30
0.0
 11
0.0
 21
72.968246354899975
 31
0.0
  0
ARC
  8
DETAIL
  6
CONTINUOUS
 62
     5
 10
88.500000000000043
 20
-28.532986652399959
 30
0.0
 40
2.9999999999999289
 50
271.00000000000182
 51
0.0
  0
LINE
  8
DETAIL
  6
CONTINUOUS
 62
     5
 10
59.699999999999818
 20
-31.702757766340401
 30
0.0
 11
88.552357219299694
 21
-31.532529737900092
 31
0.0
  0
ARC
  8
DETAIL
  6
CONTINUOUS
 62
     5
 10
88.500000000000043
 20
28.532986652399931
 30
0.0
 40
2.9999999999999978
 50
0.0
 51
88.999999999998238
  0
LINE
  8
DETAIL
  6
CONTINUOUS
 62
     5
 10
59.699999999999818
 20
31.702757766340401
 30
0.0
 11
88.552357219299694
 21
31.532529737899861
 31
0.0
  0
LINE
  8
DETAIL
  6
CONTINUOUS
 62
     5
 10
91.499999999999631
 20
28.532986652399931
 30
0.0
 11
91.499999999999631
 21
-28.532986652399959
 31
0.0
  0
LINE
  8
DETAIL
  6
CONTINUOUS
 62
     5
 10
59.699999999999818
 20
-69.290453047065427
 30
0.0
 11
59.699999999999832
 21
72.634251362245848
 31
0.0
  0
LINE
  8
DETAIL
  6
CONTINUOUS
 62
     5
 10
80.199999999999804
 20
74.11943935697515
 30
0.0
 11
80.199999999999804
 21
67.11943935697515
 31
0.0
  0
LINE
  8
DETAIL
  6
CONTINUOUS
 62
     5
 10
68.933432203958546
 20
68.61943935697515
 30
0.0
 11
66.176413323718862
 21
68.61943935697515
 31
0.0
  0
LINE
  8
DETAIL
  6
CONTINUOUS
 62
     5
 10
71.468951329642096
 20
72.61943935697515
 30
0.0
 11
68.711932449402866
 21
72.61943935697515
 31
0.0
  0
LINE
  8
DETAIL
  6
CONTINUOUS
 62
     5
 10
80.199999999999804
 20
72.61943935697515
 30
0.0
 11
78.854008952137519
 21
72.61943935697515
 31
0.0
  0
LINE
  8
DETAIL
  6
CONTINUOUS
 62
     5
 10
80.199999999999804
 20
68.61943935697515
 30
0.0
 11
76.31848982645397
 21
68.61943935697515
 31
0.0
  0
LINE
  8
DETAIL
  6
CONTINUOUS
 62
     5
 10
61.326874826907442
 20
72.61943935697515
 30
0.0
 11
59.699999999999818
 21
72.61943935697515
 31
0.0
  0
ARC
  8
DETAIL
  6
CONTINUOUS
 62
     5
 10
105.2260693825074
 20
72.36943935697515
 30
0.0
 40
3.500000000000107
 50
149.9999999999992
 51
210.0000000000008
  0
ARC
  8
DETAIL
  6
CONTINUOUS
 62
     5
 10
105.2260693825074
 20
68.86943935697515
 30
0.0
 40
3.500000000000107
 50
149.9999999999992
 51
210.0000000000008
  0
ARC
  8
DETAIL
  6
CONTINUOUS
 62
     5
 10
99.163891556016083
 20
68.86943935697515
 30
0.0
 40
3.5000000000001248
 50
329.9999999999992
 51
30.000000000000838
  0
ARC
  8
DETAIL
  6
CONTINUOUS
 62
     5
 10
100.93806938000399
 20
72.36943935697515
 30
0.0
 40
3.500000000000103
 50
149.9999999999992
 51
210.0000000000008
  0
ARC
  8
DETAIL
  6
CONTINUOUS
 62
     5
 10
94.875891553512702
 20
72.36943935697515
 30
0.0
 40
3.5000000000001248
 50
329.9999999999992
 51
30.000000000000838
  0
ARC
  8
DETAIL
  6
CONTINUOUS
 62
     5
 10
94.875891553512702
 20
68.86943935697515
 30
0.0
 40
3.5000000000001248
 50
329.9999999999992
 51
30.000000000000838
  0
LINE
  8
DETAIL
  6
CONTINUOUS
 62
     5
 10
119.27014787909999
 20
67.11943935697515
 30
0.0
 11
119.27014787909999
 21
74.11943935697515
 31
0.0
  0
LINE
  8
DETAIL
  6
CONTINUOUS
 62
     5
 10
119.27014787909999
 20
73.506190702923263
 30
0.0
 11
131.75519565520739
 21
80.714436397304098
 31
0.0
  0
LINE
  8
DETAIL
  6
CONTINUOUS
 62
     5
 10
119.27014787909999
 20
70.61943935697515
 30
0.0
 11
133.00519565520739
 21
78.549372887842992
 31
0.0
  0
LINE
  8
DETAIL
  6
CONTINUOUS
 62
     5
 10
141.31544969305151
 20
84.155590670492302
 30
0.0
 11
140.76544969305129
 21
85.108218614655016
 31
0.0
  0
LINE
  8
DETAIL
  6
CONTINUOUS
 62
     5
 10
132.65519565520711
 20
79.155590670492302
 30
0.0
 11
141.31544969305151
 21
84.155590670492302
 31
0.0
  0
LINE
  8
DETAIL
  6
CONTINUOUS
 62
     5
 10
132.1051956552069
 20
80.108218614655016
 30
0.0
 11
140.76544969305129
 21
85.108218614655016
 31
0.0
  0
LINE
  8
DETAIL
  6
CONTINUOUS
 62
     5
 10
133.00519565520739
 20
78.549372887842992
 30
0.0
 11
131.75519565520739
 21
80.714436397304098
 31
0.0
  0
LINE
  8
DETAIL
  6
CONTINUOUS
 62
     5
 10
119.27014787909999
 20
70.61943935697515
 30
0.0
 11
133.00519565520739
 21
62.689505826107293
 31
0.0
  0
LINE
  8
DETAIL
  6
CONTINUOUS
 62
     5
 10
119.27014787909999
 20
67.732688011026994
 30
0.0
 11
131.75519565520739
 21
60.524442316646173
 31
0.0
  0
LINE
  8
DETAIL
  6
CONTINUOUS
 62
     5
 10
141.31544969305151
 20
57.083288043458197
 30
0.0
 11
140.76544969305129
 21
56.130660099295262
 31
0.0
  0
LINE
  8
DETAIL
  6
CONTINUOUS
 62
     5
 10
132.65519565520711
 20
62.083288043458197
 30
0.0
 11
141.31544969305151
 21
57.083288043458197
 31
0.0
  0
LINE
  8
DETAIL
  6
CONTINUOUS
 62
     5
 10
132.1051956552069
 20
61.130660099295262
 30
0.0
 11
140.76544969305129
 21
56.130660099295262
 31
0.0
  0
LINE
  8
DETAIL
  6
CONTINUOUS
 62
     5
 10
133.00519565520739
 20
62.689505826107293
 30
0.0
 11
131.75519565520739
 21
60.524442316646173
 31
0.0
  0
LINE
  8
DETAIL
  6
CONTINUOUS
 62
     5
 10
119.27014787909999
 20
67.11943935697515
 30
0.0
 11
102.19498046926169
 21
67.11943935697515
 31
0.0
  0
LINE
  8
DETAIL
  6
CONTINUOUS
 62
     5
 10
119.27014787909999
 20
74.11943935697515
 30
0.0
 11
102.19498046926169
 21
74.11943935697515
 31
0.0
  0
LINE
  8
DETAIL
  6
CONTINUOUS
 62
     5
 10
97.906980466758341
 20
67.11943935697515
 30
0.0
 11
80.199999999999804
 21
67.11943935697515
 31
0.0
  0
LINE
  8
DETAIL
  6
CONTINUOUS
 62
     5
 10
97.906980466758341
 20
74.11943935697515
 30
0.0
 11
80.199999999999804
 21
74.11943935697515
 31
0.0
  0
ARC
  8
DETAIL
  6
CONTINUOUS
 62
     5
 10
76.272644040283453
 20
74.372396198258912
 30
0.0
 40
3.3611031163333069
 50
349.52130845807528
 51
125.7391236670608
  0
LINE
  8
DETAIL
  6
CONTINUOUS
 62
     5
 10
75.086360394316202
 20
66.675648959724413
 30
0.0
 11
79.577692740737803
 21
73.761112920025653
 31
0.0
  0
ARC
  8
DETAIL
  6
CONTINUOUS
 62
     5
 10
71.393831583068732
 20
76.278342586347193
 30
0.0
 40
10.28817252521905
 50
248.9667246879344
 51
291.03327531206548
  0
LINE
  8
DETAIL
  6
CONTINUOUS
 62
     5
 10
60.476948065322183
 20
71.278606621026483
 30
0.0
 11
62.630264520453693
 21
74.67564895972464
 31
0.0
  0
LINE
  8
DETAIL
  6
CONTINUOUS
 62
     5
 10
59.699999999999818
 20
58.402339027317353
 30
0.0
 11
70.015322142949117
 21
74.67564895972464
 31
0.0
  0
ARC
  8
DETAIL
  6
CONTINUOUS
 62
     5
 10
66.322793331701632
 20
65.072955333101859
 30
0.0
 40
10.28817252521927
 50
68.966724687934487
 51
111.0332753120655
  0
LINE
  8
DETAIL
  6
CONTINUOUS
 62
     5
 10
71.318711836495368
 20
72.61943935697515
 30
0.0
 11
70.015322142949117
 21
74.67564895972464
 31
0.0
  0
LINE
  8
DETAIL
  6
CONTINUOUS
 62
     5
 10
67.701302771821247
 20
66.675648959724413
 30
0.0
 11
74.309438513030713
 21
77.100552758354297
 31
0.0
  0
ARC
  8
DETAIL
  6
CONTINUOUS
 62
     5
 10
64.699999999999818
 20
68.601699383743835
 30
0.0
 40
5.0000000000000799
 50
147.63021606257109
 51
180.0
  0
LINE
  8
DETAIL
  6
CONTINUOUS
 62
     5
 10
67.701302771821247
 20
66.675648959724413
 30
0.0
 11
66.469173339683934
 21
68.61943935697515
 31
0.0
  0
LINE
  8
OUTLINE
  6
CONTINUOUS
 62
     3
 10
0.0
 20
104.6651492376034
 30
0.0
 11
0.0
 21
-104.7242863265967
 31
0.0
  0
ARC
  8
OUTLINE
  6
CONTINUOUS
 62
     3
 10
-0.3000000000001819
 20
-104.7242863265967
 30
0.0
 40
0.3000000000000275
 50
269.00000000000477
 51
0.0
  0
LINE
  8
OUTLINE
  6
CONTINUOUS
 62
     3
 10
-31.668695864148962
 20
-104.4767894020415
 30
0.0
 11
-0.3052357219999067
 21
-105.02424063519651
 31
0.0
  0
LINE
  8
OUTLINE
  6
CONTINUOUS
 62
     3
 10
-31.670782170474009
 20
104.41761589633759
 30
0.0
 11
-0.3052357219999067
 21
104.96510354610341
 31
0.0
  0
ARC
  8
OUTLINE
  6
CONTINUOUS
 62
     3
 10
-0.3000000000001819
 20
104.6651492375577
 30
0.0
 40
0.300000000000065
 50
0.0
 51
90.999999999995239
  0
ARC
  8
OUTLINE
  6
CONTINUOUS
 62
     3
 10
2760.6999999999989
 20
0.0
 30
0.0
 40
2800.0
 50
177.98134102836809
 51
182.01987318021119
  0
ARC
  8
OUTLINE
  6
CONTINUOUS
 62
     3
 10
-31.56606773185058
 20
98.418529725399367
 30
0.0
 40
5.9999999999999956
 50
90.999999999995239
 51
177.98134102836809
  0
ARC
  8
OUTLINE
  6
CONTINUOUS
 62
     3
 10
-31.56398142552553
 20
-98.477703231103305
 30
0.0
 40
6.0000000000002052
 50
182.01987318021119
 51
268.99999999999818
  0
LINE
  8
OUTLINE
  6
CONTINUOUS
 62
     3
 10
59.699999999999818
 20
-69.290453047065427
 30
0.0
 11
0.0
 21
-69.811447054151586
 31
0.0
  0
LINE
  8
OUTLINE
  6
CONTINUOUS
 62
     3
 10
59.699999999999818
 20
72.634251362245848
 30
0.0
 11
0.0
 21
72.968246354899975
 31
0.0
  0
ARC
  8
OUTLINE
  6
CONTINUOUS
 62
     3
 10
88.500000000000043
 20
-28.532986652399959
 30
0.0
 40
2.9999999999999289
 50
271.00000000000182
 51
0.0
  0
LINE
  8
OUTLINE
  6
CONTINUOUS
 62
     3
 10
59.699999999999818
 20
-31.702757766340401
 30
0.0
 11
88.552357219299694
 21
-31.532529737900092
 31
0.0
  0
ARC
  8
OUTLINE
  6
CONTINUOUS
 62
     3
 10
88.500000000000043
 20
28.532986652399931
 30
0.0
 40
2.9999999999999978
 50
0.0
 51
88.999999999998238
  0
LINE
  8
OUTLINE
  6
CONTINUOUS
 62
     3
 10
59.699999999999818
 20
31.702757766340401
 30
0.0
 11
88.552357219299694
 21
31.532529737899861
 31
0.0
  0
LINE
  8
OUTLINE
  6
CONTINUOUS
 62
     3
 10
91.499999999999631
 20
28.532986652399931
 30
0.0
 11
91.499999999999631
 21
-28.532986652399959
 31
0.0
  0
LINE
  8
OUTLINE
  6
CONTINUOUS
 62
     3
 10
59.699999999999818
 20
-69.290453047065427
 30
0.0
 11
59.699999999999832
 21
72.634251362245848
 31
0.0
  0
LINE
  8
NOTE
  6
CONTINUOUS
 62
     4
 10
-7.9211136146982417
 20
5.9999999999999432
 30
0.0
 11
7.9211136146982417
 21
5.9999999999999432
 31
0.0
  0
LINE
  8
NOTE
  6
CONTINUOUS
 62
     4
 10
0.0
 20
-2.0000000000000568
 30
0.0
 11
0.0
 21
13.99999999999994
 31
0.0
  0
CIRCLE
  8
FIX
  6
CONTINUOUS
 62
    11
 10
0.0
 20
5.9999999999999432
 30
0.0
 40
5.0
  0
LINE
  8
SIZE
  6
CONTINUOUS
 62
    30
 10
27.921113614698239
 20
5.9999999999999432
 30
0.0
 11
391.19739697648538
 21
5.9999999999998286
 31
0.0
  0
LINE
  8
SIZE
  6
CONTINUOUS
 62
    30
 10
122.33955296210659
 20
0.0
 30
0.0
 11
391.19739697648538
 21
-0.0000000000000853
 31
0.0
  0
LINE
  8
SIZE
  6
CONTINUOUS
 62
    30
 10
371.19739697648538
 20
-12.000000000000069
 30
0.0
 11
371.19739697648538
 21
-24.000000000000071
 31
0.0
  0
LINE
  8
SIZE
  6
CONTINUOUS
 62
    30
 10
371.19739697648538
 20
17.999999999999829
 30
0.0
 11
371.19739697648549
 21
256.88217286321861
 31
0.0
  0
LINE
  8
SIZE
  6
CONTINUOUS
 62
    30
 10
371.19739697648538
 20
-0.0000000000000711
 30
0.0
 11
371.19739697648538
 21
5.9999999999998437
 31
0.0
  0
CIRCLE
  8
SIZE
  6
CONTINUOUS
 62
    30
 10
371.19739697648538
 20
-0.0000000000000711
 30
0.0
 40
6.0
  0
LINE
  8
SIZE
  6
CONTINUOUS
 62
    30
 10
371.19739697648538
 20
-0.0000000000000711
 30
0.0
 11
371.19739697648538
 21
-12.000000000000069
 31
0.0
  0
CIRCLE
  8
SIZE
  6
CONTINUOUS
 62
    30
 10
371.19739697648538
 20
5.9999999999998437
 30
0.0
 40
6.0
  0
LINE
  8
SIZE
  6
CONTINUOUS
 62
    30
 10
371.19739697648538
 20
5.9999999999998437
 30
0.0
 11
371.19739697648538
 21
17.999999999999829
 31
0.0
  0
TEXT
  8
SIZE
  6
CONTINUOUS
 62
    30
 10
346.19739697648538
 20
196.22503000607571
 30
0.0
 40
64.0
  1
6
 50
90.0
 41
0.9
 72
     1
 11
346.19739697648538
 21
214.05360143464711
 31
0.0
  0
LINE
  8
SIZE
  6
CONTINUOUS
 62
    30
 10
19.69476427800009
 20
104.96510354610341
 30
0.0
 11
510.93789121472952
 21
104.96510354610319
 31
0.0
  0
LINE
  8
SIZE
  6
CONTINUOUS
 62
    30
 10
122.33955296210659
 20
0.0
 30
0.0
 11
510.93789121472952
 21
-0.0000000000001137
 31
0.0
  0
LINE
  8
SIZE
  6
CONTINUOUS
 62
    30
 10
490.93789121472952
 20
11.99999999999989
 30
0.0
 11
490.93789121472952
 21
92.965103546103208
 31
0.0
  0
LINE
  8
SIZE
  6
CONTINUOUS
 62
    30
 10
490.93789121472952
 20
104.96510354610319
 30
0.0
 11
490.93789121472952
 21
304.10796068896042
 31
0.0
  0
CIRCLE
  8
SIZE
  6
CONTINUOUS
 62
    30
 10
490.93789121472952
 20
-0.0000000000001137
 30
0.0
 40
6.0
  0
LINE
  8
SIZE
  6
CONTINUOUS
 62
    30
 10
490.93789121472952
 20
-0.0000000000001137
 30
0.0
 11
490.93789121472952
 21
11.99999999999989
 31
0.0
  0
CIRCLE
  8
SIZE
  6
CONTINUOUS
 62
    30
 10
490.93789121472952
 20
104.96510354610319
 30
0.0
 40
6.0
  0
LINE
  8
SIZE
  6
CONTINUOUS
 62
    30
 10
490.93789121472952
 20
104.96510354610319
 30
0.0
 11
490.93789121472952
 21
92.965103546103208
 31
0.0
  0
TEXT
  8
SIZE
  6
CONTINUOUS
 62
    30
 10
465.93789121472952
 20
141.96510354610331
 30
0.0
 40
64.0
  1
105
 50
90.0
 41
0.9
 72
     1
 11
465.93789121472952
 21
210.53653211753189
 31
0.0
  0
LINE
  8
DETAIL
  6
CONTINUOUS
 62
     5
 10
59.699999999999818
 20
56.000000000000107
 30
0.0
 11
75.568881685473571
 21
56.000000000000107
 31
0.0
  0
LINE
  8
DETAIL
  6
CONTINUOUS
 62
     5
 10
59.761905316017859
 20
58.500000000000803
 30
0.0
 11
75.568881685472178
 21
58.500000000000682
 31
0.0
  0
ARC
  8
DETAIL
  6
CONTINUOUS
 62
     5
 10
75.568881685473571
 20
26.00000000000011
 30
0.0
 40
30.000000000000039
 50
69.676863170335821
 51
90.0
  0
LINE
  8
DETAIL
  6
CONTINUOUS
 62
     5
 10
85.988312360181695
 20
54.132462821711101
 30
0.0
 11
91.683415732305548
 21
52.023165276479972
 31
0.0
  0
LINE
  8
DETAIL
  6
CONTINUOUS
 62
     5
 10
86.856598249739363
 20
56.47683472352071
 30
0.0
 11
92.551701621863685
 21
54.367537178289567
 31
0.0
  0
ARC
  8
DETAIL
  6
CONTINUOUS
 62
     5
 10
75.568881685472178
 20
26.000000000000679
 30
0.0
 40
32.499999999999993
 50
69.676863170335821
 51
90.0
  0
ARC
  8
DETAIL
  6
CONTINUOUS
 62
     5
 10
102.9711322965718
 20
82.500000000000455
 30
0.0
 40
30.0
 50
249.67686317033429
 51
270.0
  0
ARC
  8
DETAIL
  6
CONTINUOUS
 62
     5
 10
102.9711322965732
 20
82.500000000000099
 30
0.0
 40
32.50000000000005
 50
249.67686317033429
 51
270.0
  0
ARC
  8
DETAIL
  6
CONTINUOUS
 62
     5
 10
112.3378829091594
 20
50.625000000001478
 30
0.0
 40
1.250000000000193
 50
329.99999999991809
 51
29.99999999992459
  0
ARC
  8
DETAIL
  6
CONTINUOUS
 62
     5
 10
112.3378829091607
 20
51.875000000001592
 30
0.0
 40
1.250000000000157
 50
329.99999999992468
 51
29.999999999931159
  0
ARC
  8
DETAIL
  6
CONTINUOUS
 62
     5
 10
114.5029464186223
 20
51.874999999998742
 30
0.0
 40
1.2500000000001881
 50
149.9999999999182
 51
209.9999999999246
  0
ARC
  8
DETAIL
  6
CONTINUOUS
 62
     5
 10
114.7978829100539
 20
50.625000000001478
 30
0.0
 40
1.250000000000193
 50
329.99999999991809
 51
29.99999999992459
  0
ARC
  8
DETAIL
  6
CONTINUOUS
 62
     5
 10
116.96294641951501
 20
50.624999999998643
 30
0.0
 40
1.250000000000153
 50
149.99999999992471
 51
209.99999999993119
  0
ARC
  8
DETAIL
  6
CONTINUOUS
 62
     5
 10
116.9629464195168
 20
51.874999999998742
 30
0.0
 40
1.2500000000001901
 50
149.9999999999182
 51
209.9999999999246
  0
LINE
  8
DETAIL
  6
CONTINUOUS
 62
     5
 10
102.9711322965732
 20
50.000000000000107
 30
0.0
 11
113.4204146638895
 21
50.000000000000107
 31
0.0
  0
LINE
  8
DETAIL
  6
CONTINUOUS
 62
     5
 10
102.9711322965713
 20
52.500000000000341
 30
0.0
 11
113.4204146638926
 21
52.500000000000107
 31
0.0
  0
LINE
  8
DETAIL
  6
CONTINUOUS
 62
     5
 10
133.55986706173601
 20
50.000000000000107
 30
0.0
 11
133.55986706173601
 21
52.500000000000107
 31
0.0
  0
LINE
  8
DETAIL
  6
CONTINUOUS
 62
     5
 10
133.55986706173601
 20
51.800000000000303
 30
0.0
 11
143.5598670617355
 21
51.800000000000303
 31
0.0
  0
LINE
  8
DETAIL
  6
CONTINUOUS
 62
     5
 10
133.55986706173601
 20
50.70000000000028
 30
0.0
 11
143.55986706173601
 21
50.70000000000028
 31
0.0
  0
LINE
  8
DETAIL
  6
CONTINUOUS
 62
     5
 10
143.55986706173601
 20
50.70000000000028
 30
0.0
 11
143.5598670617355
 21
51.800000000000303
 31
0.0
  0
LINE
  8
DETAIL
  6
CONTINUOUS
 62
     5
 10
115.8804146647867
 20
52.500000000000107
 30
0.0
 11
133.55986706173601
 21
52.500000000000107
 31
0.0
  0
LINE
  8
DETAIL
  6
CONTINUOUS
 62
     5
 10
115.8804146647835
 20
50.000000000000107
 30
0.0
 11
133.55986706173601
 21
50.000000000000107
 31
0.0
  0
LINE
  8
NOTE
  6
CONTINUOUS
 62
     4
 10
51.778886385301583
 20
57.200139775715463
 30
0.0
 11
67.621113614698061
 21
57.200139775715463
 31
0.0
  0
LINE
  8
NOTE
  6
CONTINUOUS
 62
     4
 10
63.895888983698057
 20
61.780447766164627
 30
0.0
 11
59.700000007751044
 21
57.200140462988742
 31
0.0
  0
LINE
  8
NOTE
  6
CONTINUOUS
 62
     4
 10
59.700000007751044
 20
57.200140462988742
 30
0.0
 11
65.623902920014331
 21
59.068849529718648
 31
0.0
  0
LINE
  8
NOTE
  6
CONTINUOUS
 62
     4
 10
59.700000007751044
 20
57.200140462988742
 30
0.0
 11
69.819791895961345
 21
63.649156832894562
 31
0.0
  0
LINE
  8
NOTE
  6
CONTINUOUS
 62
     4
 10
69.819791895961345
 20
63.649156832894562
 30
0.0
 11
163.8386950296935
 21
123.2344810351325
 31
0.0
  0
LINE
  8
NOTE
  6
CONTINUOUS
 62
     4
 10
163.8386950296935
 20
123.2344810351325
 30
0.0
 11
260.86726645826491
 21
123.2344810351325
 31
0.0
  0
TEXT
  8
NOTE
  6
CONTINUOUS
 62
     4
 10
167.34995964449581
 20
141.0902043203111
 30
0.0
 40
64.0
  1
GE
 41
0.9
  0
ENDSEC
  0
EOF
