  0
SECTION
  2
HEADER
  9
$ACADVER
  1
AC1009
  9
$DWGCODEPAGE
  3
dos932
  9
$INSBASE
 10
0.0
 20
0.0
 30
0.0
  9
$EXTMIN
 10
-369.79978783033039
 20
-241.92808864397011
 30
-0.0015258207003583
  9
$EXTMAX
 10
992.0242424845037
 20
792.7551352101782
 30
0.0000000349246037
  9
$LIMMIN
 10
-2970.0
 20
-2100.0
  9
$LIMMAX
 10
2970.0
 20
2100.0
  9
$ORTHOMODE
 70
     1
  9
$REGENMODE
 70
     1
  9
$FILLMODE
 70
     1
  9
$QTEXTMODE
 70
     0
  9
$MIRRTEXT
 70
     0
  9
$LTSCALE
 40
20.0
  9
$ATTMODE
 70
     1
  9
$TEXTSIZE
 40
64.0
  9
$TRACEWID
 40
0.05
  9
$TEXTSTYLE
  7
STANDARD
  9
$CLAYER
  8
SIZE
  9
$CELTYPE
  6
CONTINUOUS
  9
$CECOLOR
 62
     7
  9
$DIMSCALE
 40
1.0
  9
$DIMASZ
 40
12.0
  9
$DIMEXO
 40
20.0
  9
$DIMDLI
 40
200.0
  9
$DIMRND
 40
0.0
  9
$DIMDLE
 40
0.0
  9
$DIMEXE
 40
20.0
  9
$DIMTP
 40
0.0
  9
$DIMTM
 40
0.0
  9
$DIMTXT
 40
64.0
  9
$DIMCEN
 40
0.09
  9
$DIMTSZ
 40
0.0
  9
$DIMTOL
 70
     0
  9
$DIMLIM
 70
     0
  9
$DIMTIH
 70
     0
  9
$DIMTOH
 70
     0
  9
$DIMSE1
 70
     0
  9
$DIMSE2
 70
     0
  9
$DIMTAD
 70
     1
  9
$DIMZIN
 70
     8
  9
$DIMBLK
  1

  9
$DIMASO
 70
     1
  9
$DIMSHO
 70
     0
  9
$DIMPOST
  1

  9
$DIMAPOST
  1

  9
$DIMALT
 70
     0
  9
$DIMALTD
 70
     2
  9
$DIMALTF
 40
25.399999999999999
  9
$DIMLFAC
 40
1.0
  9
$DIMTOFL
 70
     1
  9
$DIMTVP
 40
0.0
  9
$DIMTIX
 70
     1
  9
$DIMSOXD
 70
     0
  9
$DIMSAH
 70
     0
  9
$DIMBLK1
  1

  9
$DIMBLK2
  1

  9
$DIMSTYLE
  2
STANDARD
  9
$DIMCLRD
 70
     7
  9
$DIMCLRE
 70
     7
  9
$DIMCLRT
 70
     7
  9
$DIMTFAC
 40
1.0
  9
$DIMGAP
 40
25.0
  9
$LUNITS
 70
     2
  9
$LUPREC
 70
     4
  9
$SKETCHINC
 40
0.1
  9
$FILLETRAD
 40
3.0
  9
$AUNITS
 70
     1
  9
$AUPREC
 70
     3
  9
$MENU
  1
ACAD
  9
$ELEVATION
 40
0.0
  9
$PELEVATION
 40
0.0
  9
$THICKNESS
 40
0.0
  9
$LIMCHECK
 70
     0
  9
$CHAMFERA
 40
0.0
  9
$CHAMFERB
 40
0.0
  9
$SKPOLY
 70
     0
  9
$TDCREATE
 40
2453019.623009259
  9
$TDUPDATE
 40
2459356.667825231
  9
$TDINDWG
 40
1.7203400579
  9
$TDUSRTIMER
 40
1.7203400579
  9
$USRTIMER
 70
     1
  9
$ANGBASE
 50
0.0
  9
$ANGDIR
 70
     0
  9
$PDMODE
 70
     3
  9
$PDSIZE
 40
-2.0
  9
$PLINEWID
 40
0.0
  9
$SPLFRAME
 70
     0
  9
$SPLINETYPE
 70
     6
  9
$SPLINESEGS
 70
     8
  9
$SURFTAB1
 70
     6
  9
$SURFTAB2
 70
     6
  9
$SURFTYPE
 70
     6
  9
$SURFU
 70
     6
  9
$SURFV
 70
     6
  9
$UCSNAME
  2

  9
$UCSORG
 10
0.0
 20
0.0
 30
0.0
  9
$UCSXDIR
 10
1.0
 20
0.0
 30
0.0
  9
$UCSYDIR
 10
0.0
 20
1.0
 30
0.0
  9
$PUCSNAME
  2

  9
$PUCSORG
 10
0.0
 20
0.0
 30
0.0
  9
$PUCSXDIR
 10
1.0
 20
0.0
 30
0.0
  9
$PUCSYDIR
 10
0.0
 20
1.0
 30
0.0
  9
$USERI1
 70
     0
  9
$USERI2
 70
     0
  9
$USERI3
 70
     0
  9
$USERI4
 70
     0
  9
$USERI5
 70
     0
  9
$USERR1
 40
20.0
  9
$USERR2
 40
0.0
  9
$USERR3
 40
0.0
  9
$USERR4
 40
0.0
  9
$USERR5
 40
0.0
  9
$WORLDVIEW
 70
     1
  9
$SHADEDGE
 70
     3
  9
$SHADEDIF
 70
    70
  9
$TILEMODE
 70
     1
  9
$MAXACTVP
 70
    48
  9
$PINSBASE
 10
0.0
 20
0.0
 30
0.0
  9
$PLIMCHECK
 70
     0
  9
$PEXTMIN
 10
-100000000000000000000.0
 20
-100000000000000000000.0
 30
-100000000000000000000.0
  9
$PEXTMAX
 10
100000000000000000000.0
 20
100000000000000000000.0
 30
100000000000000000000.0
  9
$PLIMMIN
 10
0.0
 20
0.0
  9
$PLIMMAX
 10
12.0
 20
9.0
  9
$UNITMODE
 70
     0
  9
$VISRETAIN
 70
     0
  9
$PLINEGEN
 70
     0
  9
$PSLTSCALE
 70
     0
  9
$TREEDEPTH
 70
  3020
  9
$ATTDIA
 70
     0
  9
$ATTREQ
 70
     1
  9
$BLIPMODE
 70
     1
  9
$COORDS
 70
     1
  9
$DRAGMODE
 70
     2
  9
$OSMODE
 70
     0
  9
$HANDLING
 70
     0
  9
$HANDSEED
  5
2F5
  0
ENDSEC
  0
SECTION
  2
TABLES
  0
TABLE
  2
LTYPE
 70
     2
  0
LTYPE
  2
CONTINUOUS
 70
     0
  3
実線
 72
    65
 73
     0
 40
0.0
  0
LTYPE
  2
DASHDOT
 70
     0
  3
____ _ ____ _ ____ _ ____ _ ____ _ ____ _ ____
 72
    65
 73
     4
 40
5.5
 49
4.0
 49
-0.6
 49
0.3
 49
-0.6
  0
ENDTAB
  0
TABLE
  2
LAYER
 70
    12
  0
LAYER
  2
SIZE
 70
     0
 62
    30
  6
CONTINUOUS
  0
LAYER
  2
BASIS
 70
     0
 62
     6
  6
DASHDOT
  0
LAYER
  2
OUTLINE
 70
     0
 62
     3
  6
CONTINUOUS
  0
LAYER
  2
DETAIL
 70
     0
 62
     5
  6
CONTINUOUS
  0
LAYER
  2
ARRANGE
 70
     0
 62
     1
  6
CONTINUOUS
  0
LAYER
  2
ETC
 70
     0
 62
    61
  6
CONTINUOUS
  0
LAYER
  2
FIX
 70
     0
 62
    11
  6
CONTINUOUS
  0
LAYER
  2
NOTE
 70
     0
 62
     4
  6
CONTINUOUS
  0
LAYER
  2
0
 70
    64
 62
     7
  6
CONTINUOUS
  0
LAYER
  2
DEFPOINTS
 70
    64
 62
     7
  6
CONTINUOUS
  0
LAYER
  2
SERVICESPACE
 70
    64
 62
     2
  6
DASHDOT
  0
LAYER
  2
SYMBOLLINE
 70
    64
 62
    15
  6
CONTINUOUS
  0
ENDTAB
  0
TABLE
  2
STYLE
 70
     1
  0
STYLE
  2
STANDARD
 70
     0
 40
64.0
 41
0.9
 50
0.0
 71
     0
 42
64.0
  3
SIMPLEX.shx
  4
BIGFONT.shx
  0
ENDTAB
  0
TABLE
  2
APPID
 70
    20
  0
APPID
  2
ACAD
 70
     0
  0
APPID
  2
ACADANNOTATIVE
 70
     0
  0
APPID
  2
AUTOCAD_POSTSCRIPT_FIGURE
 70
     0
  0
APPID
  2
ACAD_EXEMPT_FROM_CAD_STANDARDS
 70
     0
  0
APPID
  2
ACAD_PSEXT
 70
     0
  0
APPID
  2
ACAUTHENVIRON
 70
     0
  0
APPID
  2
GENIUS_GENOENT_13
 70
     0
  0
APPID
  2
GENIUS_GENCFG_13
 70
     0
  0
APPID
  2
GENIUS_GENCFG0_13
 70
     0
  0
APPID
  2
GENIUS_GENCFG1_13
 70
     0
  0
APPID
  2
GENIUS_GENCFG2_13
 70
     0
  0
APPID
  2
GENIUS_GENCFG3_13
 70
     0
  0
APPID
  2
GENIUS_GENCFG4_13
 70
     0
  0
APPID
  2
GENIUS_GEVCFG0_13
 70
     0
  0
APPID
  2
CONTENTBLOCKICON
 70
     0
  0
APPID
  2
CONTENTBLOCKDESCRIPTION
 70
     0
  0
APPID
  2
ACAD_NAV_VCDISPLAY
 70
     0
  0
APPID
  2
ACAD_MLEADERVER
 70
     0
  0
APPID
  2
ACDBDYNAMICBLOCKTRUENAME
 70
     0
  0
APPID
  2
ACDBDYNAMICBLOCKGUID
 70
     0
  0
ENDTAB
  0
TABLE
  2
DIMSTYLE
 70
     1
  0
DIMSTYLE
  2
STANDARD
 70
     0
  3

  4

  5

  6

  7

 40
1.0
 41
12.0
 42
20.0
 43
200.0
 44
20.0
 45
0.0
 46
0.0
 47
0.0
 48
0.0
140
64.0
141
0.09
142
0.0
143
25.399999999999999
144
1.0
145
0.0
146
1.0
147
25.0
 71
     0
 72
     0
 73
     0
 74
     0
 75
     0
 76
     0
 77
     1
 78
     8
170
     0
171
     2
172
     1
173
     0
174
     1
175
     0
176
     7
177
     7
178
     7
  0
ENDTAB
  0
TABLE
  2
VIEW
 70
     1
  0
VIEW
  2
ALL
 70
     0
 40
4282.6198079999986
 10
0.0
 20
41.309904000000003
 41
5940.0
 11
0.0
 21
0.0
 31
1.0
 12
0.0
 22
0.0
 32
0.0
 42
50.0
 43
0.0
 44
0.0
 50
0.0
 71
     0
  0
ENDTAB
  0
TABLE
  2
UCS
 70
     0
  0
ENDTAB
  0
TABLE
  2
VPORT
 70
     1
  0
VPORT
  2
*ACTIVE
 70
     0
 10
0.0
 20
0.0
 11
1.0
 21
1.0
 12
311.11222732708671
 22
275.41352328310398
 13
0.0
 23
0.0
 14
1.0
 24
1.0
 15
0.0
 25
0.0
 16
0.0
 26
0.0
 36
1.0
 17
0.0
 27
0.0
 37
0.0
 40
691.30957623968914
 41
2.195615514333896
 42
50.0
 43
0.0
 44
0.0
 50
0.0
 51
0.0
 71
     0
 72
  1000
 73
     1
 74
     3
 75
     0
 76
     0
 77
     0
 78
     0
  0
ENDTAB
  0
ENDSEC
  0
SECTION
  2
BLOCKS
  0
ENDSEC
  0
SECTION
  2
ENTITIES
  0
TEXT
  8
ETC
  6
CONTINUOUS
 62
    61
 10
319.61318150558958
 20
728.72848961045531
 30
0.0
 40
64.0
  1
V-12PP8-BL_6
 41
0.9
  0
TEXT
  8
ETC
  6
CONTINUOUS
 62
    61
 10
315.42718750558919
 20
610.77317959562413
 30
0.0
 40
64.0
  1
換気扇
 41
0.9
  0
LINE
  8
BASIS
  6
DASHDOT
 62
     6
 10
0.0
 20
-109.2854010143142
 30
0.0
 11
0.0
 21
148.54463825702939
 31
0.0
  0
LINE
  8
BASIS
  6
DASHDOT
 62
     6
 10
125.4561247050906
 20
0.0
 30
0.0
 11
-125.4561247050906
 21
0.0
 31
0.0
  0
TEXT
  8
ETC
  6
CONTINUOUS
 62
    61
 10
366.12858575414521
 20
502.62440670939901
 30
0.0
 40
40.0
  1
V-12PP8-BL
 41
0.9
  0
LINE
  8
SIZE
  6
CONTINUOUS
 62
    30
 10
-31.50275776634038
 20
79.699999999999662
 30
0.0
 11
-31.50275776634032
 21
259.69766857770207
 31
0.0
  0
LINE
  8
SIZE
  6
CONTINUOUS
 62
    30
 10
31.502757766340441
 20
79.699999999999662
 30
0.0
 11
31.502757766340441
 21
259.69766857770207
 31
0.0
  0
LINE
  8
SIZE
  6
CONTINUOUS
 62
    30
 10
-43.502757766340324
 20
239.6976685777021
 30
0.0
 11
-55.502757766340324
 21
239.6976685777021
 31
0.0
  0
LINE
  8
SIZE
  6
CONTINUOUS
 62
    30
 10
43.502757766340437
 20
239.6976685777021
 30
0.0
 11
291.09901870652152
 21
239.6976685777021
 31
0.0
  0
LINE
  8
SIZE
  6
CONTINUOUS
 62
    30
 10
-31.50275776634032
 20
239.6976685777021
 30
0.0
 11
31.502757766340441
 21
239.6976685777021
 31
0.0
  0
CIRCLE
  8
SIZE
  6
CONTINUOUS
 62
    30
 10
-31.50275776634032
 20
239.6976685777021
 30
0.0
 40
6.0
  0
LINE
  8
SIZE
  6
CONTINUOUS
 62
    30
 10
-31.50275776634032
 20
239.6976685777021
 30
0.0
 11
-43.502757766340324
 21
239.6976685777021
 31
0.0
  0
CIRCLE
  8
SIZE
  6
CONTINUOUS
 62
    30
 10
31.502757766340441
 20
239.6976685777021
 30
0.0
 40
6.0
  0
LINE
  8
SIZE
  6
CONTINUOUS
 62
    30
 10
31.502757766340441
 20
239.6976685777021
 30
0.0
 11
43.502757766340437
 21
239.6976685777021
 31
0.0
  0
TEXT
  8
SIZE
  6
CONTINUOUS
 62
    30
 10
102.3504472779502
 20
275.36433524436882
 30
0.0
 40
64.0
  1
φ63
 41
0.9
 72
     1
 11
189.29901870652159
 21
275.36433524436882
 31
0.0
  0
LINE
  8
SIZE
  6
CONTINUOUS
 62
    30
 10
-69.716727307831434
 20
20.0
 30
0.0
 11
-69.716727307831434
 21
420.83978823892232
 31
0.0
  0
LINE
  8
SIZE
  6
CONTINUOUS
 62
    30
 10
69.811447054151586
 20
20.0
 30
0.0
 11
69.811447054151586
 21
420.83978823892232
 31
0.0
  0
LINE
  8
SIZE
  6
CONTINUOUS
 62
    30
 10
-57.716727307831427
 20
400.83978823892232
 30
0.0
 11
57.811447054151593
 21
400.83978823892232
 31
0.0
  0
LINE
  8
SIZE
  6
CONTINUOUS
 62
    30
 10
69.811447054151586
 20
400.83978823892232
 30
0.0
 11
329.29716133986602
 21
400.83978823892232
 31
0.0
  0
CIRCLE
  8
SIZE
  6
CONTINUOUS
 62
    30
 10
-69.716727307831434
 20
400.83978823892232
 30
0.0
 40
6.0
  0
LINE
  8
SIZE
  6
CONTINUOUS
 62
    30
 10
-69.716727307831434
 20
400.83978823892232
 30
0.0
 11
-57.716727307831427
 21
400.83978823892232
 31
0.0
  0
CIRCLE
  8
SIZE
  6
CONTINUOUS
 62
    30
 10
69.811447054151586
 20
400.83978823892232
 30
0.0
 40
6.0
  0
LINE
  8
SIZE
  6
CONTINUOUS
 62
    30
 10
69.811447054151586
 20
400.83978823892232
 30
0.0
 11
57.811447054151643
 21
400.83978823892232
 31
0.0
  0
TEXT
  8
SIZE
  6
CONTINUOUS
 62
    30
 10
96.662875625580156
 20
436.50645490558878
 30
0.0
 40
64.0
  1
φ140
 41
0.9
 72
     1
 11
205.55430419700869
 21
436.50645490558878
 31
0.0
  0
LINE
  8
SIZE
  6
CONTINUOUS
 62
    30
 10
-94.999999999999872
 20
28.0
 30
0.0
 11
-94.999999999999844
 21
554.47037379501762
 31
0.0
  0
LINE
  8
SIZE
  6
CONTINUOUS
 62
    30
 10
95.000000000000128
 20
28.0
 30
0.0
 11
95.000000000000128
 21
554.47037379501762
 31
0.0
  0
LINE
  8
SIZE
  6
CONTINUOUS
 62
    30
 10
-82.999999999999872
 20
534.47037379501762
 30
0.0
 11
83.000000000000099
 21
534.47037379501762
 31
0.0
  0
CIRCLE
  8
SIZE
  6
CONTINUOUS
 62
    30
 10
-94.999999999999844
 20
534.47037379501762
 30
0.0
 40
6.0
  0
LINE
  8
SIZE
  6
CONTINUOUS
 62
    30
 10
-94.999999999999844
 20
534.47037379501762
 30
0.0
 11
-82.999999999999872
 21
534.47037379501762
 31
0.0
  0
CIRCLE
  8
SIZE
  6
CONTINUOUS
 62
    30
 10
95.000000000000128
 20
534.47037379501762
 30
0.0
 40
6.0
  0
LINE
  8
SIZE
  6
CONTINUOUS
 62
    30
 10
95.000000000000128
 20
534.47037379501762
 30
0.0
 11
83.000000000000099
 21
534.47037379501762
 31
0.0
  0
TEXT
  8
SIZE
  6
CONTINUOUS
 62
    30
 10
-68.571428571428569
 20
559.47037379501762
 30
0.0
 40
64.0
  1
190
 41
0.9
 72
     1
 11
0.0
 21
559.47037379501762
 31
0.0
  0
LINE
  8
SIZE
  6
CONTINUOUS
 62
    30
 10
-104.96510354610341
 20
-20.30523572199991
 30
0.0
 11
-104.96510354610341
 21
-241.87012389972011
 31
0.0
  0
LINE
  8
SIZE
  6
CONTINUOUS
 62
    30
 10
105.02424063519651
 20
-20.30523572199991
 30
0.0
 11
105.02424063519651
 21
-241.87012389972011
 31
0.0
  0
LINE
  8
SIZE
  6
CONTINUOUS
 62
    30
 10
93.02424063519652
 20
-221.87012389972011
 30
0.0
 11
-92.965103546103364
 21
-221.87012389972011
 31
0.0
  0
LINE
  8
SIZE
  6
CONTINUOUS
 62
    30
 10
-104.96510354610341
 20
-221.87012389972011
 30
0.0
 11
-369.38796068896067
 21
-221.87012389972011
 31
0.0
  0
CIRCLE
  8
SIZE
  6
CONTINUOUS
 62
    30
 10
105.02424063519651
 20
-221.87012389972011
 30
0.0
 40
6.0
  0
LINE
  8
SIZE
  6
CONTINUOUS
 62
    30
 10
105.02424063519651
 20
-221.87012389972011
 30
0.0
 11
93.02424063519652
 21
-221.87012389972011
 31
0.0
  0
CIRCLE
  8
SIZE
  6
CONTINUOUS
 62
    30
 10
-104.96510354610341
 20
-221.87012389972011
 30
0.0
 40
6.0
  0
LINE
  8
SIZE
  6
CONTINUOUS
 62
    30
 10
-104.96510354610341
 20
-221.87012389972011
 30
0.0
 11
-92.965103546103421
 21
-221.87012389972011
 31
0.0
  0
TEXT
  8
SIZE
  6
CONTINUOUS
 62
    30
 10
-348.22796068896059
 20
-196.87012389972011
 30
0.0
 40
64.0
  1
□210
 41
0.9
 72
     1
 11
-243.17653211753199
 21
-196.87012389972011
 31
0.0
  0
LINE
  8
SIZE
  6
CONTINUOUS
 62
    30
 10
-20.0
 20
-39.300000000000637
 30
0.0
 11
-286.02009454316749
 21
-39.30000000000058
 31
0.0
  0
LINE
  8
SIZE
  6
CONTINUOUS
 62
    30
 10
-145.45612470509059
 20
0.0
 30
0.0
 11
-286.02009454316749
 21
0.0000000000000568
 31
0.0
  0
LINE
  8
SIZE
  6
CONTINUOUS
 62
    30
 10
-266.02009454316737
 20
-51.30000000000058
 30
0.0
 11
-266.02009454316737
 21
-63.30000000000058
 31
0.0
  0
LINE
  8
SIZE
  6
CONTINUOUS
 62
    30
 10
-266.02009454316737
 20
12.00000000000003
 30
0.0
 11
-266.02009454316737
 21
24.00000000000006
 31
0.0
  0
LINE
  8
SIZE
  6
CONTINUOUS
 62
    30
 10
-266.02009454316737
 20
-39.30000000000058
 30
0.0
 11
-266.02009454316737
 21
0.0000000000000284
 31
0.0
  0
CIRCLE
  8
SIZE
  6
CONTINUOUS
 62
    30
 10
-266.02009454316737
 20
-39.30000000000058
 30
0.0
 40
6.0
  0
LINE
  8
SIZE
  6
CONTINUOUS
 62
    30
 10
-266.02009454316737
 20
-39.30000000000058
 30
0.0
 11
-266.02009454316737
 21
-51.30000000000058
 31
0.0
  0
CIRCLE
  8
SIZE
  6
CONTINUOUS
 62
    30
 10
-266.02009454316737
 20
0.0000000000000284
 30
0.0
 40
6.0
  0
LINE
  8
SIZE
  6
CONTINUOUS
 62
    30
 10
-266.02009454316737
 20
0.0000000000000284
 30
0.0
 11
-266.02009454316737
 21
12.00000000000003
 31
0.0
  0
TEXT
  8
SIZE
  6
CONTINUOUS
 62
    30
 10
-291.02009454316749
 20
-64.907142857143171
 30
0.0
 40
64.0
  1
39
 50
90.0
 41
0.9
 72
     1
 11
-291.02009454316749
 21
-19.650000000000318
 31
0.0
  0
LINE
  8
SIZE
  6
CONTINUOUS
 62
    30
 10
-48.332986652399939
 20
91.499999999999659
 30
0.0
 11
-286.02009454316749
 21
91.499999999999716
 31
0.0
  0
LINE
  8
SIZE
  6
CONTINUOUS
 62
    30
 10
-145.45612470509059
 20
0.0
 30
0.0
 11
-286.02009454316749
 21
0.0000000000000568
 31
0.0
  0
LINE
  8
SIZE
  6
CONTINUOUS
 62
    30
 10
-266.02009454316737
 20
12.00000000000003
 30
0.0
 11
-266.02009454316737
 21
79.499999999999702
 31
0.0
  0
LINE
  8
SIZE
  6
CONTINUOUS
 62
    30
 10
-266.02009454316737
 20
91.499999999999716
 30
0.0
 11
-266.02009454316737
 21
318.07142857142838
 31
0.0
  0
CIRCLE
  8
SIZE
  6
CONTINUOUS
 62
    30
 10
-266.02009454316737
 20
0.0000000000000284
 30
0.0
 40
6.0
  0
LINE
  8
SIZE
  6
CONTINUOUS
 62
    30
 10
-266.02009454316737
 20
0.0000000000000284
 30
0.0
 11
-266.02009454316737
 21
12.00000000000003
 31
0.0
  0
CIRCLE
  8
SIZE
  6
CONTINUOUS
 62
    30
 10
-266.02009454316737
 20
91.499999999999716
 30
0.0
 40
6.0
  0
LINE
  8
SIZE
  6
CONTINUOUS
 62
    30
 10
-266.02009454316737
 20
91.499999999999716
 30
0.0
 11
-266.02009454316737
 21
79.499999999999702
 31
0.0
  0
TEXT
  8
SIZE
  6
CONTINUOUS
 62
    30
 10
-291.02009454316749
 20
128.49999999999969
 30
0.0
 40
64.0
  1
91.5
 50
90.0
 41
0.9
 72
     1
 11
-291.02009454316749
 21
210.78571428571399
 31
0.0
  0
TEXT
  8
NOTE
  6
CONTINUOUS
 62
     4
 10
310.70407246754638
 20
139.88004618361671
 30
0.0
 40
64.0
  1
2-φ4×10
 41
0.9
  0
LINE
  8
NOTE
  6
CONTINUOUS
 62
     4
 10
101.14895084137601
 20
0.8803992505349925
 30
0.0
 11
95.000000000000128
 21
0.0
 31
0.0
  0
LINE
  8
NOTE
  6
CONTINUOUS
 62
     4
 10
95.000000000000128
 20
0.0
 30
0.0
 11
99.884942227952422
 21
3.8369308984615031
 31
0.0
  0
LINE
  8
NOTE
  6
CONTINUOUS
 62
     4
 10
95.000000000000128
 20
0.0
 30
0.0
 11
106.0338930693283
 21
4.7173301489964956
 31
0.0
  0
LINE
  8
NOTE
  6
CONTINUOUS
 62
     4
 10
106.0338930693283
 20
4.7173301489964956
 30
0.0
 11
313.01200256039277
 21
94.281382631272663
 31
0.0
  0
LINE
  8
NOTE
  6
CONTINUOUS
 62
     4
 10
313.01200256039277
 20
94.281382631272663
 30
0.0
 11
705.78914541753556
 21
94.281382631272663
 31
0.0
  0
LINE
  8
NOTE
  6
CONTINUOUS
 62
     4
 10
95.000000000000128
 20
-8.0
 30
0.0
 11
95.000000000000128
 21
8.0
 31
0.0
  0
LINE
  8
NOTE
  6
CONTINUOUS
 62
     4
 10
90.000000000000114
 20
0.0
 30
0.0
 11
100.0000000000001
 21
0.0
 31
0.0
  0
LINE
  8
NOTE
  6
CONTINUOUS
 62
     4
 10
-99.999999999999872
 20
0.0
 30
0.0
 11
-89.999999999999872
 21
0.0
 31
0.0
  0
LINE
  8
NOTE
  6
CONTINUOUS
 62
     4
 10
-94.999999999999872
 20
-8.0
 30
0.0
 11
-94.999999999999872
 21
8.0
 31
0.0
  0
CIRCLE
  8
FIX
  6
CONTINUOUS
 62
    11
 10
95.000000000000128
 20
0.0
 30
0.0
 40
5.0
  0
CIRCLE
  8
FIX
  6
CONTINUOUS
 62
    11
 10
-94.999999999999872
 20
0.0
 30
0.0
 40
5.0
  0
LINE
  8
SIZE
  6
CONTINUOUS
 62
    30
 10
-99.318232138800127
 20
59.699999999999818
 30
0.0
 11
-185.02582330400759
 21
59.699999999999818
 31
0.0
  0
LINE
  8
SIZE
  6
CONTINUOUS
 62
    30
 10
-145.45612470509059
 20
0.0
 30
0.0
 11
-185.02582330400759
 21
0.0000000000000284
 31
0.0
  0
LINE
  8
SIZE
  6
CONTINUOUS
 62
    30
 10
-165.02582330400759
 20
-12.0
 30
0.0
 11
-165.02582330400759
 21
-24.0
 31
0.0
  0
LINE
  8
SIZE
  6
CONTINUOUS
 62
    30
 10
-165.02582330400759
 20
71.699999999999875
 30
0.0
 11
-165.02582330400759
 21
226.95714285714271
 31
0.0
  0
LINE
  8
SIZE
  6
CONTINUOUS
 62
    30
 10
-165.02582330400759
 20
0.0
 30
0.0
 11
-165.02582330400759
 21
59.699999999999818
 31
0.0
  0
CIRCLE
  8
SIZE
  6
CONTINUOUS
 62
    30
 10
-165.02582330400759
 20
0.0
 30
0.0
 40
6.0
  0
LINE
  8
SIZE
  6
CONTINUOUS
 62
    30
 10
-165.02582330400759
 20
0.0
 30
0.0
 11
-165.02582330400759
 21
-12.0
 31
0.0
  0
CIRCLE
  8
SIZE
  6
CONTINUOUS
 62
    30
 10
-165.02582330400759
 20
59.699999999999818
 30
0.0
 40
6.0
  0
LINE
  8
SIZE
  6
CONTINUOUS
 62
    30
 10
-165.02582330400759
 20
59.699999999999818
 30
0.0
 11
-165.02582330400759
 21
71.699999999999804
 31
0.0
  0
TEXT
  8
SIZE
  6
CONTINUOUS
 62
    30
 10
-190.02582330400759
 20
108.6999999999998
 30
0.0
 40
64.0
  1
60
 50
90.0
 41
0.9
 72
     1
 11
-190.02582330400759
 21
155.32857142857119
 31
0.0
  0
CIRCLE
  8
ARRANGE
  6
CONTINUOUS
 62
     1
 10
0.0
 20
0.0
 30
0.0
 40
40.0
  0
POINT
  8
ARRANGE
  6
CONTINUOUS
 62
     1
 10
0.0
 20
0.0
 30
0.0
  0
LINE
  8
DETAIL
  6
CONTINUOUS
 62
     5
 10
-104.6651492376034
 20
0.0
 30
0.0
 11
104.7242863265967
 21
0.0
 31
0.0
  0
ARC
  8
DETAIL
  6
CONTINUOUS
 62
     5
 10
104.7242863265967
 20
-0.3000000000001819
 30
0.0
 40
0.3000000000000275
 50
359.00000000000477
 51
90.0
  0
LINE
  8
DETAIL
  6
CONTINUOUS
 62
     5
 10
104.4767894020415
 20
-31.668695864148962
 30
0.0
 11
105.02424063519651
 21
-0.3052357219999067
 31
0.0
  0
LINE
  8
DETAIL
  6
CONTINUOUS
 62
     5
 10
-104.41761589633759
 20
-31.670782170474009
 30
0.0
 11
-104.96510354610341
 21
-0.3052357219999067
 31
0.0
  0
ARC
  8
DETAIL
  6
CONTINUOUS
 62
     5
 10
-104.6651492375577
 20
-0.3000000000001819
 30
0.0
 40
0.300000000000065
 50
90.0
 51
180.99999999999531
  0
ARC
  8
DETAIL
  6
CONTINUOUS
 62
     5
 10
0.0000000000002274
 20
2760.6999999999989
 30
0.0
 40
2800.0
 50
267.98134102836809
 51
272.0198731801982
  0
ARC
  8
DETAIL
  6
CONTINUOUS
 62
     5
 10
-98.418529725399367
 20
-31.56606773185058
 30
0.0
 40
5.9999999999999956
 50
180.99999999999531
 51
267.98134102836809
  0
ARC
  8
DETAIL
  6
CONTINUOUS
 62
     5
 10
98.477703231103305
 20
-31.56398142552553
 30
0.0
 40
6.0000000000002052
 50
272.0198731801982
 51
358.99999999999818
  0
LINE
  8
DETAIL
  6
CONTINUOUS
 62
     5
 10
69.290453047065398
 20
59.699999999999818
 30
0.0
 11
69.811447054151586
 21
0.0
 31
0.0
  0
LINE
  8
DETAIL
  6
CONTINUOUS
 62
     5
 10
-69.19573330071853
 20
59.699999999999818
 30
0.0
 11
-69.716727307831434
 21
0.0
 31
0.0
  0
ARC
  8
DETAIL
  6
CONTINUOUS
 62
     5
 10
28.332986652399999
 20
88.500000000000057
 30
0.0
 40
2.9999999999999289
 50
1.0000000000017619
 51
90.0
  0
LINE
  8
DETAIL
  6
CONTINUOUS
 62
     5
 10
31.502757766340441
 20
59.699999999999591
 30
0.0
 11
31.332529737900131
 21
88.552357219299694
 31
0.0
  0
ARC
  8
DETAIL
  6
CONTINUOUS
 62
     5
 10
-28.332986652399999
 20
88.500000000000057
 30
0.0
 40
2.9999999999999978
 50
90.0
 51
178.99999999999829
  0
LINE
  8
DETAIL
  6
CONTINUOUS
 62
     5
 10
-31.502757766340441
 20
59.699999999999591
 30
0.0
 11
-31.3325297378999
 21
88.552357219299694
 31
0.0
  0
LINE
  8
DETAIL
  6
CONTINUOUS
 62
     5
 10
-28.332986652399999
 20
91.499999999999659
 30
0.0
 11
28.332986652399999
 21
91.499999999999659
 31
0.0
  0
LINE
  8
DETAIL
  6
CONTINUOUS
 62
     5
 10
69.290453047065398
 20
59.699999999999818
 30
0.0
 11
-69.19573330071853
 21
59.699999999999818
 31
0.0
  0
ARC
  8
DETAIL
  6
CONTINUOUS
 62
     5
 10
-1.75
 20
105.22606938250701
 30
0.0
 40
3.500000000000107
 50
239.9999999999998
 51
300.00000000000011
  0
ARC
  8
DETAIL
  6
CONTINUOUS
 62
     5
 10
1.75
 20
105.22606938250701
 30
0.0
 40
3.500000000000107
 50
239.9999999999998
 51
300.00000000000011
  0
ARC
  8
DETAIL
  6
CONTINUOUS
 62
     5
 10
1.75
 20
99.163891556015756
 30
0.0
 40
3.5000000000001248
 50
59.999999999999858
 51
120.0000000000002
  0
ARC
  8
DETAIL
  6
CONTINUOUS
 62
     5
 10
-1.75
 20
100.9380693800036
 30
0.0
 40
3.500000000000103
 50
239.9999999999998
 51
300.00000000000011
  0
ARC
  8
DETAIL
  6
CONTINUOUS
 62
     5
 10
-1.75
 20
94.875891553512361
 30
0.0
 40
3.5000000000001248
 50
59.999999999999858
 51
120.0000000000002
  0
ARC
  8
DETAIL
  6
CONTINUOUS
 62
     5
 10
1.75
 20
94.875891553512361
 30
0.0
 40
3.5000000000001248
 50
59.999999999999858
 51
120.0000000000002
  0
LINE
  8
DETAIL
  6
CONTINUOUS
 62
     5
 10
3.5
 20
119.2701478790997
 30
0.0
 11
-3.5
 21
119.2701478790997
 31
0.0
  0
LINE
  8
DETAIL
  6
CONTINUOUS
 62
     5
 10
-2.886751345948142
 20
119.2701478790997
 30
0.0
 11
-10.094997040328961
 21
131.7551956552071
 31
0.0
  0
LINE
  8
DETAIL
  6
CONTINUOUS
 62
     5
 10
0.0
 20
119.2701478790997
 30
0.0
 11
-7.9299335308678556
 21
133.0051956552071
 31
0.0
  0
LINE
  8
DETAIL
  6
CONTINUOUS
 62
     5
 10
-13.53615131351717
 20
141.31544969305119
 30
0.0
 11
-14.488779257680109
 21
140.76544969305101
 31
0.0
  0
LINE
  8
DETAIL
  6
CONTINUOUS
 62
     5
 10
-8.5361513135171663
 20
132.65519565520671
 30
0.0
 11
-13.53615131351717
 21
141.31544969305119
 31
0.0
  0
LINE
  8
DETAIL
  6
CONTINUOUS
 62
     5
 10
-9.4887792576801075
 20
132.10519565520659
 30
0.0
 11
-14.488779257680109
 21
140.76544969305101
 31
0.0
  0
LINE
  8
DETAIL
  6
CONTINUOUS
 62
     5
 10
-7.9299335308678556
 20
133.0051956552071
 30
0.0
 11
-10.094997040328961
 21
131.7551956552071
 31
0.0
  0
LINE
  8
DETAIL
  6
CONTINUOUS
 62
     5
 10
0.0
 20
119.2701478790997
 30
0.0
 11
7.9299335308678556
 21
133.0051956552071
 31
0.0
  0
LINE
  8
DETAIL
  6
CONTINUOUS
 62
     5
 10
2.886751345948142
 20
119.2701478790997
 30
0.0
 11
10.094997040328961
 21
131.7551956552071
 31
0.0
  0
LINE
  8
DETAIL
  6
CONTINUOUS
 62
     5
 10
13.53615131351671
 20
141.31544969305119
 30
0.0
 11
14.488779257679649
 21
140.76544969305101
 31
0.0
  0
LINE
  8
DETAIL
  6
CONTINUOUS
 62
     5
 10
8.5361513135167115
 20
132.65519565520671
 30
0.0
 11
13.53615131351671
 21
141.31544969305119
 31
0.0
  0
LINE
  8
DETAIL
  6
CONTINUOUS
 62
     5
 10
9.4887792576796528
 20
132.10519565520659
 30
0.0
 11
14.488779257679649
 21
140.76544969305101
 31
0.0
  0
LINE
  8
DETAIL
  6
CONTINUOUS
 62
     5
 10
7.9299335308678556
 20
133.0051956552071
 30
0.0
 11
10.094997040328961
 21
131.7551956552071
 31
0.0
  0
LINE
  8
DETAIL
  6
CONTINUOUS
 62
     5
 10
3.5
 20
119.2701478790997
 30
0.0
 11
3.5
 21
102.1949804692614
 31
0.0
  0
LINE
  8
DETAIL
  6
CONTINUOUS
 62
     5
 10
-3.5
 20
119.2701478790997
 30
0.0
 11
-3.5
 21
102.1949804692614
 31
0.0
  0
LINE
  8
DETAIL
  6
CONTINUOUS
 62
     5
 10
3.5
 20
97.906980466758
 30
0.0
 11
3.5
 21
91.499999999999659
 31
0.0
  0
LINE
  8
DETAIL
  6
CONTINUOUS
 62
     5
 10
-3.5
 20
97.906980466758
 30
0.0
 11
-3.5
 21
91.499999999999659
 31
0.0
  0
LINE
  8
OUTLINE
  6
CONTINUOUS
 62
     3
 10
-104.6651492376034
 20
0.0
 30
0.0
 11
104.7242863265967
 21
0.0
 31
0.0
  0
ARC
  8
OUTLINE
  6
CONTINUOUS
 62
     3
 10
104.7242863265967
 20
-0.3000000000001819
 30
0.0
 40
0.3000000000000275
 50
358.99999999999818
 51
90.0
  0
LINE
  8
OUTLINE
  6
CONTINUOUS
 62
     3
 10
104.4767894020415
 20
-31.668695864148962
 30
0.0
 11
105.02424063519651
 21
-0.3052357219999067
 31
0.0
  0
LINE
  8
OUTLINE
  6
CONTINUOUS
 62
     3
 10
-104.41761589633759
 20
-31.670782170474009
 30
0.0
 11
-104.96510354610341
 21
-0.3052357219999067
 31
0.0
  0
ARC
  8
OUTLINE
  6
CONTINUOUS
 62
     3
 10
-104.6651492375577
 20
-0.3000000000001819
 30
0.0
 40
0.300000000000065
 50
90.0
 51
180.99999999998869
  0
ARC
  8
OUTLINE
  6
CONTINUOUS
 62
     3
 10
0.0000000000002274
 20
2760.6999999999989
 30
0.0
 40
2800.0
 50
267.98134102836809
 51
272.0198731801982
  0
ARC
  8
OUTLINE
  6
CONTINUOUS
 62
     3
 10
-98.418529725399367
 20
-31.56606773185058
 30
0.0
 40
5.9999999999999956
 50
180.99999999998869
 51
267.98134102836809
  0
ARC
  8
OUTLINE
  6
CONTINUOUS
 62
     3
 10
98.477703231103305
 20
-31.56398142552553
 30
0.0
 40
6.0000000000002052
 50
272.0198731801982
 51
358.99999999999818
  0
LINE
  8
OUTLINE
  6
CONTINUOUS
 62
     3
 10
69.290453047065398
 20
59.699999999999818
 30
0.0
 11
69.811447054151586
 21
0.0
 31
0.0
  0
ARC
  8
OUTLINE
  6
CONTINUOUS
 62
     3
 10
28.332986652399999
 20
88.500000000000057
 30
0.0
 40
2.9999999999999289
 50
1.0000000000017619
 51
90.0
  0
LINE
  8
OUTLINE
  6
CONTINUOUS
 62
     3
 10
31.502757766340441
 20
59.699999999999591
 30
0.0
 11
31.332529737900131
 21
88.552357219299694
 31
0.0
  0
ARC
  8
OUTLINE
  6
CONTINUOUS
 62
     3
 10
-28.332986652399999
 20
88.500000000000057
 30
0.0
 40
2.9999999999999978
 50
90.0
 51
178.99999999999829
  0
LINE
  8
OUTLINE
  6
CONTINUOUS
 62
     3
 10
-31.502757766340441
 20
59.699999999999591
 30
0.0
 11
-31.3325297378999
 21
88.552357219299694
 31
0.0
  0
LINE
  8
OUTLINE
  6
CONTINUOUS
 62
     3
 10
-28.332986652399999
 20
91.499999999999659
 30
0.0
 11
28.332986652399999
 21
91.499999999999659
 31
0.0
  0
LINE
  8
OUTLINE
  6
CONTINUOUS
 62
     3
 10
69.290453047065398
 20
59.699999999999818
 30
0.0
 11
-69.19573330071853
 21
59.699999999999818
 31
0.0
  0
LINE
  8
OUTLINE
  6
CONTINUOUS
 62
     3
 10
-69.195734501442928
 20
59.699999999999818
 30
0.0
 11
-69.716728508481083
 21
0.0000000085633474
 31
0.0
  0
ENDSEC
  0
EOF
