  0
SECTION
  2
HEADER
  9
$ACADVER
  1
AC1009
  9
$DWGCODEPAGE
  3
dos932
  9
$INSBASE
 10
0.0
 20
0.0
 30
0.0
  9
$EXTMIN
 10
-325.32231999999999
 20
-359.03419500000001
 30
0.0
  9
$EXTMAX
 10
502.36931142857128
 20
361.07853800000009
 30
50.0
  9
$LIMMIN
 10
-2970.0
 20
-2100.0
  9
$LIMMAX
 10
2970.0
 20
2100.0
  9
$ORTHOMODE
 70
     1
  9
$REGENMODE
 70
     1
  9
$FILLMODE
 70
     1
  9
$QTEXTMODE
 70
     0
  9
$MIRRTEXT
 70
     0
  9
$LTSCALE
 40
20.0
  9
$ATTMODE
 70
     1
  9
$TEXTSIZE
 40
64.0
  9
$TRACEWID
 40
0.05
  9
$TEXTSTYLE
  7
STANDARD
  9
$CLAYER
  8
SIZE
  9
$CELTYPE
  6
CONTINUOUS
  9
$CECOLOR
 62
     7
  9
$DIMSCALE
 40
1.0
  9
$DIMASZ
 40
12.0
  9
$DIMEXO
 40
20.0
  9
$DIMDLI
 40
200.0
  9
$DIMRND
 40
0.0
  9
$DIMDLE
 40
0.0
  9
$DIMEXE
 40
20.0
  9
$DIMTP
 40
0.0
  9
$DIMTM
 40
0.0
  9
$DIMTXT
 40
64.0
  9
$DIMCEN
 40
0.09
  9
$DIMTSZ
 40
0.0
  9
$DIMTOL
 70
     0
  9
$DIMLIM
 70
     0
  9
$DIMTIH
 70
     0
  9
$DIMTOH
 70
     0
  9
$DIMSE1
 70
     0
  9
$DIMSE2
 70
     0
  9
$DIMTAD
 70
     1
  9
$DIMZIN
 70
     8
  9
$DIMBLK
  1

  9
$DIMASO
 70
     1
  9
$DIMSHO
 70
     0
  9
$DIMPOST
  1

  9
$DIMAPOST
  1

  9
$DIMALT
 70
     0
  9
$DIMALTD
 70
     2
  9
$DIMALTF
 40
25.399999999999999
  9
$DIMLFAC
 40
1.0
  9
$DIMTOFL
 70
     1
  9
$DIMTVP
 40
0.0
  9
$DIMTIX
 70
     1
  9
$DIMSOXD
 70
     0
  9
$DIMSAH
 70
     0
  9
$DIMBLK1
  1

  9
$DIMBLK2
  1

  9
$DIMSTYLE
  2
STANDARD
  9
$DIMCLRD
 70
     7
  9
$DIMCLRE
 70
     7
  9
$DIMCLRT
 70
     7
  9
$DIMTFAC
 40
1.0
  9
$DIMGAP
 40
25.0
  9
$LUNITS
 70
     2
  9
$LUPREC
 70
     4
  9
$SKETCHINC
 40
0.1
  9
$FILLETRAD
 40
3.0
  9
$AUNITS
 70
     1
  9
$AUPREC
 70
     3
  9
$MENU
  1
ACAD
  9
$ELEVATION
 40
0.0
  9
$PELEVATION
 40
0.0
  9
$THICKNESS
 40
50.0
  9
$LIMCHECK
 70
     0
  9
$CHAMFERA
 40
0.0
  9
$CHAMFERB
 40
0.0
  9
$SKPOLY
 70
     0
  9
$TDCREATE
 40
2453019.623009259
  9
$TDUPDATE
 40
2459356.668324838
  9
$TDINDWG
 40
1.6773631134
  9
$TDUSRTIMER
 40
1.6773631134
  9
$USRTIMER
 70
     1
  9
$ANGBASE
 50
0.0
  9
$ANGDIR
 70
     0
  9
$PDMODE
 70
     3
  9
$PDSIZE
 40
-2.0
  9
$PLINEWID
 40
0.0
  9
$SPLFRAME
 70
     0
  9
$SPLINETYPE
 70
     6
  9
$SPLINESEGS
 70
     8
  9
$SURFTAB1
 70
     6
  9
$SURFTAB2
 70
     6
  9
$SURFTYPE
 70
     6
  9
$SURFU
 70
     6
  9
$SURFV
 70
     6
  9
$UCSNAME
  2

  9
$UCSORG
 10
0.0
 20
0.0
 30
0.0
  9
$UCSXDIR
 10
1.0
 20
0.0
 30
0.0
  9
$UCSYDIR
 10
0.0
 20
1.0
 30
0.0
  9
$PUCSNAME
  2

  9
$PUCSORG
 10
0.0
 20
0.0
 30
0.0
  9
$PUCSXDIR
 10
1.0
 20
0.0
 30
0.0
  9
$PUCSYDIR
 10
0.0
 20
1.0
 30
0.0
  9
$USERI1
 70
     0
  9
$USERI2
 70
     0
  9
$USERI3
 70
     0
  9
$USERI4
 70
     0
  9
$USERI5
 70
     0
  9
$USERR1
 40
20.0
  9
$USERR2
 40
0.0
  9
$USERR3
 40
0.0
  9
$USERR4
 40
0.0
  9
$USERR5
 40
0.0
  9
$WORLDVIEW
 70
     1
  9
$SHADEDGE
 70
     3
  9
$SHADEDIF
 70
    70
  9
$TILEMODE
 70
     1
  9
$MAXACTVP
 70
    48
  9
$PINSBASE
 10
0.0
 20
0.0
 30
0.0
  9
$PLIMCHECK
 70
     0
  9
$PEXTMIN
 10
-100000000000000000000.0
 20
-100000000000000000000.0
 30
-100000000000000000000.0
  9
$PEXTMAX
 10
100000000000000000000.0
 20
100000000000000000000.0
 30
100000000000000000000.0
  9
$PLIMMIN
 10
0.0
 20
0.0
  9
$PLIMMAX
 10
12.0
 20
9.0
  9
$UNITMODE
 70
     0
  9
$VISRETAIN
 70
     0
  9
$PLINEGEN
 70
     0
  9
$PSLTSCALE
 70
     0
  9
$TREEDEPTH
 70
  3020
  9
$ATTDIA
 70
     0
  9
$ATTREQ
 70
     1
  9
$BLIPMODE
 70
     1
  9
$COORDS
 70
     1
  9
$DRAGMODE
 70
     2
  9
$OSMODE
 70
     0
  9
$HANDLING
 70
     0
  9
$HANDSEED
  5
248
  0
ENDSEC
  0
SECTION
  2
TABLES
  0
TABLE
  2
LTYPE
 70
     2
  0
LTYPE
  2
CONTINUOUS
 70
     0
  3
実線
 72
    65
 73
     0
 40
0.0
  0
LTYPE
  2
DASHDOT
 70
     0
  3
____ _ ____ _ ____ _ ____ _ ____ _ ____ _ ____
 72
    65
 73
     4
 40
5.5
 49
4.0
 49
-0.6
 49
0.3
 49
-0.6
  0
ENDTAB
  0
TABLE
  2
LAYER
 70
    12
  0
LAYER
  2
0
 70
     0
 62
     7
  6
CONTINUOUS
  0
LAYER
  2
SIZE
 70
     0
 62
    30
  6
CONTINUOUS
  0
LAYER
  2
BASIS
 70
     0
 62
     6
  6
DASHDOT
  0
LAYER
  2
OUTLINE
 70
     0
 62
     3
  6
CONTINUOUS
  0
LAYER
  2
DETAIL
 70
     0
 62
     5
  6
CONTINUOUS
  0
LAYER
  2
ARRANGE
 70
     0
 62
     1
  6
CONTINUOUS
  0
LAYER
  2
DEFPOINTS
 70
     0
 62
     7
  6
CONTINUOUS
  0
LAYER
  2
ETC
 70
     0
 62
    61
  6
CONTINUOUS
  0
LAYER
  2
FIX
 70
     0
 62
    11
  6
CONTINUOUS
  0
LAYER
  2
NOTE
 70
     0
 62
     4
  6
CONTINUOUS
  0
LAYER
  2
SERVICESPACE
 70
    64
 62
     2
  6
DASHDOT
  0
LAYER
  2
SYMBOLLINE
 70
    64
 62
    15
  6
CONTINUOUS
  0
ENDTAB
  0
TABLE
  2
STYLE
 70
     1
  0
STYLE
  2
STANDARD
 70
     0
 40
64.0
 41
0.9
 50
0.0
 71
     0
 42
64.0
  3
SIMPLEX.shx
  4
BIGFONT.shx
  0
ENDTAB
  0
TABLE
  2
APPID
 70
    18
  0
APPID
  2
ACAD
 70
     0
  0
APPID
  2
ACADANNOTATIVE
 70
     0
  0
APPID
  2
AUTOCAD_POSTSCRIPT_FIGURE
 70
     0
  0
APPID
  2
ACAD_EXEMPT_FROM_CAD_STANDARDS
 70
     0
  0
APPID
  2
ACAD_PSEXT
 70
     0
  0
APPID
  2
ACAUTHENVIRON
 70
     0
  0
APPID
  2
GENIUS_GENOENT_13
 70
     0
  0
APPID
  2
GENIUS_GENCFG_13
 70
     0
  0
APPID
  2
GENIUS_GENCFG0_13
 70
     0
  0
APPID
  2
GENIUS_GENCFG1_13
 70
     0
  0
APPID
  2
GENIUS_GENCFG2_13
 70
     0
  0
APPID
  2
GENIUS_GENCFG3_13
 70
     0
  0
APPID
  2
GENIUS_GENCFG4_13
 70
     0
  0
APPID
  2
GENIUS_GEVCFG0_13
 70
     0
  0
APPID
  2
CONTENTBLOCKICON
 70
     0
  0
APPID
  2
CONTENTBLOCKDESCRIPTION
 70
     0
  0
APPID
  2
ACAD_NAV_VCDISPLAY
 70
     0
  0
APPID
  2
ACAD_MLEADERVER
 70
     0
  0
ENDTAB
  0
TABLE
  2
DIMSTYLE
 70
     1
  0
DIMSTYLE
  2
STANDARD
 70
     0
  3

  4

  5

  6

  7

 40
1.0
 41
0.18
 42
0.0625
 43
0.38
 44
0.18
 45
0.0
 46
0.0
 47
0.0
 48
0.0
140
0.18
141
0.09
142
0.0
143
25.399999999999999
144
1.0
145
0.0
146
1.0
147
0.09
 71
     0
 72
     0
 73
     1
 74
     1
 75
     0
 76
     0
 77
     0
 78
     0
170
     0
171
     2
172
     0
173
     0
174
     0
175
     0
176
     7
177
     7
178
     7
  0
ENDTAB
  0
TABLE
  2
VIEW
 70
     1
  0
VIEW
  2
ALL
 70
     0
 40
4282.6198080000004
 10
0.0
 20
41.309904000000003
 41
5940.0
 11
0.0
 21
0.0
 31
1.0
 12
0.0
 22
0.0
 32
0.0
 42
50.0
 43
0.0
 44
0.0
 50
0.0
 71
     0
  0
ENDTAB
  0
TABLE
  2
UCS
 70
     0
  0
ENDTAB
  0
TABLE
  2
VPORT
 70
     1
  0
VPORT
  2
*ACTIVE
 70
     0
 10
0.0
 20
0.0
 11
1.0
 21
1.0
 12
138.57541648727241
 22
0.9613130000000183
 13
0.0
 23
0.0
 14
1.0
 24
1.0
 15
0.0
 25
0.0
 16
0.0
 26
0.0
 36
1.0
 17
0.0
 27
0.0
 37
0.0
 40
726.10729900000001
 41
1.767337807606264
 42
50.0
 43
0.0
 44
0.0
 50
0.0
 51
0.0
 71
     0
 72
  1000
 73
     1
 74
     0
 75
     0
 76
     0
 77
     0
 78
     0
  0
ENDTAB
  0
ENDSEC
  0
SECTION
  2
BLOCKS
  0
BLOCK
  8
0
  2
_ORIGIN
 70
     0
 10
0.0
 20
0.0
 30
0.0
  3
_ORIGIN
  1
_ORIGIN
  0
CIRCLE
  8
0
  6
CONTINUOUS
 62
     7
 10
0.0
 20
0.0
 30
0.0
 40
0.5
  0
LINE
  8
0
  6
CONTINUOUS
 62
     7
 10
0.0
 20
0.0
 30
0.0
 11
-1.0
 21
0.0
 31
0.0
  0
ENDBLK
  8
0
  0
ENDSEC
  0
SECTION
  2
ENTITIES
  0
TEXT
  8
ETC
  6
CONTINUOUS
 62
    61
 10
150.94074000000001
 20
321.07853799999998
 30
0.0
 40
40.0
  1
V-12PPQ7_4
 41
0.9
  0
TEXT
  8
ETC
  6
CONTINUOUS
 62
    61
 10
146.75474600000001
 20
260.38225899999998
 30
0.0
 40
40.0
  1
換気扇
 41
0.9
  0
TEXT
  8
ETC
  6
CONTINUOUS
 62
    61
 10
197.36224799999999
 20
178.51214899999999
 30
0.0
 40
40.0
  1
V-12PPQ7
 41
0.9
  0
CIRCLE
  8
ARRANGE
  6
CONTINUOUS
 62
     1
 10
0.0
 20
0.0
 30
0.0
 40
40.0
  0
POINT
  8
ARRANGE
  6
CONTINUOUS
 62
     1
 10
0.0
 20
0.0
 30
0.0
  0
LINE
  8
BASIS
  6
DASHDOT
 62
     6
 10
90.637467000000001
 20
0.0
 30
0.0
 11
-66.482685000000004
 21
0.0
 31
0.0
  0
LINE
  8
DETAIL
  6
CONTINUOUS
 62
     5
 10
69.700000000000003
 20
22.918517000000001
 30
0.0
 11
69.700000000000003
 21
-19.899999999999999
 31
0.0
  0
LINE
  8
DETAIL
  6
CONTINUOUS
 62
     5
 10
0.0
 20
104.49499299999999
 30
0.0
 11
0.0
 21
-104.49499
 31
0.0
  0
LINE
  8
DETAIL
  6
CONTINUOUS
 62
     5
 10
-38.416800000000002
 20
-18.561485000000001
 30
0.0
 11
-37.473154999999998
 21
-36.241418000000003
 31
0.0
  0
LINE
  8
DETAIL
  6
CONTINUOUS
 62
     5
 10
-37.748444999999997
 20
-31.856097999999999
 30
0.0
 11
-38.654589999999999
 21
-11.943390000000001
 31
0.0
  0
LINE
  8
DETAIL
  6
CONTINUOUS
 62
     5
 10
59.700000000000003
 20
34.677329999999998
 30
0.0
 11
59.700000000000003
 21
-69.478566999999998
 31
0.0
  0
ARC
  8
DETAIL
  6
CONTINUOUS
 62
     5
 10
64.700000000000003
 20
-19.899999999999999
 30
0.0
 40
5.0
 50
270.0
 51
0.0
  0
ARC
  8
DETAIL
  6
CONTINUOUS
 62
     5
 10
-24.561050000000002
 20
-98.038998000000007
 30
0.0
 40
6.0
 50
188.93262200000001
 51
269.0
  0
LINE
  8
DETAIL
  6
CONTINUOUS
 62
     5
 10
-0.305235
 20
-104.794945
 30
0.0
 11
-15.952272000000001
 21
-104.19018
 31
0.0
  0
LINE
  8
DETAIL
  6
CONTINUOUS
 62
     5
 10
-15.952272000000001
 20
-104.19018
 30
0.0
 11
-24.665765
 21
-104.038085
 31
0.0
  0
ARC
  8
DETAIL
  6
CONTINUOUS
 62
     5
 10
-0.3
 20
-104.49499
 30
0.0
 40
0.3
 50
269.0
 51
0.0
  0
LINE
  8
DETAIL
  6
CONTINUOUS
 62
     5
 10
-0.30592
 20
-104.74702000000001
 30
0.0
 11
-0.305235
 21
-104.794945
 31
0.0
  0
LINE
  8
DETAIL
  6
CONTINUOUS
 62
     5
 10
-34.254268000000003
 20
-71.443348
 30
0.0
 11
-36.277137000000003
 21
-51.735062999999997
 31
0.0
  0
LINE
  8
DETAIL
  6
CONTINUOUS
 62
     5
 10
-34.241872000000001
 20
-71.564103000000003
 30
0.0
 11
-36.083838
 21
-53.891685000000003
 31
0.0
  0
LINE
  8
DETAIL
  6
CONTINUOUS
 62
     5
 10
-32.676088
 20
-84.00132499999998
 30
0.0
 11
-33.713679999999997
 21
-76.0
 31
0.0
  0
LINE
  8
DETAIL
  6
CONTINUOUS
 62
     5
 10
-30.48828
 20
-98.970635000000001
 30
0.0
 11
-31.622527000000002
 21
-91.491827999999998
 31
0.0
  0
LINE
  8
DETAIL
  6
CONTINUOUS
 62
     5
 10
-31.622527000000002
 20
-91.491827999999998
 30
0.0
 11
-32.676088
 21
-84.00132499999998
 31
0.0
  0
LINE
  8
DETAIL
  6
CONTINUOUS
 62
     5
 10
-33.984830000000002
 20
-73.750438000000003
 30
0.0
 11
-34.251638
 21
-71.500012999999996
 31
0.0
  0
LINE
  8
DETAIL
  6
CONTINUOUS
 62
     5
 10
-33.710760000000001
 20
-76.0
 30
0.0
 11
-33.984830000000002
 21
-73.750438000000003
 31
0.0
  0
LINE
  8
DETAIL
  6
CONTINUOUS
 62
     5
 10
-34.249870000000001
 20
-71.500012999999996
 30
0.0
 11
-34.251437000000003
 21
-71.500012999999996
 31
0.0
  0
LINE
  8
DETAIL
  6
CONTINUOUS
 62
     5
 10
-37.473154999999998
 20
-36.241418000000003
 30
0.0
 11
-36.083838
 21
-53.891685000000003
 31
0.0
  0
LINE
  8
DETAIL
  6
CONTINUOUS
 62
     5
 10
59.700000000000003
 20
-69.478566999999998
 30
0.0
 11
0.0
 21
-70.0
 31
0.0
  0
LINE
  8
DETAIL
  6
CONTINUOUS
 62
     5
 10
59.700000000000003
 20
-24.899999999999999
 30
0.0
 11
64.700000000000003
 21
-24.899999999999999
 31
0.0
  0
LINE
  8
DETAIL
  6
CONTINUOUS
 62
     5
 10
65.001302999999993
 20
75.10271299999998
 30
0.0
 11
71.609440000000021
 21
85.527618000000004
 31
0.0
  0
ARC
  8
DETAIL
  6
CONTINUOUS
 62
     5
 10
68.693832
 20
84.70540699999998
 30
0.0
 40
10.288173
 50
248.966725
 51
291.033275
  0
LINE
  8
DETAIL
  6
CONTINUOUS
 62
     5
 10
111.13685
 20
24.765326999999999
 30
0.0
 11
59.700000000000003
 21
24.765326999999999
 31
0.0
  0
LINE
  8
DETAIL
  6
CONTINUOUS
 62
     5
 10
111.13685
 20
23.263652
 30
0.0
 11
59.700000000000003
 21
23.263652
 31
0.0
  0
ARC
  8
DETAIL
  6
CONTINUOUS
 62
     5
 10
64.700000000000003
 20
22.918517000000001
 30
0.0
 40
5.0
 50
21.676289000000001
 51
90.0
  0
LINE
  8
DETAIL
  6
CONTINUOUS
 62
     5
 10
65.700000000000003
 20
67.602712999999994
 30
0.0
 11
65.700000000000003
 21
27.918517000000001
 31
0.0
  0
LINE
  8
DETAIL
  6
CONTINUOUS
 62
     5
 10
-36.438682999999997
 20
69.883454999999998
 30
0.0
 11
-37.726709999999997
 21
52.226641999999998
 31
0.0
  0
LINE
  8
DETAIL
  6
CONTINUOUS
 62
     5
 10
-37.977032999999999
 20
47.836590000000001
 30
0.0
 11
-36.619807000000002
 21
67.723460000000003
 31
0.0
  0
LINE
  8
DETAIL
  6
CONTINUOUS
 62
     5
 10
59.700000000000003
 20
42.835295000000002
 30
0.0
 11
59.700000000000003
 21
74.136364999999998
 31
0.0
  0
LINE
  8
DETAIL
  6
CONTINUOUS
 62
     5
 10
-38.994843000000003
 20
7.9870320000000001
 30
0.0
 11
-38.768928000000002
 21
27.919049999999999
 31
0.0
  0
LINE
  8
DETAIL
  6
CONTINUOUS
 62
     5
 10
-38.654589999999999
 20
-11.943390000000001
 30
0.0
 11
-38.994843000000003
 21
7.9870320000000001
 31
0.0
  0
LINE
  8
DETAIL
  6
CONTINUOUS
 62
     5
 10
-38.278905000000002
 20
7.9917170000000004
 30
0.0
 11
-38.278711999999999
 21
7.9870349999999988
 31
0.0
  0
LINE
  8
DETAIL
  6
CONTINUOUS
 62
     5
 10
-38.119025000000001
 20
7.9870320000000001
 30
0.0
 11
-38.119227000000002
 21
7.9810499999999998
 31
0.0
  0
LINE
  8
DETAIL
  6
CONTINUOUS
 62
     5
 10
-38.768928000000002
 20
27.919049999999999
 30
0.0
 11
-37.977032999999999
 21
47.836590000000001
 31
0.0
  0
LINE
  8
DETAIL
  6
CONTINUOUS
 62
     5
 10
27.699999999999999
 20
40.636634999999998
 30
0.0
 11
27.699999999999999
 21
47.585327999999997
 31
0.0
  0
LINE
  8
DETAIL
  6
CONTINUOUS
 62
     5
 10
45.403910000000003
 20
43.730136999999999
 30
0.0
 11
28.981339999999999
 21
48.544936999999997
 31
0.0
  0
LINE
  8
DETAIL
  6
CONTINUOUS
 62
     5
 10
45.403910000000003
 20
43.730136999999999
 30
0.0
 11
57.700000000000003
 21
43.730136999999999
 31
0.0
  0
LINE
  8
DETAIL
  6
CONTINUOUS
 62
     5
 10
45.403910000000003
 20
35.069882
 30
0.0
 11
57.700000000000003
 21
35.069882
 31
0.0
  0
LINE
  8
DETAIL
  6
CONTINUOUS
 62
     5
 10
45.403910000000003
 20
34.69726
 30
0.0
 11
57.700000000000003
 21
34.69726
 31
0.0
  0
LINE
  8
DETAIL
  6
CONTINUOUS
 62
     5
 10
45.403910000000003
 20
34.69726
 30
0.0
 11
28.418659999999999
 21
39.677028
 31
0.0
  0
LINE
  8
DETAIL
  6
CONTINUOUS
 62
     5
 10
45.403910000000003
 20
35.069882
 30
0.0
 11
28.418659999999999
 21
40.04965
 31
0.0
  0
ARC
  8
DETAIL
  6
CONTINUOUS
 62
     5
 10
28.699999999999999
 20
40.636634999999998
 30
0.0
 40
1.0
 50
180.0
 51
253.65982199999999
  0
ARC
  8
DETAIL
  6
CONTINUOUS
 62
     5
 10
28.699999999999999
 20
41.009256999999998
 30
0.0
 40
1.0
 50
180.0
 51
253.65982199999999
  0
LINE
  8
DETAIL
  6
CONTINUOUS
 62
     5
 10
45.403910000000003
 20
35.069882
 30
0.0
 11
45.403910000000003
 21
43.730136999999999
 31
0.0
  0
LINE
  8
DETAIL
  6
CONTINUOUS
 62
     5
 10
65.700000000000003
 20
32.263652
 30
0.0
 11
65.700000000000003
 21
27.918517000000001
 31
0.0
  0
LINE
  8
DETAIL
  6
CONTINUOUS
 62
     5
 10
59.700000000000003
 20
27.918517000000001
 30
0.0
 11
64.700000000000003
 21
27.918517000000001
 31
0.0
  0
LINE
  8
DETAIL
  6
CONTINUOUS
 62
     5
 10
59.700000000000003
 20
34.677329999999998
 30
0.0
 11
57.700000000000003
 21
34.688720000000004
 31
0.0
  0
LINE
  8
DETAIL
  6
CONTINUOUS
 62
     5
 10
59.700000000000003
 20
43.765326999999999
 30
0.0
 11
57.700000000000003
 21
43.776547000000001
 31
0.0
  0
LINE
  8
DETAIL
  6
CONTINUOUS
 62
     5
 10
59.700000000000003
 20
42.835295000000002
 30
0.0
 11
57.700000000000003
 21
42.490794999999999
 31
0.0
  0
LINE
  8
DETAIL
  6
CONTINUOUS
 62
     5
 10
57.700000000000003
 20
34.69726
 30
0.0
 11
57.700000000000003
 21
43.730136999999999
 31
0.0
  0
LINE
  8
DETAIL
  6
CONTINUOUS
 62
     5
 10
57.700000000000003
 20
34.688720000000004
 30
0.0
 11
57.700000000000003
 21
42.490794999999999
 31
0.0
  0
ARC
  8
DETAIL
  6
CONTINUOUS
 62
     5
 10
28.699999999999999
 20
47.585327999999997
 30
0.0
 40
1.0
 50
73.659822000000005
 51
180.0
  0
LINE
  8
DETAIL
  6
CONTINUOUS
 62
     5
 10
-27.518840000000001
 20
103.988285
 30
0.0
 11
-0.305235
 21
104.79494800000001
 31
0.0
  0
LINE
  8
DETAIL
  6
CONTINUOUS
 62
     5
 10
-36.619807000000002
 20
67.723460000000003
 30
0.0
 11
-34.698312999999999
 21
87.563991999999999
 31
0.0
  0
LINE
  8
DETAIL
  6
CONTINUOUS
 62
     5
 10
-34.711475
 20
87.443610000000007
 30
0.0
 11
-36.438682999999997
 21
69.883454999999998
 31
0.0
  0
LINE
  8
DETAIL
  6
CONTINUOUS
 62
     5
 10
-33.833374999999997
 20
95.001047
 30
0.0
 11
-33.365957000000002
 21
98.747945000000001
 31
0.0
  0
LINE
  8
DETAIL
  6
CONTINUOUS
 62
     5
 10
-34.280625000000001
 20
91.2517
 30
0.0
 11
-33.833374999999997
 21
95.001047
 31
0.0
  0
LINE
  8
DETAIL
  6
CONTINUOUS
 62
     5
 10
-34.707695000000001
 20
87.500011999999998
 30
0.0
 11
-34.705927000000003
 21
87.500011999999998
 31
0.0
  0
LINE
  8
DETAIL
  6
CONTINUOUS
 62
     5
 10
-34.696984999999998
 20
87.499574999999979
 30
0.0
 11
-34.698315000000001
 21
87.563991999999999
 31
0.0
  0
LINE
  8
DETAIL
  6
CONTINUOUS
 62
     5
 10
-34.707695000000001
 20
87.500011999999998
 30
0.0
 11
-34.280625000000001
 21
91.2517
 31
0.0
  0
LINE
  8
DETAIL
  6
CONTINUOUS
 62
     5
 10
-27.28368
 20
103.942435
 30
0.0
 11
-26.514118
 21
104.00582300000001
 31
0.0
  0
ARC
  8
DETAIL
  6
CONTINUOUS
 62
     5
 10
-27.414124999999999
 20
97.989199999999997
 30
0.0
 40
6.0
 50
91.0
 51
172.735074
  0
LINE
  8
DETAIL
  6
CONTINUOUS
 62
     5
 10
-23.618475
 20
104.05636800000001
 30
0.0
 11
-23.630541999999998
 21
103.997075
 31
0.0
  0
LINE
  8
DETAIL
  6
CONTINUOUS
 62
     5
 10
-24.37453
 20
103.99191
 30
0.0
 11
-23.618475
 21
104.05636800000001
 31
0.0
  0
LINE
  8
DETAIL
  6
CONTINUOUS
 62
     5
 10
59.700000000000003
 20
74.136352000000002
 30
0.0
 11
0.0
 21
74.136352000000002
 31
0.0
  0
LINE
  8
DETAIL
  6
CONTINUOUS
 62
     5
 10
59.700000000000003
 20
69.478570000000005
 30
0.0
 11
0.0
 21
70.0
 31
0.0
  0
LINE
  8
DETAIL
  6
CONTINUOUS
 62
     5
 10
58.979444999999998
 20
81.602711999999983
 30
0.0
 11
0.0
 21
81.602711999999983
 31
0.0
  0
ARC
  8
DETAIL
  6
CONTINUOUS
 62
     5
 10
-0.3
 20
104.49498800000001
 30
0.0
 40
0.3
 50
0.000934
 51
90.999984000000012
  0
LINE
  8
DETAIL
  6
CONTINUOUS
 62
     5
 10
-0.305235
 20
104.79494800000001
 30
0.0
 11
-0.30592
 21
104.747023
 31
0.0
  0
ARC
  8
DETAIL
  6
CONTINUOUS
 62
     5
 10
62.0
 20
77.028762
 30
0.0
 40
5.0
 50
147.63021599999999
 51
180.0
  0
LINE
  8
DETAIL
  6
CONTINUOUS
 62
     5
 10
65.001302999999993
 20
75.10271299999998
 30
0.0
 11
63.622795000000004
 21
77.277429999999981
 31
0.0
  0
LINE
  8
DETAIL
  6
CONTINUOUS
 62
     5
 10
59.700000000000003
 20
71.088885000000019
 30
0.0
 11
67.315321999999995
 21
83.102711999999983
 31
0.0
  0
LINE
  8
DETAIL
  6
CONTINUOUS
 62
     5
 10
57.0
 20
74.739814999999979
 30
0.0
 11
57.0
 21
77.028762
 31
0.0
  0
LINE
  8
DETAIL
  6
CONTINUOUS
 62
     5
 10
57.600000000000001
 20
74.68052299999998
 30
0.0
 11
57.0
 21
74.68052299999998
 31
0.0
  0
ARC
  8
DETAIL
  6
CONTINUOUS
 62
     5
 10
55.700000000000003
 20
67.602712999999994
 30
0.0
 40
10.0
 50
0.0
 51
37.17548
  0
LINE
  8
DETAIL
  6
CONTINUOUS
 62
     5
 10
57.776949999999999
 20
79.705669999999998
 30
0.0
 11
59.930264999999999
 21
83.102711999999983
 31
0.0
  0
LINE
  8
DETAIL
  6
CONTINUOUS
 62
     5
 10
68.266143
 20
81.602711999999983
 30
0.0
 11
67.315321999999995
 21
83.102711999999983
 31
0.0
  0
LINE
  8
DETAIL
  6
CONTINUOUS
 62
     5
 10
66.586003000000005
 20
77.60271299999998
 30
0.0
 11
63.828985000000003
 21
77.60271299999998
 31
0.0
  0
LINE
  8
DETAIL
  6
CONTINUOUS
 62
     5
 10
69.121522999999996
 20
81.602711999999983
 30
0.0
 11
66.364502999999999
 21
81.602711999999983
 31
0.0
  0
ARC
  8
DETAIL
  6
CONTINUOUS
 62
     5
 10
63.622795000000004
 20
73.500020000000006
 30
0.0
 40
10.288173
 50
68.966724999999997
 51
111.033275
  0
LINE
  8
DETAIL
  6
CONTINUOUS
 62
     5
 10
145.30776800000001
 20
71.066563000000002
 30
0.0
 11
153.96802
 21
66.066563000000002
 31
0.0
  0
LINE
  8
DETAIL
  6
CONTINUOUS
 62
     5
 10
144.757768
 20
70.113932000000005
 30
0.0
 11
153.41802000000001
 21
65.113932000000005
 31
0.0
  0
LINE
  8
DETAIL
  6
CONTINUOUS
 62
     5
 10
164.34719000000001
 20
23.263652
 30
0.0
 11
112.59578999999999
 21
23.263652
 31
0.0
  0
LINE
  8
DETAIL
  6
CONTINUOUS
 62
     5
 10
164.34719000000001
 20
24.765326999999999
 30
0.0
 11
112.59578999999999
 21
24.765326999999999
 31
0.0
  0
LINE
  8
DETAIL
  6
CONTINUOUS
 62
     5
 10
111.13685
 20
23.263652
 30
0.0
 11
111.13685
 21
24.765326999999999
 31
0.0
  0
LINE
  8
DETAIL
  6
CONTINUOUS
 62
     5
 10
112.59578999999999
 20
23.263652
 30
0.0
 11
112.59578999999999
 21
24.765326999999999
 31
0.0
  0
ARC
  8
DETAIL
  6
CONTINUOUS
 62
     5
 10
64.700000000000003
 20
22.918517000000001
 30
0.0
 40
5.0
 50
0.0
 51
3.9581089999999999
  0
LINE
  8
DETAIL
  6
CONTINUOUS
 62
     5
 10
153.96802
 20
66.066563000000002
 30
0.0
 11
153.41802000000001
 21
65.113932000000005
 31
0.0
  0
LINE
  8
DETAIL
  6
CONTINUOUS
 62
     5
 10
164.34719000000001
 20
23.263652
 30
0.0
 11
164.34719000000001
 21
24.765326999999999
 31
0.0
  0
LINE
  8
DETAIL
  6
CONTINUOUS
 62
     5
 10
172.26715300000001
 20
23.563987000000001
 30
0.0
 11
172.26715300000001
 21
24.464991999999999
 31
0.0
  0
LINE
  8
DETAIL
  6
CONTINUOUS
 62
     5
 10
172.26715300000001
 20
23.563987000000001
 30
0.0
 11
164.34719000000001
 21
23.563987000000001
 31
0.0
  0
LINE
  8
DETAIL
  6
CONTINUOUS
 62
     5
 10
172.26715300000001
 20
24.464991999999999
 30
0.0
 11
164.34719000000001
 21
24.464991999999999
 31
0.0
  0
LINE
  8
DETAIL
  6
CONTINUOUS
 62
     5
 10
131.922718
 20
76.102711999999983
 30
0.0
 11
110.14270500000001
 21
76.102711999999983
 31
0.0
  0
LINE
  8
DETAIL
  6
CONTINUOUS
 62
     5
 10
131.922718
 20
83.102711999999983
 30
0.0
 11
110.14270500000001
 21
83.102711999999983
 31
0.0
  0
LINE
  8
DETAIL
  6
CONTINUOUS
 62
     5
 10
103.48693299999999
 20
76.102711999999983
 30
0.0
 11
77.85257
 21
76.102711999999983
 31
0.0
  0
LINE
  8
DETAIL
  6
CONTINUOUS
 62
     5
 10
103.48693299999999
 20
83.102711999999983
 30
0.0
 11
77.85257
 21
83.102711999999983
 31
0.0
  0
LINE
  8
DETAIL
  6
CONTINUOUS
 62
     5
 10
72.386359999999982
 20
75.10271299999998
 30
0.0
 11
76.877691999999982
 21
82.188176999999982
 31
0.0
  0
LINE
  8
DETAIL
  6
CONTINUOUS
 62
     5
 10
77.85257
 20
83.102711999999983
 30
0.0
 11
77.85257
 21
76.102711999999983
 31
0.0
  0
ARC
  8
DETAIL
  6
CONTINUOUS
 62
     5
 10
73.57264499999998
 20
82.799459999999982
 30
0.0
 40
3.361103
 50
349.52130799999998
 51
125.739124
  0
LINE
  8
DETAIL
  6
CONTINUOUS
 62
     5
 10
77.85257
 20
77.60271299999998
 30
0.0
 11
73.97105999999998
 21
77.60271299999998
 31
0.0
  0
LINE
  8
DETAIL
  6
CONTINUOUS
 62
     5
 10
77.85257
 20
81.602711999999983
 30
0.0
 11
76.50658
 21
81.602711999999983
 31
0.0
  0
ARC
  8
DETAIL
  6
CONTINUOUS
 62
     5
 10
107.111615
 20
77.852711999999983
 30
0.0
 40
3.5
 50
330.0
 51
30.0
  0
ARC
  8
DETAIL
  6
CONTINUOUS
 62
     5
 10
100.455843
 20
77.852711999999983
 30
0.0
 40
3.5
 50
330.0
 51
30.0
  0
ARC
  8
DETAIL
  6
CONTINUOUS
 62
     5
 10
113.173793
 20
81.35271299999998
 30
0.0
 40
3.5
 50
150.0
 51
210.0
  0
ARC
  8
DETAIL
  6
CONTINUOUS
 62
     5
 10
106.518023
 20
81.35271299999998
 30
0.0
 40
3.5
 50
150.0
 51
210.0
  0
LINE
  8
DETAIL
  6
CONTINUOUS
 62
     5
 10
145.657768
 20
87.532646999999983
 30
0.0
 11
144.407768
 21
89.697710000000001
 31
0.0
  0
LINE
  8
DETAIL
  6
CONTINUOUS
 62
     5
 10
131.922718
 20
82.489464999999981
 30
0.0
 11
144.407768
 21
89.697710000000001
 31
0.0
  0
LINE
  8
DETAIL
  6
CONTINUOUS
 62
     5
 10
131.922718
 20
79.602711999999983
 30
0.0
 11
145.657768
 21
71.672780000000003
 31
0.0
  0
LINE
  8
DETAIL
  6
CONTINUOUS
 62
     5
 10
131.922718
 20
76.715962000000005
 30
0.0
 11
144.407768
 21
69.507715000000005
 31
0.0
  0
LINE
  8
DETAIL
  6
CONTINUOUS
 62
     5
 10
131.922718
 20
79.602711999999983
 30
0.0
 11
145.657768
 21
87.532646999999983
 31
0.0
  0
LINE
  8
DETAIL
  6
CONTINUOUS
 62
     5
 10
131.922718
 20
76.102711999999983
 30
0.0
 11
131.922718
 21
83.102711999999983
 31
0.0
  0
LINE
  8
DETAIL
  6
CONTINUOUS
 62
     5
 10
145.657768
 20
71.672780000000003
 30
0.0
 11
144.407768
 21
69.507715000000005
 31
0.0
  0
LINE
  8
DETAIL
  6
CONTINUOUS
 62
     5
 10
145.30776800000001
 20
88.138864999999981
 30
0.0
 11
153.96802
 21
93.138864999999996
 31
0.0
  0
LINE
  8
DETAIL
  6
CONTINUOUS
 62
     5
 10
144.757768
 20
89.091492000000002
 30
0.0
 11
153.41802000000001
 21
94.091492000000002
 31
0.0
  0
LINE
  8
DETAIL
  6
CONTINUOUS
 62
     5
 10
153.96802
 20
93.138864999999996
 30
0.0
 11
153.41802000000001
 21
94.091492000000002
 31
0.0
  0
LINE
  8
SIZE
  6
CONTINUOUS
 62
    30
 10
0.0
 20
-106.074625
 30
0.0
 11
0.0
 21
-359.03419500000001
 31
0.0
  0
LINE
  8
SIZE
  6
CONTINUOUS
 62
    30
 10
-38.858488000000001
 20
-20.0
 30
0.0
 11
-38.858488000000001
 21
-359.03419500000001
 31
0.0
  0
LINE
  8
SIZE
  6
CONTINUOUS
 62
    30
 10
12.0
 20
-339.03419500000001
 30
0.0
 11
24.0
 21
-339.03419500000001
 31
0.0
  0
LINE
  8
SIZE
  6
CONTINUOUS
 62
    30
 10
-50.858488000000001
 20
-339.03419500000001
 30
0.0
 11
-203.372773
 21
-339.03419500000001
 31
0.0
  0
LINE
  8
SIZE
  6
CONTINUOUS
 62
    30
 10
0.0
 20
-339.03419500000001
 30
0.0
 11
-38.858488000000001
 21
-339.03419500000001
 31
0.0
  0
CIRCLE
  8
SIZE
  6
CONTINUOUS
 62
    30
 10
0.0
 20
-339.03419500000001
 30
0.0
 40
6.0
  0
LINE
  8
SIZE
  6
CONTINUOUS
 62
    30
 10
0.0
 20
-339.03419500000001
 30
0.0
 11
12.0
 21
-339.03419500000001
 31
0.0
  0
CIRCLE
  8
SIZE
  6
CONTINUOUS
 62
    30
 10
-38.858488000000001
 20
-339.03419500000001
 30
0.0
 40
6.0
  0
LINE
  8
SIZE
  6
CONTINUOUS
 62
    30
 10
-38.858488000000001
 20
-339.03419500000001
 30
0.0
 11
-50.858488000000001
 21
-339.03419500000001
 31
0.0
  0
TEXT
  8
SIZE
  6
CONTINUOUS
 62
    30
 10
-178.3727738571429
 20
-314.03419500000001
 30
0.0
 40
64.0
  1
39
 41
0.9
 72
     1
 11
-133.11563100000001
 21
-314.03419500000001
 31
0.0
  0
POINT
  8
DEFPOINTS
  6
CONTINUOUS
 62
    30
 10
0.0
 20
-86.074624999999983
 30
0.0
  0
POINT
  8
DEFPOINTS
  6
CONTINUOUS
 62
    30
 10
-38.858488000000001
 20
0.0
 30
0.0
  0
POINT
  8
DEFPOINTS
  6
CONTINUOUS
 62
    30
 10
-38.858488000000001
 20
-339.03419500000001
 30
0.0
  0
LINE
  8
SIZE
  6
CONTINUOUS
 62
    30
 10
59.700000000000003
 20
-89.478566999999998
 30
0.0
 11
59.700000000000003
 21
-239.03419500000001
 31
0.0
  0
LINE
  8
SIZE
  6
CONTINUOUS
 62
    30
 10
0.0
 20
-124.49499
 30
0.0
 11
0.0
 21
-239.03419500000001
 31
0.0
  0
LINE
  8
SIZE
  6
CONTINUOUS
 62
    30
 10
-12.0
 20
-219.03419500000001
 30
0.0
 11
-24.0
 21
-219.03419500000001
 31
0.0
  0
LINE
  8
SIZE
  6
CONTINUOUS
 62
    30
 10
71.700000000000003
 20
-219.03419500000001
 30
0.0
 11
226.957143
 21
-219.03419500000001
 31
0.0
  0
LINE
  8
SIZE
  6
CONTINUOUS
 62
    30
 10
0.0
 20
-219.03419500000001
 30
0.0
 11
59.700000000000003
 21
-219.03419500000001
 31
0.0
  0
CIRCLE
  8
SIZE
  6
CONTINUOUS
 62
    30
 10
0.0
 20
-219.03419500000001
 30
0.0
 40
6.0
  0
LINE
  8
SIZE
  6
CONTINUOUS
 62
    30
 10
0.0
 20
-219.03419500000001
 30
0.0
 11
-12.0
 21
-219.03419500000001
 31
0.0
  0
CIRCLE
  8
SIZE
  6
CONTINUOUS
 62
    30
 10
59.700000000000003
 20
-219.03419500000001
 30
0.0
 40
6.0
  0
LINE
  8
SIZE
  6
CONTINUOUS
 62
    30
 10
59.700000000000003
 20
-219.03419500000001
 30
0.0
 11
71.700000000000003
 21
-219.03419500000001
 31
0.0
  0
TEXT
  8
SIZE
  6
CONTINUOUS
 62
    30
 10
108.69999957142861
 20
-194.03419500000001
 30
0.0
 40
64.0
  1
60
 41
0.9
 72
     1
 11
155.32857100000001
 21
-194.03419500000001
 31
0.0
  0
POINT
  8
DEFPOINTS
  6
CONTINUOUS
 62
    30
 10
59.700000000000003
 20
-69.478566999999998
 30
0.0
  0
POINT
  8
DEFPOINTS
  6
CONTINUOUS
 62
    30
 10
0.0
 20
-104.49499
 30
0.0
  0
POINT
  8
DEFPOINTS
  6
CONTINUOUS
 62
    30
 10
0.0
 20
-219.03419500000001
 30
0.0
  0
LINE
  8
SIZE
  6
CONTINUOUS
 62
    30
 10
0.0
 20
-126.074625
 30
0.0
 11
0.0
 21
-359.03419500000001
 31
0.0
  0
LINE
  8
SIZE
  6
CONTINUOUS
 62
    30
 10
69.700000000000003
 20
-29.471568000000001
 30
0.0
 11
69.700000000000003
 21
-359.03419500000001
 31
0.0
  0
LINE
  8
SIZE
  6
CONTINUOUS
 62
    30
 10
-12.0
 20
-339.03419500000001
 30
0.0
 11
-24.0
 21
-339.03419500000001
 31
0.0
  0
LINE
  8
SIZE
  6
CONTINUOUS
 62
    30
 10
81.700000000000003
 20
-339.03419500000001
 30
0.0
 11
240.65447
 21
-339.03419500000001
 31
0.0
  0
LINE
  8
SIZE
  6
CONTINUOUS
 62
    30
 10
0.0
 20
-339.03419500000001
 30
0.0
 11
69.700000000000003
 21
-339.03419500000001
 31
0.0
  0
CIRCLE
  8
SIZE
  6
CONTINUOUS
 62
    30
 10
0.0
 20
-339.03419500000001
 30
0.0
 40
6.0
  0
LINE
  8
SIZE
  6
CONTINUOUS
 62
    30
 10
0.0
 20
-339.03419500000001
 30
0.0
 11
-12.0
 21
-339.03419500000001
 31
0.0
  0
CIRCLE
  8
SIZE
  6
CONTINUOUS
 62
    30
 10
69.700000000000003
 20
-339.03419500000001
 30
0.0
 40
6.0
  0
LINE
  8
SIZE
  6
CONTINUOUS
 62
    30
 10
69.700000000000003
 20
-339.03419500000001
 30
0.0
 11
81.700000000000003
 21
-339.03419500000001
 31
0.0
  0
TEXT
  8
SIZE
  6
CONTINUOUS
 62
    30
 10
122.39732657142859
 20
-314.03419500000001
 30
0.0
 40
64.0
  1
70
 41
0.9
 72
     1
 11
169.02589800000001
 21
-314.03419500000001
 31
0.0
  0
POINT
  8
DEFPOINTS
  6
CONTINUOUS
 62
    30
 10
0.0
 20
-106.074625
 30
0.0
  0
POINT
  8
DEFPOINTS
  6
CONTINUOUS
 62
    30
 10
69.700000000000003
 20
-9.4715679999999995
 30
0.0
  0
POINT
  8
DEFPOINTS
  6
CONTINUOUS
 62
    30
 10
69.700000000000003
 20
-339.03419500000001
 30
0.0
  0
LINE
  8
SIZE
  6
CONTINUOUS
 62
    30
 10
65.644349000000005
 20
-70.0
 30
0.0
 11
381.080556
 21
-70.0
 31
0.0
  0
LINE
  8
SIZE
  6
CONTINUOUS
 62
    30
 10
62.857632000000002
 20
69.824591999999996
 30
0.0
 11
381.080556
 21
69.824591999999996
 31
0.0
  0
LINE
  8
SIZE
  6
CONTINUOUS
 62
    30
 10
361.080556
 20
57.824592000000003
 30
0.0
 11
361.080556
 21
-58.0
 31
0.0
  0
LINE
  8
SIZE
  6
CONTINUOUS
 62
    30
 10
361.080556
 20
-70.0
 30
0.0
 11
361.080556
 21
-326.74285700000001
 31
0.0
  0
CIRCLE
  8
SIZE
  6
CONTINUOUS
 62
    30
 10
361.080556
 20
69.824591999999996
 30
0.0
 40
6.0
  0
LINE
  8
SIZE
  6
CONTINUOUS
 62
    30
 10
361.080556
 20
69.824591999999996
 30
0.0
 11
361.080556
 21
57.824592000000003
 31
0.0
  0
CIRCLE
  8
SIZE
  6
CONTINUOUS
 62
    30
 10
361.080556
 20
-70.0
 30
0.0
 40
6.0
  0
LINE
  8
SIZE
  6
CONTINUOUS
 62
    30
 10
361.080556
 20
-70.0
 30
0.0
 11
361.080556
 21
-58.0
 31
0.0
  0
TEXT
  8
SIZE
  6
CONTINUOUS
 62
    30
 10
336.080556
 20
-313.26285757142858
 30
0.0
 40
64.0
  1
φ140
 50
90.0
 41
0.9
 72
     1
 11
336.080556
 21
-204.37142900000001
 31
0.0
  0
POINT
  8
DEFPOINTS
  6
CONTINUOUS
 62
    30
 10
45.644348999999998
 20
-70.0
 30
0.0
  0
POINT
  8
DEFPOINTS
  6
CONTINUOUS
 62
    30
 10
42.857632000000002
 20
69.824591999999996
 30
0.0
  0
POINT
  8
DEFPOINTS
  6
CONTINUOUS
 62
    30
 10
361.080556
 20
69.824591999999996
 30
0.0
  0
LINE
  8
OUTLINE
  6
CONTINUOUS
 62
     3
 10
69.700000000000003
 20
22.918517000000001
 30
0.0
 11
69.700000000000003
 21
-19.899999999999999
 31
0.0
  0
LINE
  8
OUTLINE
  6
CONTINUOUS
 62
     3
 10
0.0
 20
104.49499299999999
 30
0.0
 11
0.0
 21
-104.49499
 31
0.0
  0
LINE
  8
OUTLINE
  6
CONTINUOUS
 62
     3
 10
-38.416800000000002
 20
-18.561485000000001
 30
0.0
 11
-37.473154999999998
 21
-36.241418000000003
 31
0.0
  0
LINE
  8
OUTLINE
  6
CONTINUOUS
 62
     3
 10
-37.748444999999997
 20
-31.856097999999999
 30
0.0
 11
-38.654589999999999
 21
-11.943390000000001
 31
0.0
  0
LINE
  8
OUTLINE
  6
CONTINUOUS
 62
     3
 10
59.700000000000003
 20
34.677329999999998
 30
0.0
 11
59.700000000000003
 21
-69.478566999999998
 31
0.0
  0
ARC
  8
OUTLINE
  6
CONTINUOUS
 62
     3
 10
64.700000000000003
 20
-19.899999999999999
 30
0.0
 40
5.0
 50
270.0
 51
0.0
  0
ARC
  8
OUTLINE
  6
CONTINUOUS
 62
     3
 10
-24.561050000000002
 20
-98.038998000000007
 30
0.0
 40
6.0
 50
188.93262200000001
 51
269.0
  0
LINE
  8
OUTLINE
  6
CONTINUOUS
 62
     3
 10
-0.305235
 20
-104.794945
 30
0.0
 11
-15.952272000000001
 21
-104.19018
 31
0.0
  0
LINE
  8
OUTLINE
  6
CONTINUOUS
 62
     3
 10
-15.952272000000001
 20
-104.19018
 30
0.0
 11
-24.665765
 21
-104.038085
 31
0.0
  0
ARC
  8
OUTLINE
  6
CONTINUOUS
 62
     3
 10
-0.3
 20
-104.49499
 30
0.0
 40
0.3
 50
269.0
 51
0.0
  0
LINE
  8
OUTLINE
  6
CONTINUOUS
 62
     3
 10
-0.30592
 20
-104.74702000000001
 30
0.0
 11
-0.305235
 21
-104.794945
 31
0.0
  0
LINE
  8
OUTLINE
  6
CONTINUOUS
 62
     3
 10
-34.254266999999999
 20
-71.443348
 30
0.0
 11
-36.277137000000003
 21
-51.735062999999997
 31
0.0
  0
LINE
  8
OUTLINE
  6
CONTINUOUS
 62
     3
 10
-34.241872000000001
 20
-71.564103000000003
 30
0.0
 11
-36.083838
 21
-53.891685000000003
 31
0.0
  0
LINE
  8
OUTLINE
  6
CONTINUOUS
 62
     3
 10
-32.676088
 20
-84.00132499999998
 30
0.0
 11
-33.713679999999997
 21
-76.0
 31
0.0
  0
LINE
  8
OUTLINE
  6
CONTINUOUS
 62
     3
 10
-30.48828
 20
-98.970635000000001
 30
0.0
 11
-31.622527000000002
 21
-91.491827999999998
 31
0.0
  0
LINE
  8
OUTLINE
  6
CONTINUOUS
 62
     3
 10
-31.622527000000002
 20
-91.491827999999998
 30
0.0
 11
-32.676088
 21
-84.00132499999998
 31
0.0
  0
LINE
  8
OUTLINE
  6
CONTINUOUS
 62
     3
 10
-33.984830000000002
 20
-73.750438000000003
 30
0.0
 11
-34.251638
 21
-71.500012999999996
 31
0.0
  0
LINE
  8
OUTLINE
  6
CONTINUOUS
 62
     3
 10
-33.710760000000001
 20
-76.0
 30
0.0
 11
-33.984830000000002
 21
-73.750438000000003
 31
0.0
  0
LINE
  8
OUTLINE
  6
CONTINUOUS
 62
     3
 10
-34.249870000000001
 20
-71.500012999999996
 30
0.0
 11
-34.251437000000003
 21
-71.500012999999996
 31
0.0
  0
LINE
  8
OUTLINE
  6
CONTINUOUS
 62
     3
 10
-37.473154999999998
 20
-36.241418000000003
 30
0.0
 11
-36.083838
 21
-53.891685000000003
 31
0.0
  0
LINE
  8
OUTLINE
  6
CONTINUOUS
 62
     3
 10
59.700000000000003
 20
-69.478566999999998
 30
0.0
 11
0.0
 21
-70.0
 31
0.0
  0
LINE
  8
OUTLINE
  6
CONTINUOUS
 62
     3
 10
59.700000000000003
 20
-24.899999999999999
 30
0.0
 11
64.700000000000003
 21
-24.899999999999999
 31
0.0
  0
ARC
  8
OUTLINE
  6
CONTINUOUS
 62
     3
 10
64.700000000000003
 20
22.918517000000001
 30
0.0
 40
5.0
 50
21.676289000000001
 51
90.0
  0
LINE
  8
OUTLINE
  6
CONTINUOUS
 62
     3
 10
-36.438682
 20
69.883454999999998
 30
0.0
 11
-37.726709999999997
 21
52.226641999999998
 31
0.0
  0
LINE
  8
OUTLINE
  6
CONTINUOUS
 62
     3
 10
-37.977032000000001
 20
47.836590000000001
 30
0.0
 11
-36.619807000000002
 21
67.723460000000003
 31
0.0
  0
LINE
  8
OUTLINE
  6
CONTINUOUS
 62
     3
 10
59.700000000000003
 20
43.765326999999999
 30
0.0
 11
59.700000000000003
 21
69.478570000000005
 31
0.0
  0
LINE
  8
OUTLINE
  6
CONTINUOUS
 62
     3
 10
-38.994843000000003
 20
7.9870320000000001
 30
0.0
 11
-38.768928000000002
 21
27.919049999999999
 31
0.0
  0
LINE
  8
OUTLINE
  6
CONTINUOUS
 62
     3
 10
-38.654589999999999
 20
-11.943390000000001
 30
0.0
 11
-38.994843000000003
 21
7.9870320000000001
 31
0.0
  0
LINE
  8
OUTLINE
  6
CONTINUOUS
 62
     3
 10
-38.278905000000002
 20
7.9917170000000004
 30
0.0
 11
-38.278711999999999
 21
7.9870349999999988
 31
0.0
  0
LINE
  8
OUTLINE
  6
CONTINUOUS
 62
     3
 10
-38.119025000000001
 20
7.9870320000000001
 30
0.0
 11
-38.119227000000002
 21
7.9810499999999998
 31
0.0
  0
LINE
  8
OUTLINE
  6
CONTINUOUS
 62
     3
 10
-38.768928000000002
 20
27.919049999999999
 30
0.0
 11
-37.977032000000001
 21
47.836590000000001
 31
0.0
  0
LINE
  8
OUTLINE
  6
CONTINUOUS
 62
     3
 10
59.700000000000003
 20
27.918517000000001
 30
0.0
 11
64.700000000000003
 21
27.918517000000001
 31
0.0
  0
LINE
  8
OUTLINE
  6
CONTINUOUS
 62
     3
 10
59.700000000000003
 20
34.677329999999998
 30
0.0
 11
57.700000000000003
 21
34.688720000000004
 31
0.0
  0
LINE
  8
OUTLINE
  6
CONTINUOUS
 62
     3
 10
59.700000000000003
 20
43.765326999999999
 30
0.0
 11
57.700000000000003
 21
43.776547000000001
 31
0.0
  0
LINE
  8
OUTLINE
  6
CONTINUOUS
 62
     3
 10
57.700000000000003
 20
34.69726
 30
0.0
 11
57.700000000000003
 21
43.730136999999999
 31
0.0
  0
LINE
  8
OUTLINE
  6
CONTINUOUS
 62
     3
 10
57.700000000000003
 20
34.688720000000004
 30
0.0
 11
57.700000000000003
 21
42.490794999999999
 31
0.0
  0
LINE
  8
OUTLINE
  6
CONTINUOUS
 62
     3
 10
-27.518840000000001
 20
103.988285
 30
0.0
 11
-0.305235
 21
104.79494800000001
 31
0.0
  0
LINE
  8
OUTLINE
  6
CONTINUOUS
 62
     3
 10
-36.619807000000002
 20
67.723460000000003
 30
0.0
 11
-34.698312000000001
 21
87.563991999999999
 31
0.0
  0
LINE
  8
OUTLINE
  6
CONTINUOUS
 62
     3
 10
-34.711475
 20
87.443610000000007
 30
0.0
 11
-36.438682
 21
69.883454999999998
 31
0.0
  0
LINE
  8
OUTLINE
  6
CONTINUOUS
 62
     3
 10
-33.833374999999997
 20
95.001047
 30
0.0
 11
-33.365957000000002
 21
98.747945000000001
 31
0.0
  0
LINE
  8
OUTLINE
  6
CONTINUOUS
 62
     3
 10
-34.280625000000001
 20
91.2517
 30
0.0
 11
-33.833374999999997
 21
95.001047
 31
0.0
  0
LINE
  8
OUTLINE
  6
CONTINUOUS
 62
     3
 10
-34.707695000000001
 20
87.500011999999998
 30
0.0
 11
-34.705927000000003
 21
87.500011999999998
 31
0.0
  0
LINE
  8
OUTLINE
  6
CONTINUOUS
 62
     3
 10
-34.696984999999998
 20
87.499574999999979
 30
0.0
 11
-34.698315000000001
 21
87.563991999999999
 31
0.0
  0
LINE
  8
OUTLINE
  6
CONTINUOUS
 62
     3
 10
-34.707695000000001
 20
87.500011999999998
 30
0.0
 11
-34.280625000000001
 21
91.2517
 31
0.0
  0
LINE
  8
OUTLINE
  6
CONTINUOUS
 62
     3
 10
-27.28368
 20
103.942435
 30
0.0
 11
-26.514116999999999
 21
104.00582300000001
 31
0.0
  0
ARC
  8
OUTLINE
  6
CONTINUOUS
 62
     3
 10
-27.414124999999999
 20
97.989199999999997
 30
0.0
 40
6.0
 50
91.0
 51
172.735074
  0
LINE
  8
OUTLINE
  6
CONTINUOUS
 62
     3
 10
-23.618475
 20
104.05636800000001
 30
0.0
 11
-23.630541999999998
 21
103.997075
 31
0.0
  0
LINE
  8
OUTLINE
  6
CONTINUOUS
 62
     3
 10
-24.37453
 20
103.99191
 30
0.0
 11
-23.618475
 21
104.05636800000001
 31
0.0
  0
LINE
  8
OUTLINE
  6
CONTINUOUS
 62
     3
 10
59.700000000000003
 20
69.478570000000005
 30
0.0
 11
0.0
 21
70.0
 31
0.0
  0
ARC
  8
OUTLINE
  6
CONTINUOUS
 62
     3
 10
-0.3
 20
104.49498800000001
 30
0.0
 40
0.3
 50
0.000934
 51
90.999984000000012
  0
LINE
  8
OUTLINE
  6
CONTINUOUS
 62
     3
 10
-0.305235
 20
104.79494800000001
 30
0.0
 11
-0.30592
 21
104.747023
 31
0.0
  0
ARC
  8
OUTLINE
  6
CONTINUOUS
 62
     3
 10
64.700000000000003
 20
22.918517000000001
 30
0.0
 40
5.0
 50
0.0
 51
21.676289000000001
  0
LINE
  8
SIZE
  6
CONTINUOUS
 62
    30
 10
-20.305235
 20
104.79494800000001
 30
0.0
 11
-256.32231999999999
 21
104.79494800000001
 31
0.0
  0
LINE
  8
SIZE
  6
CONTINUOUS
 62
    30
 10
-20.0
 20
-105.574625
 30
0.0
 11
-256.32231999999999
 21
-105.574625
 31
0.0
  0
LINE
  8
SIZE
  6
CONTINUOUS
 62
    30
 10
-236.32231999999999
 20
92.794946999999993
 30
0.0
 11
-236.32231999999999
 21
-93.574624999999997
 31
0.0
  0
CIRCLE
  8
SIZE
  6
CONTINUOUS
 62
    30
 10
-236.32231999999999
 20
104.79494800000001
 30
0.0
 40
6.0
  0
LINE
  8
SIZE
  6
CONTINUOUS
 62
    30
 10
-236.32231999999999
 20
104.79494800000001
 30
0.0
 11
-236.32231999999999
 21
92.794948000000005
 31
0.0
  0
CIRCLE
  8
SIZE
  6
CONTINUOUS
 62
    30
 10
-236.32231999999999
 20
-105.574625
 30
0.0
 40
6.0
  0
LINE
  8
SIZE
  6
CONTINUOUS
 62
    30
 10
-236.32231999999999
 20
-105.574625
 30
0.0
 11
-236.32231999999999
 21
-93.574624999999997
 31
0.0
  0
TEXT
  8
SIZE
  6
CONTINUOUS
 62
    30
 10
-261.32231999999999
 20
-105.4412675714286
 30
0.0
 40
64.0
  1
□210
 50
90.0
 41
0.9
 72
     1
 11
-261.32231999999999
 21
-0.3898390000000019
 31
0.0
  0
POINT
  8
DEFPOINTS
  6
CONTINUOUS
 62
    30
 10
-0.305235
 20
104.79494800000001
 30
0.0
  0
POINT
  8
DEFPOINTS
  6
CONTINUOUS
 62
    30
 10
0.0
 20
-105.574625
 30
0.0
  0
POINT
  8
DEFPOINTS
  6
CONTINUOUS
 62
    30
 10
-236.32231999999999
 20
-105.574625
 30
0.0
  0
LINE
  8
NOTE
  6
CONTINUOUS
 62
     4
 10
8.5970680000000002
 20
6.0
 30
0.0
 11
-8.6854449999999979
 21
6.0
 31
0.0
  0
CIRCLE
  8
FIX
  6
CONTINUOUS
 62
    11
 10
0.0
 20
6.0
 30
0.0
 40
2.0
  0
LINE
  8
NOTE
  6
CONTINUOUS
 62
     4
 10
0.0
 20
6.0
 30
0.0
 11
-45.387737000000001
 21
151.328891
 31
0.0
  0
LINE
  8
NOTE
  6
CONTINUOUS
 62
     4
 10
-45.387737000000001
 20
151.328891
 30
0.0
 11
-314.03318100000001
 21
151.328891
 31
0.0
  0
LINE
  8
NOTE
  6
CONTINUOUS
 62
     4
 10
0.0
 20
6.0
 30
0.0
 11
-9.9383409999999994
 21
18.388950000000001
 31
0.0
  0
LINE
  8
NOTE
  6
CONTINUOUS
 62
     4
 10
0.0
 20
6.0
 30
0.0
 11
1.1212169999999999
 21
21.842966000000001
 31
0.0
  0
TEXT
  8
NOTE
  6
CONTINUOUS
 62
     4
 10
-302.808809
 20
161.247411
 30
0.0
 40
40.0
  1
2-φ4×10
 41
0.9
  0
LINE
  8
SIZE
  6
CONTINUOUS
 62
    30
 10
-86.482685000000004
 20
0.0
 30
0.0
 11
-136.32231999999999
 21
0.0
 31
0.0
  0
LINE
  8
SIZE
  6
CONTINUOUS
 62
    30
 10
-28.685445000000001
 20
6.0
 30
0.0
 11
-136.32231999999999
 21
6.0
 31
0.0
  0
LINE
  8
SIZE
  6
CONTINUOUS
 62
    30
 10
-116.32232
 20
18.0
 30
0.0
 11
-116.32232
 21
30.0
 31
0.0
  0
LINE
  8
SIZE
  6
CONTINUOUS
 62
    30
 10
-116.32232
 20
-12.0
 30
0.0
 11
-116.32232
 21
-109.657143
 31
0.0
  0
LINE
  8
SIZE
  6
CONTINUOUS
 62
    30
 10
-116.32232
 20
6.0
 30
0.0
 11
-116.32232
 21
0.0
 31
0.0
  0
CIRCLE
  8
SIZE
  6
CONTINUOUS
 62
    30
 10
-116.32232
 20
6.0
 30
0.0
 40
6.0
  0
LINE
  8
SIZE
  6
CONTINUOUS
 62
    30
 10
-116.32232
 20
6.0
 30
0.0
 11
-116.32232
 21
18.0
 31
0.0
  0
CIRCLE
  8
SIZE
  6
CONTINUOUS
 62
    30
 10
-116.32232
 20
0.0
 30
0.0
 40
6.0
  0
LINE
  8
SIZE
  6
CONTINUOUS
 62
    30
 10
-116.32232
 20
0.0
 30
0.0
 11
-116.32232
 21
-12.0
 31
0.0
  0
TEXT
  8
SIZE
  6
CONTINUOUS
 62
    30
 10
-141.32231999999999
 20
-84.657142428571419
 30
0.0
 40
64.0
  1
6
 50
90.0
 41
0.9
 72
     1
 11
-141.32231999999999
 21
-66.828570999999997
 31
0.0
  0
POINT
  8
DEFPOINTS
  6
CONTINUOUS
 62
    30
 10
-66.482685000000004
 20
0.0
 30
0.0
  0
POINT
  8
DEFPOINTS
  6
CONTINUOUS
 62
    30
 10
-8.6854449999999979
 20
6.0
 30
0.0
  0
POINT
  8
DEFPOINTS
  6
CONTINUOUS
 62
    30
 10
-116.32232
 20
6.0
 30
0.0
  0
ENDSEC
  0
EOF
