  0
SECTION
  2
HEADER
  9
$ACADVER
  1
AC1009
  9
$DWGCODEPAGE
  3
dos932
  9
$INSBASE
 10
0.0
 20
0.0
 30
0.0
  9
$EXTMIN
 10
-369.79978783033039
 20
-241.92808864397011
 30
-0.0015258207003583
  9
$EXTMAX
 10
934.46961595265748
 20
587.03614083006505
 30
0.0000000349246037
  9
$LIMMIN
 10
-2970.0
 20
-2100.0
  9
$LIMMAX
 10
2970.0
 20
2100.0
  9
$ORTHOMODE
 70
     1
  9
$REGENMODE
 70
     1
  9
$FILLMODE
 70
     1
  9
$QTEXTMODE
 70
     0
  9
$MIRRTEXT
 70
     0
  9
$LTSCALE
 40
20.0
  9
$ATTMODE
 70
     1
  9
$TEXTSIZE
 40
64.0
  9
$TRACEWID
 40
0.05
  9
$TEXTSTYLE
  7
STANDARD
  9
$CLAYER
  8
SIZE
  9
$CELTYPE
  6
CONTINUOUS
  9
$CECOLOR
 62
     7
  9
$DIMSCALE
 40
1.0
  9
$DIMASZ
 40
12.0
  9
$DIMEXO
 40
20.0
  9
$DIMDLI
 40
200.0
  9
$DIMRND
 40
0.0
  9
$DIMDLE
 40
0.0
  9
$DIMEXE
 40
20.0
  9
$DIMTP
 40
0.0
  9
$DIMTM
 40
0.0
  9
$DIMTXT
 40
64.0
  9
$DIMCEN
 40
0.09
  9
$DIMTSZ
 40
0.0
  9
$DIMTOL
 70
     0
  9
$DIMLIM
 70
     0
  9
$DIMTIH
 70
     0
  9
$DIMTOH
 70
     0
  9
$DIMSE1
 70
     0
  9
$DIMSE2
 70
     0
  9
$DIMTAD
 70
     1
  9
$DIMZIN
 70
     8
  9
$DIMBLK
  1

  9
$DIMASO
 70
     1
  9
$DIMSHO
 70
     0
  9
$DIMPOST
  1

  9
$DIMAPOST
  1

  9
$DIMALT
 70
     0
  9
$DIMALTD
 70
     2
  9
$DIMALTF
 40
25.399999999999999
  9
$DIMLFAC
 40
1.0
  9
$DIMTOFL
 70
     1
  9
$DIMTVP
 40
0.0
  9
$DIMTIX
 70
     1
  9
$DIMSOXD
 70
     0
  9
$DIMSAH
 70
     0
  9
$DIMBLK1
  1

  9
$DIMBLK2
  1

  9
$DIMSTYLE
  2
STANDARD
  9
$DIMCLRD
 70
     7
  9
$DIMCLRE
 70
     7
  9
$DIMCLRT
 70
     7
  9
$DIMTFAC
 40
1.0
  9
$DIMGAP
 40
25.0
  9
$LUNITS
 70
     2
  9
$LUPREC
 70
     4
  9
$SKETCHINC
 40
0.1
  9
$FILLETRAD
 40
3.0
  9
$AUNITS
 70
     1
  9
$AUPREC
 70
     3
  9
$MENU
  1
ACAD
  9
$ELEVATION
 40
0.0
  9
$PELEVATION
 40
0.0
  9
$THICKNESS
 40
0.0
  9
$LIMCHECK
 70
     0
  9
$CHAMFERA
 40
0.0
  9
$CHAMFERB
 40
0.0
  9
$SKPOLY
 70
     0
  9
$TDCREATE
 40
2453019.623009259
  9
$TDUPDATE
 40
2459356.668494375
  9
$TDINDWG
 40
1.8708493171
  9
$TDUSRTIMER
 40
1.8708493171
  9
$USRTIMER
 70
     1
  9
$ANGBASE
 50
0.0
  9
$ANGDIR
 70
     0
  9
$PDMODE
 70
     3
  9
$PDSIZE
 40
-2.0
  9
$PLINEWID
 40
0.0
  9
$SPLFRAME
 70
     0
  9
$SPLINETYPE
 70
     6
  9
$SPLINESEGS
 70
     8
  9
$SURFTAB1
 70
     6
  9
$SURFTAB2
 70
     6
  9
$SURFTYPE
 70
     6
  9
$SURFU
 70
     6
  9
$SURFV
 70
     6
  9
$UCSNAME
  2

  9
$UCSORG
 10
0.0
 20
0.0
 30
0.0
  9
$UCSXDIR
 10
1.0
 20
0.0
 30
0.0
  9
$UCSYDIR
 10
0.0
 20
1.0
 30
0.0
  9
$PUCSNAME
  2

  9
$PUCSORG
 10
0.0
 20
0.0
 30
0.0
  9
$PUCSXDIR
 10
1.0
 20
0.0
 30
0.0
  9
$PUCSYDIR
 10
0.0
 20
1.0
 30
0.0
  9
$USERI1
 70
     0
  9
$USERI2
 70
     0
  9
$USERI3
 70
     0
  9
$USERI4
 70
     0
  9
$USERI5
 70
     0
  9
$USERR1
 40
20.0
  9
$USERR2
 40
0.0
  9
$USERR3
 40
0.0
  9
$USERR4
 40
0.0
  9
$USERR5
 40
0.0
  9
$WORLDVIEW
 70
     1
  9
$SHADEDGE
 70
     3
  9
$SHADEDIF
 70
    70
  9
$TILEMODE
 70
     1
  9
$MAXACTVP
 70
    48
  9
$PINSBASE
 10
0.0
 20
0.0
 30
0.0
  9
$PLIMCHECK
 70
     0
  9
$PEXTMIN
 10
-100000000000000000000.0
 20
-100000000000000000000.0
 30
-100000000000000000000.0
  9
$PEXTMAX
 10
100000000000000000000.0
 20
100000000000000000000.0
 30
100000000000000000000.0
  9
$PLIMMIN
 10
0.0
 20
0.0
  9
$PLIMMAX
 10
12.0
 20
9.0
  9
$UNITMODE
 70
     0
  9
$VISRETAIN
 70
     0
  9
$PLINEGEN
 70
     0
  9
$PSLTSCALE
 70
     0
  9
$TREEDEPTH
 70
  3020
  9
$ATTDIA
 70
     0
  9
$ATTREQ
 70
     1
  9
$BLIPMODE
 70
     1
  9
$COORDS
 70
     1
  9
$DRAGMODE
 70
     2
  9
$OSMODE
 70
     0
  9
$HANDLING
 70
     0
  9
$HANDSEED
  5
247
  0
ENDSEC
  0
SECTION
  2
TABLES
  0
TABLE
  2
LTYPE
 70
     2
  0
LTYPE
  2
CONTINUOUS
 70
     0
  3
実線
 72
    65
 73
     0
 40
0.0
  0
LTYPE
  2
DASHDOT
 70
     0
  3
____ _ ____ _ ____ _ ____ _ ____ _ ____ _ ____
 72
    65
 73
     4
 40
5.5
 49
4.0
 49
-0.6
 49
0.3
 49
-0.6
  0
ENDTAB
  0
TABLE
  2
LAYER
 70
    12
  0
LAYER
  2
SIZE
 70
     0
 62
    30
  6
CONTINUOUS
  0
LAYER
  2
BASIS
 70
     0
 62
     6
  6
DASHDOT
  0
LAYER
  2
OUTLINE
 70
     0
 62
     3
  6
CONTINUOUS
  0
LAYER
  2
DETAIL
 70
     0
 62
     5
  6
CONTINUOUS
  0
LAYER
  2
ARRANGE
 70
     0
 62
     1
  6
CONTINUOUS
  0
LAYER
  2
ETC
 70
     0
 62
    61
  6
CONTINUOUS
  0
LAYER
  2
FIX
 70
     0
 62
    11
  6
CONTINUOUS
  0
LAYER
  2
NOTE
 70
     0
 62
     4
  6
CONTINUOUS
  0
LAYER
  2
0
 70
    64
 62
     7
  6
CONTINUOUS
  0
LAYER
  2
DEFPOINTS
 70
    64
 62
     7
  6
CONTINUOUS
  0
LAYER
  2
SERVICESPACE
 70
    64
 62
     2
  6
DASHDOT
  0
LAYER
  2
SYMBOLLINE
 70
    64
 62
    15
  6
CONTINUOUS
  0
ENDTAB
  0
TABLE
  2
STYLE
 70
     1
  0
STYLE
  2
STANDARD
 70
     0
 40
64.0
 41
0.9
 50
0.0
 71
     0
 42
64.0
  3
SIMPLEX.shx
  4
BIGFONT.shx
  0
ENDTAB
  0
TABLE
  2
APPID
 70
    20
  0
APPID
  2
ACAD
 70
     0
  0
APPID
  2
ACADANNOTATIVE
 70
     0
  0
APPID
  2
AUTOCAD_POSTSCRIPT_FIGURE
 70
     0
  0
APPID
  2
ACAD_EXEMPT_FROM_CAD_STANDARDS
 70
     0
  0
APPID
  2
ACAD_PSEXT
 70
     0
  0
APPID
  2
ACAUTHENVIRON
 70
     0
  0
APPID
  2
GENIUS_GENOENT_13
 70
     0
  0
APPID
  2
GENIUS_GENCFG_13
 70
     0
  0
APPID
  2
GENIUS_GENCFG0_13
 70
     0
  0
APPID
  2
GENIUS_GENCFG1_13
 70
     0
  0
APPID
  2
GENIUS_GENCFG2_13
 70
     0
  0
APPID
  2
GENIUS_GENCFG3_13
 70
     0
  0
APPID
  2
GENIUS_GENCFG4_13
 70
     0
  0
APPID
  2
GENIUS_GEVCFG0_13
 70
     0
  0
APPID
  2
CONTENTBLOCKICON
 70
     0
  0
APPID
  2
CONTENTBLOCKDESCRIPTION
 70
     0
  0
APPID
  2
ACAD_NAV_VCDISPLAY
 70
     0
  0
APPID
  2
ACAD_MLEADERVER
 70
     0
  0
APPID
  2
ACDBDYNAMICBLOCKTRUENAME
 70
     0
  0
APPID
  2
ACDBDYNAMICBLOCKGUID
 70
     0
  0
ENDTAB
  0
TABLE
  2
DIMSTYLE
 70
     1
  0
DIMSTYLE
  2
STANDARD
 70
     0
  3

  4

  5

  6

  7

 40
1.0
 41
12.0
 42
20.0
 43
200.0
 44
20.0
 45
0.0
 46
0.0
 47
0.0
 48
0.0
140
64.0
141
0.09
142
0.0
143
25.399999999999999
144
1.0
145
0.0
146
1.0
147
25.0
 71
     0
 72
     0
 73
     0
 74
     0
 75
     0
 76
     0
 77
     1
 78
     8
170
     0
171
     2
172
     1
173
     0
174
     1
175
     0
176
     7
177
     7
178
     7
  0
ENDTAB
  0
TABLE
  2
VIEW
 70
     1
  0
VIEW
  2
ALL
 70
     0
 40
4282.6198079999986
 10
0.0
 20
41.309904000000003
 41
5940.0
 11
0.0
 21
0.0
 31
1.0
 12
0.0
 22
0.0
 32
0.0
 42
50.0
 43
0.0
 44
0.0
 50
0.0
 71
     0
  0
ENDTAB
  0
TABLE
  2
UCS
 70
     0
  0
ENDTAB
  0
TABLE
  2
VPORT
 70
     1
  0
VPORT
  2
*ACTIVE
 70
     0
 10
0.0
 20
0.0
 11
1.0
 21
1.0
 12
282.33491406116349
 22
172.55402609304741
 13
0.0
 23
0.0
 14
1.0
 24
1.0
 15
0.0
 25
0.0
 16
0.0
 26
0.0
 36
1.0
 17
0.0
 27
0.0
 37
0.0
 40
824.03386022917994
 41
2.1579545454545448
 42
50.0
 43
0.0
 44
0.0
 50
0.0
 51
0.0
 71
     0
 72
  1000
 73
     1
 74
     3
 75
     0
 76
     0
 77
     0
 78
     0
  0
ENDTAB
  0
ENDSEC
  0
SECTION
  2
BLOCKS
  0
ENDSEC
  0
SECTION
  2
ENTITIES
  0
CIRCLE
  8
ARRANGE
  6
CONTINUOUS
 62
     1
 10
0.0
 20
0.0
 30
0.0
 40
40.0
  0
POINT
  8
ARRANGE
  6
CONTINUOUS
 62
     1
 10
0.0
 20
0.0
 30
0.0
  0
LINE
  8
BASIS
  6
DASHDOT
 62
     6
 10
0.0
 20
-109.2854010143142
 30
0.0
 11
0.0
 21
148.54463825702939
 31
0.0
  0
LINE
  8
BASIS
  6
DASHDOT
 62
     6
 10
125.4561247050906
 20
0.0
 30
0.0
 11
-125.4561247050906
 21
0.0
 31
0.0
  0
LINE
  8
SIZE
  6
CONTINUOUS
 62
    30
 10
-69.716727307831434
 20
20.0
 30
0.0
 11
-69.716727307831434
 21
351.83034249488759
 31
0.0
  0
LINE
  8
SIZE
  6
CONTINUOUS
 62
    30
 10
69.811447054151586
 20
20.0
 30
0.0
 11
69.811447054151586
 21
351.83034249488759
 31
0.0
  0
LINE
  8
SIZE
  6
CONTINUOUS
 62
    30
 10
-57.716727307831427
 20
331.83034249488759
 30
0.0
 11
57.811447054151593
 21
331.83034249488759
 31
0.0
  0
LINE
  8
SIZE
  6
CONTINUOUS
 62
    30
 10
69.811447054151586
 20
331.83034249488759
 30
0.0
 11
355.83978705072741
 21
331.83034249488759
 31
0.0
  0
CIRCLE
  8
SIZE
  6
CONTINUOUS
 62
    30
 10
-69.716727307831434
 20
331.83034249488759
 30
0.0
 40
6.0
  0
LINE
  8
SIZE
  6
CONTINUOUS
 62
    30
 10
-69.716727307831434
 20
331.83034249488759
 30
0.0
 11
-57.716727307831427
 21
331.83034249488759
 31
0.0
  0
CIRCLE
  8
SIZE
  6
CONTINUOUS
 62
    30
 10
69.811447054151586
 20
331.83034249488759
 30
0.0
 40
6.0
  0
LINE
  8
SIZE
  6
CONTINUOUS
 62
    30
 10
69.811447054151586
 20
331.83034249488759
 30
0.0
 11
57.811447054151593
 21
331.83034249488759
 31
0.0
  0
TEXT
  8
SIZE
  6
CONTINUOUS
 62
    30
 10
123.2055013364416
 20
367.49700916155439
 30
0.0
 40
64.0
  1
φ140
 41
0.9
 72
     1
 11
232.09692990787011
 21
367.49700916155439
 31
0.0
  0
LINE
  8
NOTE
  6
CONTINUOUS
 62
     4
 10
0.0000000000002274
 20
69.699999999999889
 30
0.0
 11
0.0000000000002274
 21
49.699999999999847
 31
0.0
  0
LINE
  8
SIZE
  6
CONTINUOUS
 62
    30
 10
-95.0
 20
28.0
 30
0.0
 11
-94.999999999999773
 21
494.11494321694039
 31
0.0
  0
LINE
  8
SIZE
  6
CONTINUOUS
 62
    30
 10
95.0
 20
28.0
 30
0.0
 11
95.0
 21
494.11494321694039
 31
0.0
  0
LINE
  8
SIZE
  6
CONTINUOUS
 62
    30
 10
-83.0
 20
474.11494321694039
 30
0.0
 11
83.0
 21
474.11494321694039
 31
0.0
  0
CIRCLE
  8
SIZE
  6
CONTINUOUS
 62
    30
 10
-94.999999999999773
 20
474.11494321694039
 30
0.0
 40
6.0
  0
LINE
  8
SIZE
  6
CONTINUOUS
 62
    30
 10
-94.999999999999773
 20
474.11494321694039
 30
0.0
 11
-83.0
 21
474.11494321694039
 31
0.0
  0
CIRCLE
  8
SIZE
  6
CONTINUOUS
 62
    30
 10
95.0
 20
474.11494321694039
 30
0.0
 40
6.0
  0
LINE
  8
SIZE
  6
CONTINUOUS
 62
    30
 10
95.0
 20
474.11494321694039
 30
0.0
 11
83.0
 21
474.11494321694039
 31
0.0
  0
TEXT
  8
SIZE
  6
CONTINUOUS
 62
    30
 10
-68.571428571428569
 20
499.11494321694062
 30
0.0
 40
64.0
  1
190
 41
0.9
 72
     1
 11
0.0
 21
499.11494321694062
 31
0.0
  0
LINE
  8
SIZE
  6
CONTINUOUS
 62
    30
 10
-104.96510354610341
 20
-20.30523572199991
 30
0.0
 11
-104.96510354610341
 21
-241.87012389972011
 31
0.0
  0
LINE
  8
SIZE
  6
CONTINUOUS
 62
    30
 10
105.02424063519651
 20
-20.30523572199991
 30
0.0
 11
105.02424063519651
 21
-241.87012389972011
 31
0.0
  0
LINE
  8
SIZE
  6
CONTINUOUS
 62
    30
 10
93.02424063519652
 20
-221.87012389972011
 30
0.0
 11
-92.965103546103364
 21
-221.87012389972011
 31
0.0
  0
LINE
  8
SIZE
  6
CONTINUOUS
 62
    30
 10
-104.96510354610341
 20
-221.87012389972011
 30
0.0
 11
-369.38796068896067
 21
-221.87012389972011
 31
0.0
  0
CIRCLE
  8
SIZE
  6
CONTINUOUS
 62
    30
 10
105.02424063519651
 20
-221.87012389972011
 30
0.0
 40
6.0
  0
LINE
  8
SIZE
  6
CONTINUOUS
 62
    30
 10
105.02424063519651
 20
-221.87012389972011
 30
0.0
 11
93.02424063519652
 21
-221.87012389972011
 31
0.0
  0
CIRCLE
  8
SIZE
  6
CONTINUOUS
 62
    30
 10
-104.96510354610341
 20
-221.87012389972011
 30
0.0
 40
6.0
  0
LINE
  8
SIZE
  6
CONTINUOUS
 62
    30
 10
-104.96510354610341
 20
-221.87012389972011
 30
0.0
 11
-92.965103546103364
 21
-221.87012389972011
 31
0.0
  0
TEXT
  8
SIZE
  6
CONTINUOUS
 62
    30
 10
-348.22796068896048
 20
-196.87012389972011
 30
0.0
 40
64.0
  1
□210
 41
0.9
 72
     1
 11
-243.17653211753191
 21
-196.87012389972011
 31
0.0
  0
LINE
  8
SIZE
  6
CONTINUOUS
 62
    30
 10
-20.0
 20
-39.300000000000637
 30
0.0
 11
-286.02009454316749
 21
-39.30000000000058
 31
0.0
  0
LINE
  8
SIZE
  6
CONTINUOUS
 62
    30
 10
-145.45612470509059
 20
0.0
 30
0.0
 11
-286.02009454316749
 21
0.0000000000000568
 31
0.0
  0
LINE
  8
SIZE
  6
CONTINUOUS
 62
    30
 10
-266.02009454316737
 20
-51.30000000000058
 30
0.0
 11
-266.02009454316737
 21
-63.30000000000058
 31
0.0
  0
LINE
  8
SIZE
  6
CONTINUOUS
 62
    30
 10
-266.02009454316737
 20
12.00000000000003
 30
0.0
 11
-266.02009454316737
 21
24.00000000000006
 31
0.0
  0
LINE
  8
SIZE
  6
CONTINUOUS
 62
    30
 10
-266.02009454316737
 20
-39.30000000000058
 30
0.0
 11
-266.02009454316737
 21
0.0000000000000284
 31
0.0
  0
CIRCLE
  8
SIZE
  6
CONTINUOUS
 62
    30
 10
-266.02009454316737
 20
-39.30000000000058
 30
0.0
 40
6.0
  0
LINE
  8
SIZE
  6
CONTINUOUS
 62
    30
 10
-266.02009454316737
 20
-39.30000000000058
 30
0.0
 11
-266.02009454316737
 21
-51.30000000000058
 31
0.0
  0
CIRCLE
  8
SIZE
  6
CONTINUOUS
 62
    30
 10
-266.02009454316737
 20
0.0000000000000284
 30
0.0
 40
6.0
  0
LINE
  8
SIZE
  6
CONTINUOUS
 62
    30
 10
-266.02009454316737
 20
0.0000000000000284
 30
0.0
 11
-266.02009454316737
 21
12.00000000000003
 31
0.0
  0
TEXT
  8
SIZE
  6
CONTINUOUS
 62
    30
 10
-291.02009454316749
 20
-64.907142857143171
 30
0.0
 40
64.0
  1
39
 50
90.0
 41
0.9
 72
     1
 11
-291.02009454316749
 21
-19.650000000000318
 31
0.0
  0
TEXT
  8
NOTE
  6
CONTINUOUS
 62
     4
 10
228.89849456608749
 20
235.93710524437401
 30
0.0
 40
64.0
  1
EL
 41
0.9
  0
TEXT
  8
NOTE
  6
CONTINUOUS
 62
     4
 10
210.98614712981541
 20
97.344602096768128
 30
0.0
 40
64.0
  1
2-φ4×10
 41
0.9
  0
LINE
  8
NOTE
  6
CONTINUOUS
 62
     4
 10
5.91568113143353
 20
61.594575425050152
 30
0.0
 11
0.0000000000002274
 21
59.699999999999847
 31
0.0
  0
LINE
  8
NOTE
  6
CONTINUOUS
 62
     4
 10
0.0000000000002274
 20
59.699999999999847
 30
0.0
 11
4.1758354981620869
 21
64.298597305950139
 31
0.0
  0
LINE
  8
NOTE
  6
CONTINUOUS
 62
     4
 10
0.0000000000002274
 20
59.699999999999847
 30
0.0
 11
10.09151662959516
 21
66.193172731000388
 31
0.0
  0
LINE
  8
NOTE
  6
CONTINUOUS
 62
     4
 10
10.09151662959516
 20
66.193172731000388
 30
0.0
 11
216.89849456608749
 21
203.93710524437401
 31
0.0
  0
LINE
  8
NOTE
  6
CONTINUOUS
 62
     4
 10
216.89849456608749
 20
203.93710524437401
 30
0.0
 11
313.92706599465919
 21
203.93710524437401
 31
0.0
  0
LINE
  8
NOTE
  6
CONTINUOUS
 62
     4
 10
101.14895084137611
 20
0.8803992505349925
 30
0.0
 11
95.0
 21
0.0
 31
0.0
  0
LINE
  8
NOTE
  6
CONTINUOUS
 62
     4
 10
95.0
 20
0.0
 30
0.0
 11
99.884942227952493
 21
3.8369308984615031
 31
0.0
  0
LINE
  8
NOTE
  6
CONTINUOUS
 62
     4
 10
95.0
 20
0.0
 30
0.0
 11
106.0338930693283
 21
4.7173301489964956
 31
0.0
  0
LINE
  8
NOTE
  6
CONTINUOUS
 62
     4
 10
106.0338930693283
 20
4.7173301489964956
 30
0.0
 11
213.29407722266211
 21
51.745938544424007
 31
0.0
  0
LINE
  8
NOTE
  6
CONTINUOUS
 62
     4
 10
213.29407722266211
 20
51.745938544424007
 30
0.0
 11
606.07122007980479
 21
51.745938544424007
 31
0.0
  0
LINE
  8
NOTE
  6
CONTINUOUS
 62
     4
 10
95.0
 20
-8.0
 30
0.0
 11
95.0
 21
8.0
 31
0.0
  0
LINE
  8
NOTE
  6
CONTINUOUS
 62
     4
 10
90.0
 20
0.0
 30
0.0
 11
100.0
 21
0.0
 31
0.0
  0
LINE
  8
NOTE
  6
CONTINUOUS
 62
     4
 10
-100.0
 20
0.0
 30
0.0
 11
-90.0
 21
0.0
 31
0.0
  0
LINE
  8
NOTE
  6
CONTINUOUS
 62
     4
 10
-95.0
 20
-8.0
 30
0.0
 11
-95.0
 21
8.0
 31
0.0
  0
LINE
  8
DETAIL
  6
CONTINUOUS
 62
     5
 10
-104.6651492376034
 20
0.0
 30
0.0
 11
104.7242863265967
 21
0.0
 31
0.0
  0
ARC
  8
DETAIL
  6
CONTINUOUS
 62
     5
 10
104.7242863265967
 20
-0.3000000000001819
 30
0.0
 40
0.3000000000000275
 50
359.00000000000477
 51
90.0
  0
LINE
  8
DETAIL
  6
CONTINUOUS
 62
     5
 10
104.4767894020415
 20
-31.668695864148962
 30
0.0
 11
105.02424063519651
 21
-0.3052357219999067
 31
0.0
  0
LINE
  8
DETAIL
  6
CONTINUOUS
 62
     5
 10
-104.41761589633759
 20
-31.670782170474009
 30
0.0
 11
-104.96510354610341
 21
-0.3052357219999067
 31
0.0
  0
ARC
  8
DETAIL
  6
CONTINUOUS
 62
     5
 10
-104.6651492375577
 20
-0.3000000000001819
 30
0.0
 40
0.300000000000065
 50
90.0
 51
180.99999999999531
  0
ARC
  8
DETAIL
  6
CONTINUOUS
 62
     5
 10
0.0000000000002274
 20
2760.6999999999989
 30
0.0
 40
2800.0
 50
267.98134102836809
 51
272.01987318019809
  0
ARC
  8
DETAIL
  6
CONTINUOUS
 62
     5
 10
-98.418529725399367
 20
-31.56606773185058
 30
0.0
 40
5.9999999999999956
 50
180.99999999999531
 51
267.98134102836809
  0
ARC
  8
DETAIL
  6
CONTINUOUS
 62
     5
 10
98.477703231103305
 20
-31.56398142552553
 30
0.0
 40
6.0000000000002052
 50
272.01987318019809
 51
358.99999999999818
  0
LINE
  8
DETAIL
  6
CONTINUOUS
 62
     5
 10
70.0
 20
87.0
 30
0.0
 11
70.0
 21
0.0
 31
0.0
  0
LINE
  8
DETAIL
  6
CONTINUOUS
 62
     5
 10
-70.0
 20
87.0
 30
0.0
 11
-70.0
 21
0.0
 31
0.0
  0
LINE
  8
DETAIL
  6
CONTINUOUS
 62
     5
 10
70.0
 20
59.699999999999818
 30
0.0
 11
-70.0
 21
59.699999999999832
 31
0.0
  0
LINE
  8
DETAIL
  6
CONTINUOUS
 62
     5
 10
-3.5
 20
80.199999999999463
 30
0.0
 11
3.5
 21
80.199999999999463
 31
0.0
  0
LINE
  8
DETAIL
  6
CONTINUOUS
 62
     5
 10
2.0
 20
68.933432203958205
 30
0.0
 11
2.0
 21
66.176413323718521
 31
0.0
  0
LINE
  8
DETAIL
  6
CONTINUOUS
 62
     5
 10
-2.0
 20
71.468951329641769
 30
0.0
 11
-2.0
 21
68.711932449402539
 31
0.0
  0
LINE
  8
DETAIL
  6
CONTINUOUS
 62
     5
 10
-2.0
 20
80.199999999999463
 30
0.0
 11
-2.0
 21
78.854008952137178
 31
0.0
  0
LINE
  8
DETAIL
  6
CONTINUOUS
 62
     5
 10
2.0
 20
80.199999999999463
 30
0.0
 11
2.0
 21
76.318489826453629
 31
0.0
  0
LINE
  8
DETAIL
  6
CONTINUOUS
 62
     5
 10
-2.0
 20
61.326874826907101
 30
0.0
 11
-2.0
 21
59.699999999999477
 31
0.0
  0
ARC
  8
DETAIL
  6
CONTINUOUS
 62
     5
 10
-1.75
 20
105.22606938250701
 30
0.0
 40
3.500000000000107
 50
239.9999999999994
 51
299.99999999999972
  0
ARC
  8
DETAIL
  6
CONTINUOUS
 62
     5
 10
1.75
 20
105.22606938250701
 30
0.0
 40
3.500000000000107
 50
239.9999999999994
 51
299.99999999999972
  0
ARC
  8
DETAIL
  6
CONTINUOUS
 62
     5
 10
1.75
 20
99.163891556015756
 30
0.0
 40
3.5000000000001248
 50
59.999999999999453
 51
120.0000000000006
  0
ARC
  8
DETAIL
  6
CONTINUOUS
 62
     5
 10
-1.75
 20
100.9380693800036
 30
0.0
 40
3.500000000000103
 50
239.9999999999994
 51
299.99999999999972
  0
ARC
  8
DETAIL
  6
CONTINUOUS
 62
     5
 10
-1.75
 20
94.875891553512361
 30
0.0
 40
3.5000000000001248
 50
59.999999999999453
 51
120.0000000000006
  0
ARC
  8
DETAIL
  6
CONTINUOUS
 62
     5
 10
1.75
 20
94.875891553512361
 30
0.0
 40
3.5000000000001248
 50
59.999999999999453
 51
120.0000000000006
  0
LINE
  8
DETAIL
  6
CONTINUOUS
 62
     5
 10
3.5
 20
119.2701478790997
 30
0.0
 11
-3.5
 21
119.2701478790997
 31
0.0
  0
LINE
  8
DETAIL
  6
CONTINUOUS
 62
     5
 10
-2.886751345948142
 20
119.2701478790997
 30
0.0
 11
-10.094997040328961
 21
131.7551956552071
 31
0.0
  0
LINE
  8
DETAIL
  6
CONTINUOUS
 62
     5
 10
0.0
 20
119.2701478790997
 30
0.0
 11
-7.9299335308678547
 21
133.0051956552071
 31
0.0
  0
LINE
  8
DETAIL
  6
CONTINUOUS
 62
     5
 10
-13.53615131351717
 20
141.31544969305119
 30
0.0
 11
-14.488779257680109
 21
140.76544969305101
 31
0.0
  0
LINE
  8
DETAIL
  6
CONTINUOUS
 62
     5
 10
-8.5361513135171663
 20
132.65519565520671
 30
0.0
 11
-13.53615131351717
 21
141.31544969305119
 31
0.0
  0
LINE
  8
DETAIL
  6
CONTINUOUS
 62
     5
 10
-9.4887792576801093
 20
132.10519565520659
 30
0.0
 11
-14.488779257680109
 21
140.76544969305101
 31
0.0
  0
LINE
  8
DETAIL
  6
CONTINUOUS
 62
     5
 10
-7.9299335308678547
 20
133.0051956552071
 30
0.0
 11
-10.094997040328961
 21
131.7551956552071
 31
0.0
  0
LINE
  8
DETAIL
  6
CONTINUOUS
 62
     5
 10
0.0
 20
119.2701478790997
 30
0.0
 11
7.9299335308678547
 21
133.0051956552071
 31
0.0
  0
LINE
  8
DETAIL
  6
CONTINUOUS
 62
     5
 10
2.886751345948142
 20
119.2701478790997
 30
0.0
 11
10.094997040328961
 21
131.7551956552071
 31
0.0
  0
LINE
  8
DETAIL
  6
CONTINUOUS
 62
     5
 10
13.53615131351671
 20
141.31544969305119
 30
0.0
 11
14.488779257679649
 21
140.76544969305101
 31
0.0
  0
LINE
  8
DETAIL
  6
CONTINUOUS
 62
     5
 10
8.5361513135167097
 20
132.65519565520671
 30
0.0
 11
13.53615131351671
 21
141.31544969305119
 31
0.0
  0
LINE
  8
DETAIL
  6
CONTINUOUS
 62
     5
 10
9.488779257679651
 20
132.10519565520659
 30
0.0
 11
14.488779257679649
 21
140.76544969305101
 31
0.0
  0
LINE
  8
DETAIL
  6
CONTINUOUS
 62
     5
 10
7.9299335308678547
 20
133.0051956552071
 30
0.0
 11
10.094997040328961
 21
131.7551956552071
 31
0.0
  0
LINE
  8
DETAIL
  6
CONTINUOUS
 62
     5
 10
3.5
 20
119.2701478790997
 30
0.0
 11
3.5
 21
102.1949804692614
 31
0.0
  0
LINE
  8
DETAIL
  6
CONTINUOUS
 62
     5
 10
-3.5
 20
119.2701478790997
 30
0.0
 11
-3.5
 21
102.1949804692614
 31
0.0
  0
LINE
  8
DETAIL
  6
CONTINUOUS
 62
     5
 10
3.5
 20
97.906980466758
 30
0.0
 11
3.5
 21
80.199999999999463
 31
0.0
  0
LINE
  8
DETAIL
  6
CONTINUOUS
 62
     5
 10
-3.5
 20
97.906980466758
 30
0.0
 11
-3.5
 21
80.199999999999463
 31
0.0
  0
ARC
  8
DETAIL
  6
CONTINUOUS
 62
     5
 10
-3.7529568412837762
 20
76.272644040283126
 30
0.0
 40
3.3611031163333069
 50
79.521308458077101
 51
215.73912366706489
  0
LINE
  8
DETAIL
  6
CONTINUOUS
 62
     5
 10
3.943790397250722
 20
75.086360394315875
 30
0.0
 11
-3.1416735630505168
 21
79.577692740737461
 31
0.0
  0
ARC
  8
DETAIL
  6
CONTINUOUS
 62
     5
 10
-5.6589032293722994
 20
71.393831583068391
 30
0.0
 40
10.28817252521905
 50
338.96672468793389
 51
21.033275312066099
  0
LINE
  8
DETAIL
  6
CONTINUOUS
 62
     5
 10
-0.6591672640515753
 20
60.476948065321849
 30
0.0
 11
-4.0562096027497319
 21
62.630264520453338
 31
0.0
  0
LINE
  8
DETAIL
  6
CONTINUOUS
 62
     5
 10
12.217100329657571
 20
59.699999999999477
 30
0.0
 11
-4.0562096027497319
 21
70.015322142948776
 31
0.0
  0
ARC
  8
DETAIL
  6
CONTINUOUS
 62
     5
 10
5.5464840238732904
 20
66.322793331701291
 30
0.0
 40
10.28817252521927
 50
158.96672468793389
 51
201.03327531206611
  0
LINE
  8
DETAIL
  6
CONTINUOUS
 62
     5
 10
-2.0
 20
71.318711836495027
 30
0.0
 11
-4.0562096027497319
 21
70.015322142948776
 31
0.0
  0
LINE
  8
DETAIL
  6
CONTINUOUS
 62
     5
 10
3.943790397250722
 20
67.701302771820892
 30
0.0
 11
-6.481113401379389
 21
74.309438513030372
 31
0.0
  0
ARC
  8
DETAIL
  6
CONTINUOUS
 62
     5
 10
2.0177399732310728
 20
64.699999999999477
 30
0.0
 40
5.0000000000000799
 50
237.63021606257041
 51
270.0
  0
LINE
  8
DETAIL
  6
CONTINUOUS
 62
     5
 10
3.943790397250722
 20
67.701302771820892
 30
0.0
 11
2.0
 21
66.469173339683607
 31
0.0
  0
LINE
  8
OUTLINE
  6
CONTINUOUS
 62
     3
 10
-104.6651492376034
 20
0.0
 30
0.0
 11
104.7242863265967
 21
0.0
 31
0.0
  0
ARC
  8
OUTLINE
  6
CONTINUOUS
 62
     3
 10
104.7242863265967
 20
-0.3000000000001819
 30
0.0
 40
0.3000000000000275
 50
358.99999999999818
 51
90.0
  0
LINE
  8
OUTLINE
  6
CONTINUOUS
 62
     3
 10
104.4767894020415
 20
-31.668695864148962
 30
0.0
 11
105.02424063519651
 21
-0.3052357219999067
 31
0.0
  0
LINE
  8
OUTLINE
  6
CONTINUOUS
 62
     3
 10
-104.41761589633759
 20
-31.670782170474009
 30
0.0
 11
-104.96510354610341
 21
-0.3052357219999067
 31
0.0
  0
ARC
  8
OUTLINE
  6
CONTINUOUS
 62
     3
 10
-104.6651492375577
 20
-0.3000000000001819
 30
0.0
 40
0.300000000000065
 50
90.0
 51
180.99999999998869
  0
ARC
  8
OUTLINE
  6
CONTINUOUS
 62
     3
 10
0.0000000000002274
 20
2760.6999999999989
 30
0.0
 40
2800.0
 50
267.98134102836809
 51
272.01987318019809
  0
ARC
  8
OUTLINE
  6
CONTINUOUS
 62
     3
 10
-98.418529725399367
 20
-31.56606773185058
 30
0.0
 40
5.9999999999999956
 50
180.99999999998869
 51
267.98134102836809
  0
ARC
  8
OUTLINE
  6
CONTINUOUS
 62
     3
 10
98.477703231103305
 20
-31.56398142552553
 30
0.0
 40
6.0000000000002052
 50
272.01987318019809
 51
358.99999999999818
  0
LINE
  8
OUTLINE
  6
CONTINUOUS
 62
     3
 10
70.0
 20
87.0
 30
0.0
 11
70.0
 21
0.0
 31
0.0
  0
CIRCLE
  8
FIX
  6
CONTINUOUS
 62
    11
 10
95.0
 20
0.0
 30
0.0
 40
5.0
  0
CIRCLE
  8
FIX
  6
CONTINUOUS
 62
    11
 10
-95.0
 20
0.0
 30
0.0
 40
5.0
  0
LINE
  8
SIZE
  6
CONTINUOUS
 62
    30
 10
-99.318232138800127
 20
59.699999999999818
 30
0.0
 11
-185.02582330400759
 21
59.699999999999818
 31
0.0
  0
LINE
  8
SIZE
  6
CONTINUOUS
 62
    30
 10
-145.45612470509059
 20
0.0
 30
0.0
 11
-185.02582330400759
 21
0.0000000000000284
 31
0.0
  0
LINE
  8
SIZE
  6
CONTINUOUS
 62
    30
 10
-165.02582330400759
 20
-12.0
 30
0.0
 11
-165.02582330400759
 21
-24.0
 31
0.0
  0
LINE
  8
SIZE
  6
CONTINUOUS
 62
    30
 10
-165.02582330400759
 20
71.699999999999875
 30
0.0
 11
-165.02582330400759
 21
226.95714285714271
 31
0.0
  0
LINE
  8
SIZE
  6
CONTINUOUS
 62
    30
 10
-165.02582330400759
 20
0.0
 30
0.0
 11
-165.02582330400759
 21
59.699999999999818
 31
0.0
  0
CIRCLE
  8
SIZE
  6
CONTINUOUS
 62
    30
 10
-165.02582330400759
 20
0.0
 30
0.0
 40
6.0
  0
LINE
  8
SIZE
  6
CONTINUOUS
 62
    30
 10
-165.02582330400759
 20
0.0
 30
0.0
 11
-165.02582330400759
 21
-12.0
 31
0.0
  0
CIRCLE
  8
SIZE
  6
CONTINUOUS
 62
    30
 10
-165.02582330400759
 20
59.699999999999818
 30
0.0
 40
6.0
  0
LINE
  8
SIZE
  6
CONTINUOUS
 62
    30
 10
-165.02582330400759
 20
59.699999999999818
 30
0.0
 11
-165.02582330400759
 21
71.699999999999804
 31
0.0
  0
TEXT
  8
SIZE
  6
CONTINUOUS
 62
    30
 10
-190.02582330400759
 20
108.6999999999998
 30
0.0
 40
64.0
  1
60
 50
90.0
 41
0.9
 72
     1
 11
-190.02582330400759
 21
155.32857142857119
 31
0.0
  0
LINE
  8
OUTLINE
  6
CONTINUOUS
 62
     3
 10
-70.0
 20
87.0
 30
0.0
 11
-70.0
 21
0.0000000085633474
 31
0.0
  0
LINE
  8
DETAIL
  6
CONTINUOUS
 62
     5
 10
69.999999999999986
 20
86.999999999999929
 30
0.0
 11
3.5
 21
86.999999999999957
 31
0.0
  0
LINE
  8
OUTLINE
  6
CONTINUOUS
 62
     3
 10
70.0
 20
86.999999999999943
 30
0.0
 11
-70.0
 21
86.999999999999957
 31
0.0
  0
LINE
  8
SIZE
  6
CONTINUOUS
 62
    30
 10
-88.14279280844994
 20
87.199999999999946
 30
0.0
 11
-286.02009454316749
 21
87.200000000000003
 31
0.0
  0
LINE
  8
SIZE
  6
CONTINUOUS
 62
    30
 10
-145.45612470509059
 20
0.0
 30
0.0
 11
-286.02009454316749
 21
0.0000000000000568
 31
0.0
  0
LINE
  8
SIZE
  6
CONTINUOUS
 62
    30
 10
-266.02009454316737
 20
12.00000000000003
 30
0.0
 11
-266.02009454316737
 21
75.200000000000003
 31
0.0
  0
LINE
  8
SIZE
  6
CONTINUOUS
 62
    30
 10
-266.02009454316737
 20
87.200000000000003
 30
0.0
 11
-266.02009454316737
 21
254.45714285714291
 31
0.0
  0
CIRCLE
  8
SIZE
  6
CONTINUOUS
 62
    30
 10
-266.02009454316737
 20
0.0000000000000284
 30
0.0
 40
6.0
  0
LINE
  8
SIZE
  6
CONTINUOUS
 62
    30
 10
-266.02009454316737
 20
0.0000000000000284
 30
0.0
 11
-266.02009454316737
 21
12.00000000000003
 31
0.0
  0
CIRCLE
  8
SIZE
  6
CONTINUOUS
 62
    30
 10
-266.02009454316737
 20
87.200000000000003
 30
0.0
 40
6.0
  0
LINE
  8
SIZE
  6
CONTINUOUS
 62
    30
 10
-266.02009454316737
 20
87.200000000000003
 30
0.0
 11
-266.02009454316737
 21
75.200000000000003
 31
0.0
  0
TEXT
  8
SIZE
  6
CONTINUOUS
 62
    30
 10
-291.02009454316749
 20
136.1999999999999
 30
0.0
 40
64.0
  1
87
 50
90.0
 41
0.9
 72
     1
 11
-291.02009454316749
 21
182.82857142857139
 31
0.0
  0
LINE
  8
DETAIL
  6
CONTINUOUS
 62
     5
 10
-3.5
 20
86.999999999999957
 30
0.0
 11
-70.0
 21
86.999999999999957
 31
0.0
  0
TEXT
  8
ETC
  6
CONTINUOUS
 62
    61
 10
405.02314000517072
 20
523.02279689436705
 30
0.0
 40
64.0
  1
V-12PPS8_1
 41
0.9
  0
TEXT
  8
ETC
  6
CONTINUOUS
 62
    61
 10
400.83714600517033
 20
405.06748687953592
 30
0.0
 40
64.0
  1
換気扇
 41
0.9
  0
TEXT
  8
ETC
  6
CONTINUOUS
 62
    61
 10
451.53854425372629
 20
296.91871399331058
 30
0.0
 40
40.0
  1
V-12PPS8
 41
0.9
  0
ENDSEC
  0
EOF
