  0
SECTION
  2
HEADER
  9
$ACADVER
  1
AC1009
  9
$DWGCODEPAGE
  3
dos932
  9
$INSBASE
 10
0.0
 20
0.0
 30
0.0
  9
$EXTMIN
 10
-267.96835180693512
 20
-114.82618259740001
 30
0.0
  9
$EXTMAX
 10
721.60490039505146
 20
466.08969854397532
 30
0.0
  9
$LIMMIN
 10
-2970.0
 20
-2100.0
  9
$LIMMAX
 10
2970.0
 20
2100.0
  9
$ORTHOMODE
 70
     1
  9
$REGENMODE
 70
     1
  9
$FILLMODE
 70
     1
  9
$QTEXTMODE
 70
     0
  9
$MIRRTEXT
 70
     0
  9
$LTSCALE
 40
20.0
  9
$ATTMODE
 70
     1
  9
$TEXTSIZE
 40
64.0
  9
$TRACEWID
 40
0.05
  9
$TEXTSTYLE
  7
STANDARD
  9
$CLAYER
  8
SIZE
  9
$CELTYPE
  6
CONTINUOUS
  9
$CECOLOR
 62
     7
  9
$DIMSCALE
 40
1.0
  9
$DIMASZ
 40
12.0
  9
$DIMEXO
 40
20.0
  9
$DIMDLI
 40
200.0
  9
$DIMRND
 40
0.0
  9
$DIMDLE
 40
0.0
  9
$DIMEXE
 40
20.0
  9
$DIMTP
 40
0.0
  9
$DIMTM
 40
0.0
  9
$DIMTXT
 40
64.0
  9
$DIMCEN
 40
0.09
  9
$DIMTSZ
 40
0.0
  9
$DIMTOL
 70
     0
  9
$DIMLIM
 70
     0
  9
$DIMTIH
 70
     0
  9
$DIMTOH
 70
     0
  9
$DIMSE1
 70
     0
  9
$DIMSE2
 70
     0
  9
$DIMTAD
 70
     1
  9
$DIMZIN
 70
     8
  9
$DIMBLK
  1

  9
$DIMASO
 70
     1
  9
$DIMSHO
 70
     0
  9
$DIMPOST
  1

  9
$DIMAPOST
  1

  9
$DIMALT
 70
     0
  9
$DIMALTD
 70
     2
  9
$DIMALTF
 40
25.399999999999999
  9
$DIMLFAC
 40
1.0
  9
$DIMTOFL
 70
     1
  9
$DIMTVP
 40
0.0
  9
$DIMTIX
 70
     1
  9
$DIMSOXD
 70
     0
  9
$DIMSAH
 70
     0
  9
$DIMBLK1
  1

  9
$DIMBLK2
  1

  9
$DIMSTYLE
  2
STANDARD
  9
$DIMCLRD
 70
     7
  9
$DIMCLRE
 70
     7
  9
$DIMCLRT
 70
     7
  9
$DIMTFAC
 40
1.0
  9
$DIMGAP
 40
25.0
  9
$LUNITS
 70
     2
  9
$LUPREC
 70
     4
  9
$SKETCHINC
 40
0.1
  9
$FILLETRAD
 40
3.0
  9
$AUNITS
 70
     1
  9
$AUPREC
 70
     3
  9
$MENU
  1
ACAD
  9
$ELEVATION
 40
0.0
  9
$PELEVATION
 40
0.0
  9
$THICKNESS
 40
0.0
  9
$LIMCHECK
 70
     0
  9
$CHAMFERA
 40
0.0
  9
$CHAMFERB
 40
0.0
  9
$SKPOLY
 70
     0
  9
$TDCREATE
 40
2453019.623009259
  9
$TDUPDATE
 40
2459356.668538252
  9
$TDINDWG
 40
1.7166363542
  9
$TDUSRTIMER
 40
1.7166363542
  9
$USRTIMER
 70
     1
  9
$ANGBASE
 50
0.0
  9
$ANGDIR
 70
     0
  9
$PDMODE
 70
     3
  9
$PDSIZE
 40
-2.0
  9
$PLINEWID
 40
0.0
  9
$SPLFRAME
 70
     0
  9
$SPLINETYPE
 70
     6
  9
$SPLINESEGS
 70
     8
  9
$SURFTAB1
 70
     6
  9
$SURFTAB2
 70
     6
  9
$SURFTYPE
 70
     6
  9
$SURFU
 70
     6
  9
$SURFV
 70
     6
  9
$UCSNAME
  2

  9
$UCSORG
 10
0.0
 20
0.0
 30
0.0
  9
$UCSXDIR
 10
1.0
 20
0.0
 30
0.0
  9
$UCSYDIR
 10
0.0
 20
1.0
 30
0.0
  9
$PUCSNAME
  2

  9
$PUCSORG
 10
0.0
 20
0.0
 30
0.0
  9
$PUCSXDIR
 10
1.0
 20
0.0
 30
0.0
  9
$PUCSYDIR
 10
0.0
 20
1.0
 30
0.0
  9
$USERI1
 70
     0
  9
$USERI2
 70
     0
  9
$USERI3
 70
     0
  9
$USERI4
 70
     0
  9
$USERI5
 70
     0
  9
$USERR1
 40
20.0
  9
$USERR2
 40
0.0
  9
$USERR3
 40
0.0
  9
$USERR4
 40
0.0
  9
$USERR5
 40
0.0
  9
$WORLDVIEW
 70
     1
  9
$SHADEDGE
 70
     3
  9
$SHADEDIF
 70
    70
  9
$TILEMODE
 70
     1
  9
$MAXACTVP
 70
    48
  9
$PINSBASE
 10
0.0
 20
0.0
 30
0.0
  9
$PLIMCHECK
 70
     0
  9
$PEXTMIN
 10
-100000000000000000000.0
 20
-100000000000000000000.0
 30
-100000000000000000000.0
  9
$PEXTMAX
 10
100000000000000000000.0
 20
100000000000000000000.0
 30
100000000000000000000.0
  9
$PLIMMIN
 10
0.0
 20
0.0
  9
$PLIMMAX
 10
12.0
 20
9.0
  9
$UNITMODE
 70
     0
  9
$VISRETAIN
 70
     0
  9
$PLINEGEN
 70
     0
  9
$PSLTSCALE
 70
     0
  9
$TREEDEPTH
 70
  3020
  9
$ATTDIA
 70
     0
  9
$ATTREQ
 70
     1
  9
$BLIPMODE
 70
     1
  9
$COORDS
 70
     1
  9
$DRAGMODE
 70
     2
  9
$OSMODE
 70
     0
  9
$HANDLING
 70
     0
  9
$HANDSEED
  5
28F
  0
ENDSEC
  0
SECTION
  2
TABLES
  0
TABLE
  2
LTYPE
 70
     2
  0
LTYPE
  2
CONTINUOUS
 70
     0
  3
実線
 72
    65
 73
     0
 40
0.0
  0
LTYPE
  2
DASHDOT
 70
     0
  3
____ _ ____ _ ____ _ ____ _ ____ _ ____ _ ____
 72
    65
 73
     4
 40
5.5
 49
4.0
 49
-0.6
 49
0.3
 49
-0.6
  0
ENDTAB
  0
TABLE
  2
LAYER
 70
    12
  0
LAYER
  2
SIZE
 70
     0
 62
    30
  6
CONTINUOUS
  0
LAYER
  2
BASIS
 70
     0
 62
     6
  6
DASHDOT
  0
LAYER
  2
OUTLINE
 70
     0
 62
     3
  6
CONTINUOUS
  0
LAYER
  2
DETAIL
 70
     0
 62
     5
  6
CONTINUOUS
  0
LAYER
  2
ARRANGE
 70
     0
 62
     1
  6
CONTINUOUS
  0
LAYER
  2
ETC
 70
     0
 62
    61
  6
CONTINUOUS
  0
LAYER
  2
0
 70
    64
 62
     7
  6
CONTINUOUS
  0
LAYER
  2
DEFPOINTS
 70
    64
 62
     7
  6
CONTINUOUS
  0
LAYER
  2
FIX
 70
    64
 62
    11
  6
CONTINUOUS
  0
LAYER
  2
NOTE
 70
    64
 62
     4
  6
CONTINUOUS
  0
LAYER
  2
SERVICESPACE
 70
    64
 62
     2
  6
DASHDOT
  0
LAYER
  2
SYMBOLLINE
 70
    64
 62
    15
  6
CONTINUOUS
  0
ENDTAB
  0
TABLE
  2
STYLE
 70
     1
  0
STYLE
  2
STANDARD
 70
     0
 40
64.0
 41
0.9
 50
0.0
 71
     0
 42
64.0
  3
SIMPLEX.shx
  4
BIGFONT.shx
  0
ENDTAB
  0
TABLE
  2
APPID
 70
    20
  0
APPID
  2
ACAD
 70
     0
  0
APPID
  2
ACADANNOTATIVE
 70
     0
  0
APPID
  2
AUTOCAD_POSTSCRIPT_FIGURE
 70
     0
  0
APPID
  2
ACAD_EXEMPT_FROM_CAD_STANDARDS
 70
     0
  0
APPID
  2
ACAD_PSEXT
 70
     0
  0
APPID
  2
ACAUTHENVIRON
 70
     0
  0
APPID
  2
GENIUS_GENOENT_13
 70
     0
  0
APPID
  2
GENIUS_GENCFG_13
 70
     0
  0
APPID
  2
GENIUS_GENCFG0_13
 70
     0
  0
APPID
  2
GENIUS_GENCFG1_13
 70
     0
  0
APPID
  2
GENIUS_GENCFG2_13
 70
     0
  0
APPID
  2
GENIUS_GENCFG3_13
 70
     0
  0
APPID
  2
GENIUS_GENCFG4_13
 70
     0
  0
APPID
  2
GENIUS_GEVCFG0_13
 70
     0
  0
APPID
  2
CONTENTBLOCKICON
 70
     0
  0
APPID
  2
CONTENTBLOCKDESCRIPTION
 70
     0
  0
APPID
  2
ACAD_NAV_VCDISPLAY
 70
     0
  0
APPID
  2
ACAD_MLEADERVER
 70
     0
  0
APPID
  2
ACDBDYNAMICBLOCKTRUENAME
 70
     0
  0
APPID
  2
ACDBDYNAMICBLOCKGUID
 70
     0
  0
ENDTAB
  0
TABLE
  2
DIMSTYLE
 70
     1
  0
DIMSTYLE
  2
STANDARD
 70
     0
  3

  4

  5

  6

  7

 40
1.0
 41
12.0
 42
20.0
 43
200.0
 44
20.0
 45
0.0
 46
0.0
 47
0.0
 48
0.0
140
64.0
141
0.09
142
0.0
143
25.399999999999999
144
1.0
145
0.0
146
1.0
147
25.0
 71
     0
 72
     0
 73
     0
 74
     0
 75
     0
 76
     0
 77
     1
 78
     8
170
     0
171
     2
172
     1
173
     0
174
     1
175
     0
176
     7
177
     7
178
     7
  0
ENDTAB
  0
TABLE
  2
VIEW
 70
     1
  0
VIEW
  2
ALL
 70
     0
 40
4282.6198079999986
 10
0.0
 20
41.309904000000003
 41
5940.0
 11
0.0
 21
0.0
 31
1.0
 12
0.0
 22
0.0
 32
0.0
 42
50.0
 43
0.0
 44
0.0
 50
0.0
 71
     0
  0
ENDTAB
  0
TABLE
  2
UCS
 70
     0
  0
ENDTAB
  0
TABLE
  2
VPORT
 70
     1
  0
VPORT
  2
*ACTIVE
 70
     0
 10
0.0
 20
0.0
 11
1.0
 21
1.0
 12
226.81962468989511
 22
175.59815451455961
 13
0.0
 23
0.0
 14
1.0
 24
1.0
 15
0.0
 25
0.0
 16
0.0
 26
0.0
 36
1.0
 17
0.0
 27
0.0
 37
0.0
 40
585.16507710283588
 41
1.767337807606264
 42
50.0
 43
0.0
 44
0.0
 50
0.0
 51
0.0
 71
     0
 72
  1000
 73
     1
 74
     3
 75
     0
 76
     0
 77
     0
 78
     0
  0
ENDTAB
  0
ENDSEC
  0
SECTION
  2
BLOCKS
  0
ENDSEC
  0
SECTION
  2
ENTITIES
  0
TEXT
  8
ETC
  6
CONTINUOUS
 62
    61
 10
167.54775753790861
 20
402.08969854397509
 30
0.0
 40
64.0
  1
V-12PPS8_2
 41
0.9
  0
TEXT
  8
ETC
  6
CONTINUOUS
 62
    61
 10
163.36176353790819
 20
284.13438852914402
 30
0.0
 40
64.0
  1
換気扇
 41
0.9
  0
CIRCLE
  8
ARRANGE
  6
CONTINUOUS
 62
     1
 10
0.0
 20
0.0
 30
0.0
 40
40.0
  0
POINT
  8
ARRANGE
  6
CONTINUOUS
 62
     1
 10
0.0
 20
0.0
 30
0.0
  0
LINE
  8
BASIS
  6
DASHDOT
 62
     6
 10
125.4561247050906
 20
0.0
 30
0.0
 11
-125.4561247050906
 21
0.0
 31
0.0
  0
TEXT
  8
ETC
  6
CONTINUOUS
 62
    61
 10
214.06316178646421
 20
175.9856156429187
 30
0.0
 40
40.0
  1
V-12PPS8
 41
0.9
  0
LINE
  8
SIZE
  6
CONTINUOUS
 62
    30
 10
-105.0
 20
121.0
 30
0.0
 11
-105.0
 21
208.36050884151271
 31
0.0
  0
LINE
  8
SIZE
  6
CONTINUOUS
 62
    30
 10
105.0
 20
121.0
 30
0.0
 11
105.0
 21
208.36050884151271
 31
0.0
  0
LINE
  8
SIZE
  6
CONTINUOUS
 62
    30
 10
-93.0
 20
188.36050884151271
 30
0.0
 11
93.0
 21
188.36050884151271
 31
0.0
  0
CIRCLE
  8
SIZE
  6
CONTINUOUS
 62
    30
 10
-105.0
 20
188.36050884151271
 30
0.0
 40
6.0
  0
LINE
  8
SIZE
  6
CONTINUOUS
 62
    30
 10
-105.0
 20
188.36050884151271
 30
0.0
 11
-93.0
 21
188.36050884151271
 31
0.0
  0
CIRCLE
  8
SIZE
  6
CONTINUOUS
 62
    30
 10
105.0
 20
188.36050884151271
 30
0.0
 40
6.0
  0
LINE
  8
SIZE
  6
CONTINUOUS
 62
    30
 10
105.0
 20
188.36050884151271
 30
0.0
 11
93.0
 21
188.36050884151271
 31
0.0
  0
TEXT
  8
SIZE
  6
CONTINUOUS
 62
    30
 10
-105.0514285714286
 20
213.36050884151271
 30
0.0
 40
64.0
  1
□210
 41
0.9
 72
     1
 11
0.0
 21
213.36050884151271
 31
0.0
  0
LINE
  8
SIZE
  6
CONTINUOUS
 62
    30
 10
-121.0
 20
105.0
 30
0.0
 11
-198.968351806935
 21
105.0
 31
0.0
  0
LINE
  8
SIZE
  6
CONTINUOUS
 62
    30
 10
-145.45612470509059
 20
0.0
 30
0.0
 11
-198.96835180693509
 21
0.0000000000000284
 31
0.0
  0
LINE
  8
SIZE
  6
CONTINUOUS
 62
    30
 10
-178.968351806935
 20
93.000000000000043
 30
0.0
 11
-178.96835180693509
 21
12.0
 31
0.0
  0
CIRCLE
  8
SIZE
  6
CONTINUOUS
 62
    30
 10
-178.968351806935
 20
105.0
 30
0.0
 40
6.0
  0
LINE
  8
SIZE
  6
CONTINUOUS
 62
    30
 10
-178.968351806935
 20
105.0
 30
0.0
 11
-178.968351806935
 21
93.0
 31
0.0
  0
CIRCLE
  8
SIZE
  6
CONTINUOUS
 62
    30
 10
-178.96835180693509
 20
0.0000000000000284
 30
0.0
 40
6.0
  0
LINE
  8
SIZE
  6
CONTINUOUS
 62
    30
 10
-178.96835180693509
 20
0.0000000000000284
 30
0.0
 11
-178.96835180693509
 21
12.00000000000003
 31
0.0
  0
TEXT
  8
SIZE
  6
CONTINUOUS
 62
    30
 10
-203.96835180693509
 20
-16.071428571428569
 30
0.0
 40
64.0
  1
105
 50
90.0
 41
0.9
 72
     1
 11
-203.96835180693509
 21
52.5
 31
0.0
  0
LINE
  8
DETAIL
  6
CONTINUOUS
 62
     5
 10
-105.0
 20
101.0
 30
0.0
 11
-105.0
 21
-100.9999999999998
 31
0.0
  0
LINE
  8
DETAIL
  6
CONTINUOUS
 62
     5
 10
-101.0
 20
105.0
 30
0.0
 11
101.0
 21
105.0
 31
0.0
  0
LINE
  8
DETAIL
  6
CONTINUOUS
 62
     5
 10
105.0
 20
-100.9999999999998
 30
0.0
 11
105.0
 21
101.0
 31
0.0
  0
LINE
  8
DETAIL
  6
CONTINUOUS
 62
     5
 10
-101.0
 20
-105.0
 30
0.0
 11
101.0
 21
-105.0
 31
0.0
  0
ARC
  8
DETAIL
  6
CONTINUOUS
 62
     5
 10
101.0
 20
-100.9999999999998
 30
0.0
 40
4.0000000000000027
 50
270.0
 51
0.0
  0
ARC
  8
DETAIL
  6
CONTINUOUS
 62
     5
 10
101.0
 20
101.0
 30
0.0
 40
3.9999999999999849
 50
0.0
 51
90.0
  0
ARC
  8
DETAIL
  6
CONTINUOUS
 62
     5
 10
-101.0
 20
101.0
 30
0.0
 40
4.0000000000000222
 50
90.0
 51
180.0
  0
ARC
  8
DETAIL
  6
CONTINUOUS
 62
     5
 10
-101.0
 20
-100.9999999999998
 30
0.0
 40
3.9999999999999849
 50
180.0
 51
270.0
  0
LINE
  8
DETAIL
  6
CONTINUOUS
 62
     5
 10
82.75
 20
-81.473390603300004
 30
0.0
 11
82.75
 21
81.473390603300004
 31
0.0
  0
LINE
  8
DETAIL
  6
CONTINUOUS
 62
     5
 10
76.323740128010726
 20
83.820875898599994
 30
0.0
 11
83.676259871989274
 21
83.820875898599994
 31
0.0
  0
LINE
  8
DETAIL
  6
CONTINUOUS
 62
     5
 10
77.25
 20
81.25
 30
0.0
 11
82.75
 21
81.25
 31
0.0
  0
LINE
  8
DETAIL
  6
CONTINUOUS
 62
     5
 10
76.323740128010726
 20
-83.820875898599994
 30
0.0
 11
83.676259871989274
 21
-83.820875898599994
 31
0.0
  0
LINE
  8
DETAIL
  6
CONTINUOUS
 62
     5
 10
77.25
 20
-81.25
 30
0.0
 11
82.75
 21
-81.25
 31
0.0
  0
LINE
  8
DETAIL
  6
CONTINUOUS
 62
     5
 10
74.75
 20
-81.473390603300004
 30
0.0
 11
74.75
 21
81.473390603300004
 31
0.0
  0
LINE
  8
DETAIL
  6
CONTINUOUS
 62
     5
 10
77.25
 20
81.473390603300004
 30
0.0
 11
77.25
 21
-81.473390603300004
 31
0.0
  0
LINE
  8
DETAIL
  6
CONTINUOUS
 62
     5
 10
68.323740128010741
 20
83.820875898599994
 30
0.0
 11
75.676259871989274
 21
83.820875898599994
 31
0.0
  0
LINE
  8
DETAIL
  6
CONTINUOUS
 62
     5
 10
69.25
 20
81.25
 30
0.0
 11
74.75
 21
81.25
 31
0.0
  0
LINE
  8
DETAIL
  6
CONTINUOUS
 62
     5
 10
68.323740128010741
 20
-83.820875898599994
 30
0.0
 11
75.676259871989274
 21
-83.820875898599994
 31
0.0
  0
LINE
  8
DETAIL
  6
CONTINUOUS
 62
     5
 10
69.25
 20
-81.25
 30
0.0
 11
74.75
 21
-81.25
 31
0.0
  0
LINE
  8
DETAIL
  6
CONTINUOUS
 62
     5
 10
66.75
 20
-81.473390603300004
 30
0.0
 11
66.75
 21
81.473390603300004
 31
0.0
  0
LINE
  8
DETAIL
  6
CONTINUOUS
 62
     5
 10
69.25
 20
81.473390603300004
 30
0.0
 11
69.25
 21
-81.473390603300004
 31
0.0
  0
LINE
  8
DETAIL
  6
CONTINUOUS
 62
     5
 10
60.323740128010293
 20
83.820875898599994
 30
0.0
 11
67.676259871989259
 21
83.820875898599994
 31
0.0
  0
LINE
  8
DETAIL
  6
CONTINUOUS
 62
     5
 10
61.25
 20
81.25
 30
0.0
 11
66.75
 21
81.25
 31
0.0
  0
LINE
  8
DETAIL
  6
CONTINUOUS
 62
     5
 10
60.323740128010293
 20
-83.820875898599994
 30
0.0
 11
67.676259871989259
 21
-83.820875898599994
 31
0.0
  0
LINE
  8
DETAIL
  6
CONTINUOUS
 62
     5
 10
61.25
 20
-81.25
 30
0.0
 11
66.75
 21
-81.25
 31
0.0
  0
LINE
  8
DETAIL
  6
CONTINUOUS
 62
     5
 10
58.75
 20
-81.473390603300004
 30
0.0
 11
58.75
 21
81.473390603300004
 31
0.0
  0
LINE
  8
DETAIL
  6
CONTINUOUS
 62
     5
 10
61.25
 20
81.473390603300004
 30
0.0
 11
61.25
 21
-81.473390603300004
 31
0.0
  0
LINE
  8
DETAIL
  6
CONTINUOUS
 62
     5
 10
52.323740128010741
 20
83.820875898599994
 30
0.0
 11
59.676259871989259
 21
83.820875898599994
 31
0.0
  0
LINE
  8
DETAIL
  6
CONTINUOUS
 62
     5
 10
53.25
 20
81.25
 30
0.0
 11
58.75
 21
81.25
 31
0.0
  0
LINE
  8
DETAIL
  6
CONTINUOUS
 62
     5
 10
52.323740128010741
 20
-83.820875898599994
 30
0.0
 11
59.676259871989259
 21
-83.820875898599994
 31
0.0
  0
LINE
  8
DETAIL
  6
CONTINUOUS
 62
     5
 10
53.25
 20
-81.25
 30
0.0
 11
58.75
 21
-81.25
 31
0.0
  0
LINE
  8
DETAIL
  6
CONTINUOUS
 62
     5
 10
50.75
 20
-81.473390603300004
 30
0.0
 11
50.75
 21
81.473390603300004
 31
0.0
  0
LINE
  8
DETAIL
  6
CONTINUOUS
 62
     5
 10
53.25
 20
81.473390603300004
 30
0.0
 11
53.25
 21
-81.473390603300004
 31
0.0
  0
LINE
  8
DETAIL
  6
CONTINUOUS
 62
     5
 10
44.323740128010293
 20
83.820875898599994
 30
0.0
 11
51.676259871989259
 21
83.820875898599994
 31
0.0
  0
LINE
  8
DETAIL
  6
CONTINUOUS
 62
     5
 10
45.25
 20
81.25
 30
0.0
 11
50.75
 21
81.25
 31
0.0
  0
LINE
  8
DETAIL
  6
CONTINUOUS
 62
     5
 10
44.323740128010293
 20
-83.820875898599994
 30
0.0
 11
51.676259871989259
 21
-83.820875898599994
 31
0.0
  0
LINE
  8
DETAIL
  6
CONTINUOUS
 62
     5
 10
45.25
 20
-81.25
 30
0.0
 11
50.75
 21
-81.25
 31
0.0
  0
LINE
  8
DETAIL
  6
CONTINUOUS
 62
     5
 10
42.75
 20
-81.473390603300004
 30
0.0
 11
42.75
 21
81.473390603300004
 31
0.0
  0
LINE
  8
DETAIL
  6
CONTINUOUS
 62
     5
 10
45.25
 20
81.473390603300004
 30
0.0
 11
45.25
 21
-81.473390603300004
 31
0.0
  0
LINE
  8
DETAIL
  6
CONTINUOUS
 62
     5
 10
36.323740128010733
 20
83.820875898599994
 30
0.0
 11
43.676259871989259
 21
83.820875898599994
 31
0.0
  0
LINE
  8
DETAIL
  6
CONTINUOUS
 62
     5
 10
37.25
 20
81.25
 30
0.0
 11
42.75
 21
81.25
 31
0.0
  0
LINE
  8
DETAIL
  6
CONTINUOUS
 62
     5
 10
36.323740128010733
 20
-83.820875898599994
 30
0.0
 11
43.676259871989259
 21
-83.820875898599994
 31
0.0
  0
LINE
  8
DETAIL
  6
CONTINUOUS
 62
     5
 10
37.25
 20
-81.25
 30
0.0
 11
42.75
 21
-81.25
 31
0.0
  0
LINE
  8
DETAIL
  6
CONTINUOUS
 62
     5
 10
34.75
 20
-81.473390603300004
 30
0.0
 11
34.75
 21
81.473390603300004
 31
0.0
  0
LINE
  8
DETAIL
  6
CONTINUOUS
 62
     5
 10
37.25
 20
81.473390603300004
 30
0.0
 11
37.25
 21
-81.473390603300004
 31
0.0
  0
LINE
  8
DETAIL
  6
CONTINUOUS
 62
     5
 10
28.323740128010741
 20
83.820875898599994
 30
0.0
 11
35.676259871989259
 21
83.820875898599994
 31
0.0
  0
LINE
  8
DETAIL
  6
CONTINUOUS
 62
     5
 10
29.25
 20
81.25
 30
0.0
 11
34.75
 21
81.25
 31
0.0
  0
LINE
  8
DETAIL
  6
CONTINUOUS
 62
     5
 10
28.323740128010741
 20
-83.820875898599994
 30
0.0
 11
35.676259871989259
 21
-83.820875898599994
 31
0.0
  0
LINE
  8
DETAIL
  6
CONTINUOUS
 62
     5
 10
29.25
 20
-81.25
 30
0.0
 11
34.75
 21
-81.25
 31
0.0
  0
LINE
  8
DETAIL
  6
CONTINUOUS
 62
     5
 10
26.75
 20
-81.473390603300004
 30
0.0
 11
26.75
 21
81.473390603300004
 31
0.0
  0
LINE
  8
DETAIL
  6
CONTINUOUS
 62
     5
 10
29.25
 20
81.473390603300004
 30
0.0
 11
29.25
 21
-81.473390603300004
 31
0.0
  0
LINE
  8
DETAIL
  6
CONTINUOUS
 62
     5
 10
20.323740128010289
 20
83.820875898599994
 30
0.0
 11
27.676259871989259
 21
83.820875898599994
 31
0.0
  0
LINE
  8
DETAIL
  6
CONTINUOUS
 62
     5
 10
21.25
 20
81.25
 30
0.0
 11
26.75
 21
81.25
 31
0.0
  0
LINE
  8
DETAIL
  6
CONTINUOUS
 62
     5
 10
20.323740128010289
 20
-83.820875898599994
 30
0.0
 11
27.676259871989259
 21
-83.820875898599994
 31
0.0
  0
LINE
  8
DETAIL
  6
CONTINUOUS
 62
     5
 10
21.25
 20
-81.25
 30
0.0
 11
26.75
 21
-81.25
 31
0.0
  0
LINE
  8
DETAIL
  6
CONTINUOUS
 62
     5
 10
18.75
 20
-81.473390603300004
 30
0.0
 11
18.75
 21
81.473390603300004
 31
0.0
  0
LINE
  8
DETAIL
  6
CONTINUOUS
 62
     5
 10
21.25
 20
81.473390603300004
 30
0.0
 11
21.25
 21
-81.473390603300004
 31
0.0
  0
LINE
  8
DETAIL
  6
CONTINUOUS
 62
     5
 10
12.323740128010741
 20
83.820875898599994
 30
0.0
 11
19.676259871989259
 21
83.820875898599994
 31
0.0
  0
LINE
  8
DETAIL
  6
CONTINUOUS
 62
     5
 10
13.25
 20
81.25
 30
0.0
 11
18.75
 21
81.25
 31
0.0
  0
LINE
  8
DETAIL
  6
CONTINUOUS
 62
     5
 10
12.323740128010741
 20
-83.820875898599994
 30
0.0
 11
19.676259871989259
 21
-83.820875898599994
 31
0.0
  0
LINE
  8
DETAIL
  6
CONTINUOUS
 62
     5
 10
13.25
 20
-81.25
 30
0.0
 11
18.75
 21
-81.25
 31
0.0
  0
LINE
  8
DETAIL
  6
CONTINUOUS
 62
     5
 10
10.75
 20
-81.473390603300004
 30
0.0
 11
10.75
 21
81.473390603300004
 31
0.0
  0
LINE
  8
DETAIL
  6
CONTINUOUS
 62
     5
 10
13.25
 20
81.473390603300004
 30
0.0
 11
13.25
 21
-81.473390603300004
 31
0.0
  0
LINE
  8
DETAIL
  6
CONTINUOUS
 62
     5
 10
4.3237401280102858
 20
83.820875898599994
 30
0.0
 11
11.676259871989259
 21
83.820875898599994
 31
0.0
  0
LINE
  8
DETAIL
  6
CONTINUOUS
 62
     5
 10
5.25
 20
81.25
 30
0.0
 11
10.75
 21
81.25
 31
0.0
  0
LINE
  8
DETAIL
  6
CONTINUOUS
 62
     5
 10
4.3237401280102858
 20
-83.820875898599994
 30
0.0
 11
11.676259871989259
 21
-83.820875898599994
 31
0.0
  0
LINE
  8
DETAIL
  6
CONTINUOUS
 62
     5
 10
5.25
 20
-81.25
 30
0.0
 11
10.75
 21
-81.25
 31
0.0
  0
LINE
  8
DETAIL
  6
CONTINUOUS
 62
     5
 10
2.75
 20
-81.473390603300004
 30
0.0
 11
2.75
 21
81.473390603300004
 31
0.0
  0
LINE
  8
DETAIL
  6
CONTINUOUS
 62
     5
 10
5.25
 20
81.473390603300004
 30
0.0
 11
5.25
 21
-81.473390603300004
 31
0.0
  0
LINE
  8
DETAIL
  6
CONTINUOUS
 62
     5
 10
-3.676259871989259
 20
83.820875898599994
 30
0.0
 11
3.676259871989259
 21
83.820875898599994
 31
0.0
  0
LINE
  8
DETAIL
  6
CONTINUOUS
 62
     5
 10
-2.75
 20
81.25
 30
0.0
 11
2.75
 21
81.25
 31
0.0
  0
LINE
  8
DETAIL
  6
CONTINUOUS
 62
     5
 10
-3.676259871989259
 20
-83.820875898599994
 30
0.0
 11
3.676259871989259
 21
-83.820875898599994
 31
0.0
  0
LINE
  8
DETAIL
  6
CONTINUOUS
 62
     5
 10
-2.75
 20
-81.25
 30
0.0
 11
2.75
 21
-81.25
 31
0.0
  0
LINE
  8
DETAIL
  6
CONTINUOUS
 62
     5
 10
-5.25
 20
-81.473390603300004
 30
0.0
 11
-5.25
 21
81.473390603300004
 31
0.0
  0
LINE
  8
DETAIL
  6
CONTINUOUS
 62
     5
 10
-2.75
 20
81.473390603300004
 30
0.0
 11
-2.75
 21
-81.473390603300004
 31
0.0
  0
LINE
  8
DETAIL
  6
CONTINUOUS
 62
     5
 10
-11.676259871989259
 20
83.820875898599994
 30
0.0
 11
-4.3237401280107406
 21
83.820875898599994
 31
0.0
  0
LINE
  8
DETAIL
  6
CONTINUOUS
 62
     5
 10
-10.75
 20
81.25
 30
0.0
 11
-5.25
 21
81.25
 31
0.0
  0
LINE
  8
DETAIL
  6
CONTINUOUS
 62
     5
 10
-11.676259871989259
 20
-83.820875898599994
 30
0.0
 11
-4.3237401280107406
 21
-83.820875898599994
 31
0.0
  0
LINE
  8
DETAIL
  6
CONTINUOUS
 62
     5
 10
-10.75
 20
-81.25
 30
0.0
 11
-5.25
 21
-81.25
 31
0.0
  0
LINE
  8
DETAIL
  6
CONTINUOUS
 62
     5
 10
-13.25
 20
-81.473390603300004
 30
0.0
 11
-13.25
 21
81.473390603300004
 31
0.0
  0
LINE
  8
DETAIL
  6
CONTINUOUS
 62
     5
 10
-10.75
 20
81.473390603300004
 30
0.0
 11
-10.75
 21
-81.473390603300004
 31
0.0
  0
LINE
  8
DETAIL
  6
CONTINUOUS
 62
     5
 10
-19.676259871989711
 20
83.820875898599994
 30
0.0
 11
-12.323740128010741
 21
83.820875898599994
 31
0.0
  0
LINE
  8
DETAIL
  6
CONTINUOUS
 62
     5
 10
-18.75
 20
81.25
 30
0.0
 11
-13.25
 21
81.25
 31
0.0
  0
LINE
  8
DETAIL
  6
CONTINUOUS
 62
     5
 10
-19.676259871989711
 20
-83.820875898599994
 30
0.0
 11
-12.323740128010741
 21
-83.820875898599994
 31
0.0
  0
LINE
  8
DETAIL
  6
CONTINUOUS
 62
     5
 10
-18.75
 20
-81.25
 30
0.0
 11
-13.25
 21
-81.25
 31
0.0
  0
LINE
  8
DETAIL
  6
CONTINUOUS
 62
     5
 10
-21.25
 20
-81.473390603300004
 30
0.0
 11
-21.25
 21
81.473390603300004
 31
0.0
  0
LINE
  8
DETAIL
  6
CONTINUOUS
 62
     5
 10
-18.75
 20
81.473390603300004
 30
0.0
 11
-18.75
 21
-81.473390603300004
 31
0.0
  0
LINE
  8
DETAIL
  6
CONTINUOUS
 62
     5
 10
-27.676259871989259
 20
83.820875898599994
 30
0.0
 11
-20.323740128010741
 21
83.820875898599994
 31
0.0
  0
LINE
  8
DETAIL
  6
CONTINUOUS
 62
     5
 10
-26.75
 20
81.25
 30
0.0
 11
-21.25
 21
81.25
 31
0.0
  0
LINE
  8
DETAIL
  6
CONTINUOUS
 62
     5
 10
-27.676259871989259
 20
-83.820875898599994
 30
0.0
 11
-20.323740128010741
 21
-83.820875898599994
 31
0.0
  0
LINE
  8
DETAIL
  6
CONTINUOUS
 62
     5
 10
-26.75
 20
-81.25
 30
0.0
 11
-21.25
 21
-81.25
 31
0.0
  0
LINE
  8
DETAIL
  6
CONTINUOUS
 62
     5
 10
-29.25
 20
-81.473390603300004
 30
0.0
 11
-29.25
 21
81.473390603300004
 31
0.0
  0
LINE
  8
DETAIL
  6
CONTINUOUS
 62
     5
 10
-26.75
 20
81.473390603300004
 30
0.0
 11
-26.75
 21
-81.473390603300004
 31
0.0
  0
LINE
  8
DETAIL
  6
CONTINUOUS
 62
     5
 10
-35.676259871989707
 20
83.820875898599994
 30
0.0
 11
-28.323740128010741
 21
83.820875898599994
 31
0.0
  0
LINE
  8
DETAIL
  6
CONTINUOUS
 62
     5
 10
-34.75
 20
81.25
 30
0.0
 11
-29.25
 21
81.25
 31
0.0
  0
LINE
  8
DETAIL
  6
CONTINUOUS
 62
     5
 10
-35.676259871989707
 20
-83.820875898599994
 30
0.0
 11
-28.323740128010741
 21
-83.820875898599994
 31
0.0
  0
LINE
  8
DETAIL
  6
CONTINUOUS
 62
     5
 10
-34.75
 20
-81.25
 30
0.0
 11
-29.25
 21
-81.25
 31
0.0
  0
LINE
  8
DETAIL
  6
CONTINUOUS
 62
     5
 10
-37.25
 20
-81.473390603300004
 30
0.0
 11
-37.25
 21
81.473390603300004
 31
0.0
  0
LINE
  8
DETAIL
  6
CONTINUOUS
 62
     5
 10
-34.75
 20
81.473390603300004
 30
0.0
 11
-34.75
 21
-81.473390603300004
 31
0.0
  0
LINE
  8
DETAIL
  6
CONTINUOUS
 62
     5
 10
-43.676259871989259
 20
83.820875898599994
 30
0.0
 11
-36.323740128010733
 21
83.820875898599994
 31
0.0
  0
LINE
  8
DETAIL
  6
CONTINUOUS
 62
     5
 10
-42.750000000000448
 20
81.25
 30
0.0
 11
-37.25
 21
81.25
 31
0.0
  0
LINE
  8
DETAIL
  6
CONTINUOUS
 62
     5
 10
-43.676259871989259
 20
-83.820875898599994
 30
0.0
 11
-36.323740128010733
 21
-83.820875898599994
 31
0.0
  0
LINE
  8
DETAIL
  6
CONTINUOUS
 62
     5
 10
-42.750000000000448
 20
-81.25
 30
0.0
 11
-37.25
 21
-81.25
 31
0.0
  0
LINE
  8
DETAIL
  6
CONTINUOUS
 62
     5
 10
-45.250000000000448
 20
-81.473390603300004
 30
0.0
 11
-45.250000000000448
 21
81.473390603300004
 31
0.0
  0
LINE
  8
DETAIL
  6
CONTINUOUS
 62
     5
 10
-42.750000000000448
 20
81.473390603300004
 30
0.0
 11
-42.750000000000448
 21
-81.473390603300004
 31
0.0
  0
LINE
  8
DETAIL
  6
CONTINUOUS
 62
     5
 10
-51.676259871989259
 20
83.820875898599994
 30
0.0
 11
-44.323740128010733
 21
83.820875898599994
 31
0.0
  0
LINE
  8
DETAIL
  6
CONTINUOUS
 62
     5
 10
-50.75
 20
81.25
 30
0.0
 11
-45.250000000000448
 21
81.25
 31
0.0
  0
LINE
  8
DETAIL
  6
CONTINUOUS
 62
     5
 10
-51.676259871989259
 20
-83.820875898599994
 30
0.0
 11
-44.323740128010733
 21
-83.820875898599994
 31
0.0
  0
LINE
  8
DETAIL
  6
CONTINUOUS
 62
     5
 10
-50.75
 20
-81.25
 30
0.0
 11
-45.250000000000448
 21
-81.25
 31
0.0
  0
LINE
  8
DETAIL
  6
CONTINUOUS
 62
     5
 10
-53.25
 20
-81.473390603300004
 30
0.0
 11
-53.25
 21
81.473390603300004
 31
0.0
  0
LINE
  8
DETAIL
  6
CONTINUOUS
 62
     5
 10
-50.75
 20
81.473390603300004
 30
0.0
 11
-50.75
 21
-81.473390603300004
 31
0.0
  0
LINE
  8
DETAIL
  6
CONTINUOUS
 62
     5
 10
-59.6762598719897
 20
83.820875898599994
 30
0.0
 11
-52.323740128010741
 21
83.820875898599994
 31
0.0
  0
LINE
  8
DETAIL
  6
CONTINUOUS
 62
     5
 10
-58.75
 20
81.25
 30
0.0
 11
-53.25
 21
81.25
 31
0.0
  0
LINE
  8
DETAIL
  6
CONTINUOUS
 62
     5
 10
-59.6762598719897
 20
-83.820875898599994
 30
0.0
 11
-52.323740128010741
 21
-83.820875898599994
 31
0.0
  0
LINE
  8
DETAIL
  6
CONTINUOUS
 62
     5
 10
-58.75
 20
-81.25
 30
0.0
 11
-53.25
 21
-81.25
 31
0.0
  0
LINE
  8
DETAIL
  6
CONTINUOUS
 62
     5
 10
-61.25
 20
-81.473390603300004
 30
0.0
 11
-61.25
 21
81.473390603300004
 31
0.0
  0
LINE
  8
DETAIL
  6
CONTINUOUS
 62
     5
 10
-58.75
 20
81.473390603300004
 30
0.0
 11
-58.75
 21
-81.473390603300004
 31
0.0
  0
LINE
  8
DETAIL
  6
CONTINUOUS
 62
     5
 10
-67.676259871989259
 20
83.820875898599994
 30
0.0
 11
-60.323740128010741
 21
83.820875898599994
 31
0.0
  0
LINE
  8
DETAIL
  6
CONTINUOUS
 62
     5
 10
-66.75
 20
81.25
 30
0.0
 11
-61.25
 21
81.25
 31
0.0
  0
LINE
  8
DETAIL
  6
CONTINUOUS
 62
     5
 10
-67.676259871989259
 20
-83.820875898599994
 30
0.0
 11
-60.323740128010741
 21
-83.820875898599994
 31
0.0
  0
LINE
  8
DETAIL
  6
CONTINUOUS
 62
     5
 10
-66.75
 20
-81.25
 30
0.0
 11
-61.25
 21
-81.25
 31
0.0
  0
LINE
  8
DETAIL
  6
CONTINUOUS
 62
     5
 10
-69.25
 20
-81.473390603300004
 30
0.0
 11
-69.25
 21
81.473390603300004
 31
0.0
  0
LINE
  8
DETAIL
  6
CONTINUOUS
 62
     5
 10
-66.75
 20
81.473390603300004
 30
0.0
 11
-66.75
 21
-81.473390603300004
 31
0.0
  0
LINE
  8
DETAIL
  6
CONTINUOUS
 62
     5
 10
-76.323740128010726
 20
-83.820875898599994
 30
0.0
 11
-83.676259871989274
 21
-83.820875898599994
 31
0.0
  0
LINE
  8
DETAIL
  6
CONTINUOUS
 62
     5
 10
-82.750000000000455
 20
-81.25
 30
0.0
 11
-77.25
 21
-81.25
 31
0.0
  0
LINE
  8
DETAIL
  6
CONTINUOUS
 62
     5
 10
-77.25
 20
-81.473390603300004
 30
0.0
 11
-77.25
 21
81.473390603300004
 31
0.0
  0
LINE
  8
DETAIL
  6
CONTINUOUS
 62
     5
 10
-74.75
 20
81.473390603300004
 30
0.0
 11
-74.75
 21
-81.473390603300004
 31
0.0
  0
LINE
  8
DETAIL
  6
CONTINUOUS
 62
     5
 10
-75.6762598719897
 20
-83.820875898599994
 30
0.0
 11
-68.323740128010741
 21
-83.820875898599994
 31
0.0
  0
LINE
  8
DETAIL
  6
CONTINUOUS
 62
     5
 10
-74.75
 20
-81.25
 30
0.0
 11
-69.25
 21
-81.25
 31
0.0
  0
LINE
  8
DETAIL
  6
CONTINUOUS
 62
     5
 10
-82.750000000000455
 20
81.473390603300004
 30
0.0
 11
-82.750000000000455
 21
-81.473390603300004
 31
0.0
  0
LINE
  8
DETAIL
  6
CONTINUOUS
 62
     5
 10
-82.750000000000455
 20
81.25
 30
0.0
 11
-77.25
 21
81.25
 31
0.0
  0
LINE
  8
DETAIL
  6
CONTINUOUS
 62
     5
 10
-76.323740128010726
 20
83.820875898599994
 30
0.0
 11
-83.676259871989274
 21
83.820875898599994
 31
0.0
  0
LINE
  8
DETAIL
  6
CONTINUOUS
 62
     5
 10
-75.6762598719897
 20
83.820875898599994
 30
0.0
 11
-68.323740128010741
 21
83.820875898599994
 31
0.0
  0
LINE
  8
DETAIL
  6
CONTINUOUS
 62
     5
 10
-74.75
 20
81.25
 30
0.0
 11
-69.25
 21
81.25
 31
0.0
  0
ARC
  8
DETAIL
  6
CONTINUOUS
 62
     5
 10
0.0
 20
0.0
 30
0.0
 40
14.99999999999997
 50
290.41964706418082
 51
315.77995557231861
  0
ARC
  8
DETAIL
  6
CONTINUOUS
 62
     5
 10
9.7154076796982718
 20
-15.15291568052726
 30
0.0
 40
2.9999999999999929
 50
69.826499437993846
 51
122.6660167273015
  0
ARC
  8
DETAIL
  6
CONTINUOUS
 62
     5
 10
0.0000000000454747
 20
-0.0000000001311946
 30
0.0
 40
52.224999999999959
 50
280.27849301020098
 51
281.87868298936559
  0
ARC
  8
DETAIL
  6
CONTINUOUS
 62
     5
 10
14.456582494417489
 20
6.8561813409321521
 30
0.0
 40
0.9999999999999776
 50
205.37312268790319
 51
275.71076449050253
  0
ARC
  8
DETAIL
  6
CONTINUOUS
 62
     5
 10
-0.0000000000909495
 20
-0.0000000001050466
 30
0.0
 40
52.225000000000072
 50
160.27849301020109
 51
166.35033775700799
  0
ARC
  8
DETAIL
  6
CONTINUOUS
 62
     5
 10
-17.980513760544
 20
-0.8373320186090041
 30
0.0
 40
2.9999999999999711
 50
255.13778651358439
 51
2.6660167272960482
  0
ARC
  8
DETAIL
  6
CONTINUOUS
 62
     5
 10
-1.290664032963377
 20
-15.94785836266851
 30
0.0
 40
1.0000000000000031
 50
85.37312268789843
 51
155.71076449049951
  0
ARC
  8
DETAIL
  6
CONTINUOUS
 62
     5
 10
0.0
 20
0.0
 30
0.0
 40
52.22499999999998
 50
40.278493010202503
 51
44.499224739788168
  0
ARC
  8
DETAIL
  6
CONTINUOUS
 62
     5
 10
36.791386602799783
 20
31.177628146499959
 30
0.0
 40
3.99999999999996
 50
276.58363117792902
 51
40.278509273595184
  0
ARC
  8
DETAIL
  6
CONTINUOUS
 62
     5
 10
8.2651060807997947
 20
15.990247698900021
 30
0.0
 40
3.0000000000000302
 50
126.10501614149879
 51
242.66601672730221
  0
ARC
  8
DETAIL
  6
CONTINUOUS
 62
     5
 10
0.0
 20
0.0
 30
0.0
 40
15.00000000000002
 50
332.04711341086488
 51
27.952886589135051
  0
ARC
  8
DETAIL
  6
CONTINUOUS
 62
     5
 10
0.0
 20
0.0
 30
0.0
 40
15.00000000000002
 50
44.220044427681458
 51
69.512684885276215
  0
ARC
  8
DETAIL
  6
CONTINUOUS
 62
     5
 10
0.0
 20
0.0
 30
0.0
 40
14.99999999999998
 50
79.436022410944403
 51
100.5639775890556
  0
ARC
  8
DETAIL
  6
CONTINUOUS
 62
     5
 10
0.0
 20
0.0
 30
0.0
 40
14.999999999999989
 50
110.4873151147238
 51
135.77995557231861
  0
ARC
  8
DETAIL
  6
CONTINUOUS
 62
     5
 10
0.0
 20
0.0
 30
0.0
 40
14.99999999999997
 50
152.04711341086491
 51
207.95288658913509
  0
ARC
  8
DETAIL
  6
CONTINUOUS
 62
     5
 10
0.0
 20
0.0
 30
0.0
 40
14.99999999999997
 50
224.2200444276815
 51
249.5126848852762
  0
ARC
  8
DETAIL
  6
CONTINUOUS
 62
     5
 10
0.0
 20
0.0
 30
0.0
 40
14.99999999999998
 50
259.43602241093771
 51
280.56397758905558
  0
ARC
  8
DETAIL
  6
CONTINUOUS
 62
     5
 10
0.0
 20
0.0
 30
0.0
 40
52.225000000000001
 50
48.287737257873736
 51
55.938905267985533
  0
ARC
  8
DETAIL
  6
CONTINUOUS
 62
     5
 10
0.0
 20
0.0
 30
0.0
 40
52.225000000000001
 50
59.189064468716197
 51
65.990177523410821
  0
ARC
  8
DETAIL
  6
CONTINUOUS
 62
     5
 10
0.0
 20
0.0
 30
0.0
 40
52.225000000000001
 50
68.959764762077029
 51
75.302845350342807
  0
ARC
  8
DETAIL
  6
CONTINUOUS
 62
     5
 10
0.0
 20
0.0
 30
0.0
 40
52.225000000000001
 50
78.121317010587902
 51
84.230506614557271
  0
ARC
  8
DETAIL
  6
CONTINUOUS
 62
     5
 10
0.0
 20
0.0
 30
0.0
 40
52.225000000000001
 50
86.98159313980679
 51
93.01840686019321
  0
ARC
  8
DETAIL
  6
CONTINUOUS
 62
     5
 10
0.0
 20
0.0
 30
0.0
 40
52.225000000000023
 50
95.769493385442729
 51
101.8786829894121
  0
ARC
  8
DETAIL
  6
CONTINUOUS
 62
     5
 10
-45.396311306104501
 20
16.27346136512438
 30
0.0
 40
4.0000000000000364
 50
87.903777303177662
 51
160.27850927359671
  0
ARC
  8
DETAIL
  6
CONTINUOUS
 62
     5
 10
-0.0000000000909495
 20
-0.0000000001050466
 30
0.0
 40
52.225000000000023
 50
193.64966224299209
 51
209.95208085374401
  0
ARC
  8
DETAIL
  6
CONTINUOUS
 62
     5
 10
-0.0000000000909495
 20
-0.0000000001050466
 30
0.0
 40
52.22499999999998
 50
215.05775245514781
 51
223.4609268295022
  0
ARC
  8
DETAIL
  6
CONTINUOUS
 62
     5
 10
8.6049247032588028
 20
-47.451089511860573
 30
0.0
 40
3.9999999999999698
 50
212.99362353323599
 51
280.27850927360168
  0
ARC
  8
DETAIL
  6
CONTINUOUS
 62
     5
 10
0.0000000000454747
 20
-0.0000000001311946
 30
0.0
 40
52.225000000000001
 50
284.69715464960342
 51
291.04023523786719
  0
ARC
  8
DETAIL
  6
CONTINUOUS
 62
     5
 10
0.0000000000454747
 20
-0.0000000001311946
 30
0.0
 40
52.22499999999998
 50
294.00982247653229
 51
300.81093553122332
  0
ARC
  8
DETAIL
  6
CONTINUOUS
 62
     5
 10
0.0000000000454747
 20
-0.0000000001311946
 30
0.0
 40
52.22499999999998
 50
304.06109473195932
 51
311.71226274206072
  0
ARC
  8
DETAIL
  6
CONTINUOUS
 62
     5
 10
0.0000000000454747
 20
-0.0000000001311946
 30
0.0
 40
52.22499999999998
 50
315.50077526013843
 51
324.94224754494343
  0
ARC
  8
DETAIL
  6
CONTINUOUS
 62
     5
 10
0.0000000000454747
 20
-0.0000000001311946
 30
0.0
 40
52.224999999999959
 50
330.04791914635928
 51
343.46092682950189
  0
ARC
  8
DETAIL
  6
CONTINUOUS
 62
     5
 10
0.0
 20
0.0
 30
0.0
 40
55.500000000000021
 50
23.87729745243595
 51
35.381448509454273
  0
ARC
  8
DETAIL
  6
CONTINUOUS
 62
     5
 10
0.0
 20
0.0
 30
0.0
 40
55.500000000000007
 50
39.621834907237613
 51
47.842479172920257
  0
ARC
  8
DETAIL
  6
CONTINUOUS
 62
     5
 10
0.0
 20
0.0
 30
0.0
 40
55.500000000000007
 50
51.235110068232501
 51
58.195197779506422
  0
ARC
  8
DETAIL
  6
CONTINUOUS
 62
     5
 10
0.0
 20
0.0
 30
0.0
 40
55.500000000000021
 50
61.185071419228578
 51
67.487630222809528
  0
ARC
  8
DETAIL
  6
CONTINUOUS
 62
     5
 10
0.0
 20
0.0
 30
0.0
 40
55.500000000000021
 50
70.254801899440196
 51
76.18788833863789
  0
ARC
  8
DETAIL
  6
CONTINUOUS
 62
     5
 10
0.0
 20
0.0
 30
0.0
 40
55.500000000000021
 50
78.831577086572722
 51
84.572013284835393
  0
ARC
  8
DETAIL
  6
CONTINUOUS
 62
     5
 10
0.0
 20
0.0
 30
0.0
 40
55.500000000000021
 50
87.159856957995473
 51
92.840143042004541
  0
ARC
  8
DETAIL
  6
CONTINUOUS
 62
     5
 10
0.0
 20
0.0
 30
0.0
 40
55.5
 50
95.427986715164622
 51
101.16842291342731
  0
ARC
  8
DETAIL
  6
CONTINUOUS
 62
     5
 10
0.0
 20
0.0
 30
0.0
 40
55.5
 50
103.8121116613621
 51
109.74519810055961
  0
ARC
  8
DETAIL
  6
CONTINUOUS
 62
     5
 10
0.0
 20
0.0
 30
0.0
 40
55.500000000000021
 50
112.5123697771905
 51
118.81492858077139
  0
ARC
  8
DETAIL
  6
CONTINUOUS
 62
     5
 10
0.0
 20
0.0
 30
0.0
 40
55.5
 50
121.8048022204936
 51
128.7648899317675
  0
ARC
  8
DETAIL
  6
CONTINUOUS
 62
     5
 10
0.0
 20
0.0
 30
0.0
 40
55.500000000000021
 50
132.15752082707971
 51
140.3781650927624
  0
ARC
  8
DETAIL
  6
CONTINUOUS
 62
     5
 10
0.0
 20
0.0
 30
0.0
 40
55.5
 50
144.61855149054571
 51
156.12270254756399
  0
ARC
  8
DETAIL
  6
CONTINUOUS
 62
     5
 10
0.0
 20
0.0
 30
0.0
 40
55.500000000000021
 50
163.6295492630075
 51
196.3704507369925
  0
ARC
  8
DETAIL
  6
CONTINUOUS
 62
     5
 10
0.0
 20
0.0
 30
0.0
 40
55.500000000000021
 50
203.87729745243601
 51
215.38144850945429
  0
ARC
  8
DETAIL
  6
CONTINUOUS
 62
     5
 10
0.0
 20
0.0
 30
0.0
 40
55.499999999999979
 50
219.6218349072376
 51
227.84247917292021
  0
ARC
  8
DETAIL
  6
CONTINUOUS
 62
     5
 10
0.0
 20
0.0
 30
0.0
 40
55.500000000000007
 50
231.2351100682325
 51
238.19519777950649
  0
ARC
  8
DETAIL
  6
CONTINUOUS
 62
     5
 10
0.0
 20
0.0
 30
0.0
 40
55.5
 50
241.18507141922851
 51
247.48763022280951
  0
ARC
  8
DETAIL
  6
CONTINUOUS
 62
     5
 10
0.0
 20
0.0
 30
0.0
 40
55.5
 50
250.25480189944011
 51
256.18788833863789
  0
ARC
  8
DETAIL
  6
CONTINUOUS
 62
     5
 10
0.0
 20
0.0
 30
0.0
 40
55.500000000000007
 50
258.83157708657268
 51
264.57201328483541
  0
ARC
  8
DETAIL
  6
CONTINUOUS
 62
     5
 10
0.0
 20
0.0
 30
0.0
 40
55.5
 50
267.15985695799537
 51
272.84014304200468
  0
ARC
  8
DETAIL
  6
CONTINUOUS
 62
     5
 10
0.0
 20
0.0
 30
0.0
 40
55.499999999999979
 50
275.42798671516459
 51
281.16842291342732
  0
ARC
  8
DETAIL
  6
CONTINUOUS
 62
     5
 10
0.0
 20
0.0
 30
0.0
 40
55.500000000000007
 50
283.81211166135517
 51
289.74519810055949
  0
ARC
  8
DETAIL
  6
CONTINUOUS
 62
     5
 10
0.0
 20
0.0
 30
0.0
 40
55.499999999999979
 50
292.51236977719049
 51
298.81492858077138
  0
ARC
  8
DETAIL
  6
CONTINUOUS
 62
     5
 10
0.0
 20
0.0
 30
0.0
 40
55.5
 50
301.80480222049363
 51
308.76488993176753
  0
ARC
  8
DETAIL
  6
CONTINUOUS
 62
     5
 10
0.0
 20
0.0
 30
0.0
 40
55.500000000000021
 50
312.15752082707968
 51
320.3781650927624
  0
ARC
  8
DETAIL
  6
CONTINUOUS
 62
     5
 10
0.0
 20
0.0
 30
0.0
 40
55.500000000000021
 50
324.61855149054571
 51
336.12270254756407
  0
ARC
  8
DETAIL
  6
CONTINUOUS
 62
     5
 10
0.0
 20
0.0
 30
0.0
 40
55.500000000000021
 50
343.6295492630075
 51
16.370450736992471
  0
LINE
  8
BASIS
  6
DASHDOT
 62
     6
 10
0.0
 20
109.7929570428
 30
0.0
 11
0.0
 21
-114.82618259740001
 31
0.0
  0
LINE
  8
DETAIL
  6
CONTINUOUS
 62
     5
 10
83.676259871989274
 20
83.820875898599994
 30
0.0
 11
82.75
 21
81.473390603300004
 31
0.0
  0
LINE
  8
DETAIL
  6
CONTINUOUS
 62
     5
 10
76.323740128010726
 20
83.820875898599994
 30
0.0
 11
77.25
 21
81.473390603300004
 31
0.0
  0
LINE
  8
DETAIL
  6
CONTINUOUS
 62
     5
 10
75.676259871989274
 20
83.820875898599994
 30
0.0
 11
74.75
 21
81.473390603300004
 31
0.0
  0
LINE
  8
DETAIL
  6
CONTINUOUS
 62
     5
 10
68.323740128010741
 20
83.820875898599994
 30
0.0
 11
69.25
 21
81.473390603300004
 31
0.0
  0
LINE
  8
DETAIL
  6
CONTINUOUS
 62
     5
 10
67.676259871989259
 20
83.820875898599994
 30
0.0
 11
66.75
 21
81.473390603300004
 31
0.0
  0
LINE
  8
DETAIL
  6
CONTINUOUS
 62
     5
 10
60.323740128010741
 20
83.820875898599994
 30
0.0
 11
61.25
 21
81.473390603300004
 31
0.0
  0
LINE
  8
DETAIL
  6
CONTINUOUS
 62
     5
 10
59.676259871989259
 20
83.820875898599994
 30
0.0
 11
58.75
 21
81.473390603300004
 31
0.0
  0
LINE
  8
DETAIL
  6
CONTINUOUS
 62
     5
 10
52.323740128010741
 20
83.820875898599994
 30
0.0
 11
53.25
 21
81.473390603300004
 31
0.0
  0
LINE
  8
DETAIL
  6
CONTINUOUS
 62
     5
 10
51.676259871989259
 20
83.820875898599994
 30
0.0
 11
50.75
 21
81.473390603300004
 31
0.0
  0
LINE
  8
DETAIL
  6
CONTINUOUS
 62
     5
 10
44.323740128010733
 20
83.820875898599994
 30
0.0
 11
45.25
 21
81.473390603300004
 31
0.0
  0
LINE
  8
DETAIL
  6
CONTINUOUS
 62
     5
 10
43.676259871989259
 20
83.820875898599994
 30
0.0
 11
42.75
 21
81.473390603300004
 31
0.0
  0
LINE
  8
DETAIL
  6
CONTINUOUS
 62
     5
 10
36.323740128010733
 20
83.820875898599994
 30
0.0
 11
37.25
 21
81.473390603300004
 31
0.0
  0
LINE
  8
DETAIL
  6
CONTINUOUS
 62
     5
 10
35.676259871989259
 20
83.820875898599994
 30
0.0
 11
34.75
 21
81.473390603300004
 31
0.0
  0
LINE
  8
DETAIL
  6
CONTINUOUS
 62
     5
 10
28.323740128010741
 20
83.820875898599994
 30
0.0
 11
29.25
 21
81.473390603300004
 31
0.0
  0
LINE
  8
DETAIL
  6
CONTINUOUS
 62
     5
 10
27.676259871989259
 20
83.820875898599994
 30
0.0
 11
26.75
 21
81.473390603300004
 31
0.0
  0
LINE
  8
DETAIL
  6
CONTINUOUS
 62
     5
 10
20.323740128010741
 20
83.820875898599994
 30
0.0
 11
21.25
 21
81.473390603300004
 31
0.0
  0
LINE
  8
DETAIL
  6
CONTINUOUS
 62
     5
 10
19.676259871989259
 20
83.820875898599994
 30
0.0
 11
18.75
 21
81.473390603300004
 31
0.0
  0
LINE
  8
DETAIL
  6
CONTINUOUS
 62
     5
 10
12.323740128010741
 20
83.820875898599994
 30
0.0
 11
13.25
 21
81.473390603300004
 31
0.0
  0
LINE
  8
DETAIL
  6
CONTINUOUS
 62
     5
 10
11.676259871989259
 20
83.820875898599994
 30
0.0
 11
10.75
 21
81.473390603300004
 31
0.0
  0
LINE
  8
DETAIL
  6
CONTINUOUS
 62
     5
 10
4.3237401280107406
 20
83.820875898599994
 30
0.0
 11
5.25
 21
81.473390603300004
 31
0.0
  0
LINE
  8
DETAIL
  6
CONTINUOUS
 62
     5
 10
3.676259871989259
 20
83.820875898599994
 30
0.0
 11
2.75
 21
81.473390603300004
 31
0.0
  0
LINE
  8
DETAIL
  6
CONTINUOUS
 62
     5
 10
-83.676259871989274
 20
83.820875898599994
 30
0.0
 11
-82.75
 21
81.473390603300004
 31
0.0
  0
LINE
  8
DETAIL
  6
CONTINUOUS
 62
     5
 10
-76.323740128010726
 20
83.820875898599994
 30
0.0
 11
-77.25
 21
81.473390603300004
 31
0.0
  0
LINE
  8
DETAIL
  6
CONTINUOUS
 62
     5
 10
-75.676259871989274
 20
83.820875898599994
 30
0.0
 11
-74.75
 21
81.473390603300004
 31
0.0
  0
LINE
  8
DETAIL
  6
CONTINUOUS
 62
     5
 10
-68.323740128010741
 20
83.820875898599994
 30
0.0
 11
-69.25
 21
81.473390603300004
 31
0.0
  0
LINE
  8
DETAIL
  6
CONTINUOUS
 62
     5
 10
-67.676259871989259
 20
83.820875898599994
 30
0.0
 11
-66.75
 21
81.473390603300004
 31
0.0
  0
LINE
  8
DETAIL
  6
CONTINUOUS
 62
     5
 10
-60.323740128010741
 20
83.820875898599994
 30
0.0
 11
-61.25
 21
81.473390603300004
 31
0.0
  0
LINE
  8
DETAIL
  6
CONTINUOUS
 62
     5
 10
-59.676259871989259
 20
83.820875898599994
 30
0.0
 11
-58.75
 21
81.473390603300004
 31
0.0
  0
LINE
  8
DETAIL
  6
CONTINUOUS
 62
     5
 10
-52.323740128010741
 20
83.820875898599994
 30
0.0
 11
-53.25
 21
81.473390603300004
 31
0.0
  0
LINE
  8
DETAIL
  6
CONTINUOUS
 62
     5
 10
-51.676259871989259
 20
83.820875898599994
 30
0.0
 11
-50.75
 21
81.473390603300004
 31
0.0
  0
LINE
  8
DETAIL
  6
CONTINUOUS
 62
     5
 10
-44.323740128010733
 20
83.820875898599994
 30
0.0
 11
-45.25
 21
81.473390603300004
 31
0.0
  0
LINE
  8
DETAIL
  6
CONTINUOUS
 62
     5
 10
-43.676259871989259
 20
83.820875898599994
 30
0.0
 11
-42.75
 21
81.473390603300004
 31
0.0
  0
LINE
  8
DETAIL
  6
CONTINUOUS
 62
     5
 10
-36.323740128010733
 20
83.820875898599994
 30
0.0
 11
-37.25
 21
81.473390603300004
 31
0.0
  0
LINE
  8
DETAIL
  6
CONTINUOUS
 62
     5
 10
-35.676259871989259
 20
83.820875898599994
 30
0.0
 11
-34.75
 21
81.473390603300004
 31
0.0
  0
LINE
  8
DETAIL
  6
CONTINUOUS
 62
     5
 10
-28.323740128010741
 20
83.820875898599994
 30
0.0
 11
-29.25
 21
81.473390603300004
 31
0.0
  0
LINE
  8
DETAIL
  6
CONTINUOUS
 62
     5
 10
-27.676259871989259
 20
83.820875898599994
 30
0.0
 11
-26.75
 21
81.473390603300004
 31
0.0
  0
LINE
  8
DETAIL
  6
CONTINUOUS
 62
     5
 10
-20.323740128010741
 20
83.820875898599994
 30
0.0
 11
-21.25
 21
81.473390603300004
 31
0.0
  0
LINE
  8
DETAIL
  6
CONTINUOUS
 62
     5
 10
-19.676259871989259
 20
83.820875898599994
 30
0.0
 11
-18.75
 21
81.473390603300004
 31
0.0
  0
LINE
  8
DETAIL
  6
CONTINUOUS
 62
     5
 10
-12.323740128010741
 20
83.820875898599994
 30
0.0
 11
-13.25
 21
81.473390603300004
 31
0.0
  0
LINE
  8
DETAIL
  6
CONTINUOUS
 62
     5
 10
-11.676259871989259
 20
83.820875898599994
 30
0.0
 11
-10.75
 21
81.473390603300004
 31
0.0
  0
LINE
  8
DETAIL
  6
CONTINUOUS
 62
     5
 10
-4.3237401280107406
 20
83.820875898599994
 30
0.0
 11
-5.25
 21
81.473390603300004
 31
0.0
  0
LINE
  8
DETAIL
  6
CONTINUOUS
 62
     5
 10
-3.676259871989259
 20
83.820875898599994
 30
0.0
 11
-2.75
 21
81.473390603300004
 31
0.0
  0
LINE
  8
DETAIL
  6
CONTINUOUS
 62
     5
 10
83.676259871989274
 20
-83.820875898599994
 30
0.0
 11
82.75
 21
-81.473390603300004
 31
0.0
  0
LINE
  8
DETAIL
  6
CONTINUOUS
 62
     5
 10
76.323740128010726
 20
-83.820875898599994
 30
0.0
 11
77.25
 21
-81.473390603300004
 31
0.0
  0
LINE
  8
DETAIL
  6
CONTINUOUS
 62
     5
 10
75.676259871989274
 20
-83.820875898599994
 30
0.0
 11
74.75
 21
-81.473390603300004
 31
0.0
  0
LINE
  8
DETAIL
  6
CONTINUOUS
 62
     5
 10
68.323740128010741
 20
-83.820875898599994
 30
0.0
 11
69.25
 21
-81.473390603300004
 31
0.0
  0
LINE
  8
DETAIL
  6
CONTINUOUS
 62
     5
 10
67.676259871989259
 20
-83.820875898599994
 30
0.0
 11
66.75
 21
-81.473390603300004
 31
0.0
  0
LINE
  8
DETAIL
  6
CONTINUOUS
 62
     5
 10
60.323740128010741
 20
-83.820875898599994
 30
0.0
 11
61.25
 21
-81.473390603300004
 31
0.0
  0
LINE
  8
DETAIL
  6
CONTINUOUS
 62
     5
 10
59.676259871989259
 20
-83.820875898599994
 30
0.0
 11
58.75
 21
-81.473390603300004
 31
0.0
  0
LINE
  8
DETAIL
  6
CONTINUOUS
 62
     5
 10
52.323740128010741
 20
-83.820875898599994
 30
0.0
 11
53.25
 21
-81.473390603300004
 31
0.0
  0
LINE
  8
DETAIL
  6
CONTINUOUS
 62
     5
 10
51.676259871989259
 20
-83.820875898599994
 30
0.0
 11
50.75
 21
-81.473390603300004
 31
0.0
  0
LINE
  8
DETAIL
  6
CONTINUOUS
 62
     5
 10
44.323740128010733
 20
-83.820875898599994
 30
0.0
 11
45.25
 21
-81.473390603300004
 31
0.0
  0
LINE
  8
DETAIL
  6
CONTINUOUS
 62
     5
 10
43.676259871989259
 20
-83.820875898599994
 30
0.0
 11
42.75
 21
-81.473390603300004
 31
0.0
  0
LINE
  8
DETAIL
  6
CONTINUOUS
 62
     5
 10
36.323740128010733
 20
-83.820875898599994
 30
0.0
 11
37.25
 21
-81.473390603300004
 31
0.0
  0
LINE
  8
DETAIL
  6
CONTINUOUS
 62
     5
 10
35.676259871989259
 20
-83.820875898599994
 30
0.0
 11
34.75
 21
-81.473390603300004
 31
0.0
  0
LINE
  8
DETAIL
  6
CONTINUOUS
 62
     5
 10
28.323740128010741
 20
-83.820875898599994
 30
0.0
 11
29.25
 21
-81.473390603300004
 31
0.0
  0
LINE
  8
DETAIL
  6
CONTINUOUS
 62
     5
 10
27.676259871989259
 20
-83.820875898599994
 30
0.0
 11
26.75
 21
-81.473390603300004
 31
0.0
  0
LINE
  8
DETAIL
  6
CONTINUOUS
 62
     5
 10
20.323740128010741
 20
-83.820875898599994
 30
0.0
 11
21.25
 21
-81.473390603300004
 31
0.0
  0
LINE
  8
DETAIL
  6
CONTINUOUS
 62
     5
 10
19.676259871989259
 20
-83.820875898599994
 30
0.0
 11
18.75
 21
-81.473390603300004
 31
0.0
  0
LINE
  8
DETAIL
  6
CONTINUOUS
 62
     5
 10
12.323740128010741
 20
-83.820875898599994
 30
0.0
 11
13.25
 21
-81.473390603300004
 31
0.0
  0
LINE
  8
DETAIL
  6
CONTINUOUS
 62
     5
 10
11.676259871989259
 20
-83.820875898599994
 30
0.0
 11
10.75
 21
-81.473390603300004
 31
0.0
  0
LINE
  8
DETAIL
  6
CONTINUOUS
 62
     5
 10
4.3237401280107406
 20
-83.820875898599994
 30
0.0
 11
5.25
 21
-81.473390603300004
 31
0.0
  0
LINE
  8
DETAIL
  6
CONTINUOUS
 62
     5
 10
3.676259871989259
 20
-83.820875898599994
 30
0.0
 11
2.75
 21
-81.473390603300004
 31
0.0
  0
LINE
  8
DETAIL
  6
CONTINUOUS
 62
     5
 10
-83.676259871989274
 20
-83.820875898599994
 30
0.0
 11
-82.75
 21
-81.473390603300004
 31
0.0
  0
LINE
  8
DETAIL
  6
CONTINUOUS
 62
     5
 10
-76.323740128010726
 20
-83.820875898599994
 30
0.0
 11
-77.25
 21
-81.473390603300004
 31
0.0
  0
LINE
  8
DETAIL
  6
CONTINUOUS
 62
     5
 10
-75.676259871989274
 20
-83.820875898599994
 30
0.0
 11
-74.75
 21
-81.473390603300004
 31
0.0
  0
LINE
  8
DETAIL
  6
CONTINUOUS
 62
     5
 10
-68.323740128010741
 20
-83.820875898599994
 30
0.0
 11
-69.25
 21
-81.473390603300004
 31
0.0
  0
LINE
  8
DETAIL
  6
CONTINUOUS
 62
     5
 10
-67.676259871989259
 20
-83.820875898599994
 30
0.0
 11
-66.75
 21
-81.473390603300004
 31
0.0
  0
LINE
  8
DETAIL
  6
CONTINUOUS
 62
     5
 10
-60.323740128010741
 20
-83.820875898599994
 30
0.0
 11
-61.25
 21
-81.473390603300004
 31
0.0
  0
LINE
  8
DETAIL
  6
CONTINUOUS
 62
     5
 10
-59.676259871989259
 20
-83.820875898599994
 30
0.0
 11
-58.75
 21
-81.473390603300004
 31
0.0
  0
LINE
  8
DETAIL
  6
CONTINUOUS
 62
     5
 10
-52.323740128010741
 20
-83.820875898599994
 30
0.0
 11
-53.25
 21
-81.473390603300004
 31
0.0
  0
LINE
  8
DETAIL
  6
CONTINUOUS
 62
     5
 10
-51.676259871989259
 20
-83.820875898599994
 30
0.0
 11
-50.75
 21
-81.473390603300004
 31
0.0
  0
LINE
  8
DETAIL
  6
CONTINUOUS
 62
     5
 10
-44.323740128010733
 20
-83.820875898599994
 30
0.0
 11
-45.25
 21
-81.473390603300004
 31
0.0
  0
LINE
  8
DETAIL
  6
CONTINUOUS
 62
     5
 10
-43.676259871989259
 20
-83.820875898599994
 30
0.0
 11
-42.75
 21
-81.473390603300004
 31
0.0
  0
LINE
  8
DETAIL
  6
CONTINUOUS
 62
     5
 10
-36.323740128010733
 20
-83.820875898599994
 30
0.0
 11
-37.25
 21
-81.473390603300004
 31
0.0
  0
LINE
  8
DETAIL
  6
CONTINUOUS
 62
     5
 10
-35.676259871989259
 20
-83.820875898599994
 30
0.0
 11
-34.75
 21
-81.473390603300004
 31
0.0
  0
LINE
  8
DETAIL
  6
CONTINUOUS
 62
     5
 10
-28.323740128010741
 20
-83.820875898599994
 30
0.0
 11
-29.25
 21
-81.473390603300004
 31
0.0
  0
LINE
  8
DETAIL
  6
CONTINUOUS
 62
     5
 10
-27.676259871989259
 20
-83.820875898599994
 30
0.0
 11
-26.75
 21
-81.473390603300004
 31
0.0
  0
LINE
  8
DETAIL
  6
CONTINUOUS
 62
     5
 10
-20.323740128010741
 20
-83.820875898599994
 30
0.0
 11
-21.25
 21
-81.473390603300004
 31
0.0
  0
LINE
  8
DETAIL
  6
CONTINUOUS
 62
     5
 10
-19.676259871989259
 20
-83.820875898599994
 30
0.0
 11
-18.75
 21
-81.473390603300004
 31
0.0
  0
LINE
  8
DETAIL
  6
CONTINUOUS
 62
     5
 10
-12.323740128010741
 20
-83.820875898599994
 30
0.0
 11
-13.25
 21
-81.473390603300004
 31
0.0
  0
LINE
  8
DETAIL
  6
CONTINUOUS
 62
     5
 10
-11.676259871989259
 20
-83.820875898599994
 30
0.0
 11
-10.75
 21
-81.473390603300004
 31
0.0
  0
LINE
  8
DETAIL
  6
CONTINUOUS
 62
     5
 10
-4.3237401280107406
 20
-83.820875898599994
 30
0.0
 11
-5.25
 21
-81.473390603300004
 31
0.0
  0
LINE
  8
DETAIL
  6
CONTINUOUS
 62
     5
 10
-3.676259871989259
 20
-83.820875898599994
 30
0.0
 11
-2.75
 21
-81.473390603300004
 31
0.0
  0
ARC
  8
DETAIL
  6
CONTINUOUS
 62
     5
 10
19.093345089350919
 20
29.91203351889817
 30
0.0
 40
37.469258090825718
 50
149.67744110555051
 51
210.3225588944552
  0
ARC
  8
DETAIL
  6
CONTINUOUS
 62
     5
 10
1.3090320311082451
 20
28.79801225018144
 30
0.0
 40
11.60795351646563
 50
296.54870729267418
 51
324.18760933960232
  0
ARC
  8
DETAIL
  6
CONTINUOUS
 62
     5
 10
50.597465645312703
 20
-105.2137124343778
 30
0.0
 40
134.44561799636381
 50
103.70246287605239
 51
106.12826818878951
  0
ARC
  8
DETAIL
  6
CONTINUOUS
 62
     5
 10
26.895254343436822
 20
12.0289715769004
 30
0.0
 40
15.63054255255328
 50
90.532456285426477
 51
111.1719542639558
  0
ARC
  8
DETAIL
  6
CONTINUOUS
 62
     5
 10
29.066433563572229
 20
-25.476605715470441
 30
0.0
 40
53.194942561286332
 50
83.866575792092362
 51
89.788668936330524
  0
ARC
  8
DETAIL
  6
CONTINUOUS
 62
     5
 10
-7.9147761700148749
 20
52.112626473624289
 30
0.0
 40
56.246313225508793
 50
250.43534447579401
 51
256.28537178060918
  0
ARC
  8
DETAIL
  6
CONTINUOUS
 62
     5
 10
-46.40665373535262
 20
-13.13446969792574
 30
0.0
 40
22.426901208606619
 50
40.092713203674997
 51
58.547996869252323
  0
ARC
  8
DETAIL
  6
CONTINUOUS
 62
     5
 10
384.69307891478371
 20
246.50484215844739
 30
0.0
 40
484.08874250185818
 50
207.99543926067281
 51
209.35215863524601
  0
ARC
  8
DETAIL
  6
CONTINUOUS
 62
     5
 10
-37.51878917408726
 20
12.29318040465051
 30
0.0
 40
48.218219734458359
 50
269.53848152707059
 51
270.31760112796951
  0
ARC
  8
DETAIL
  6
CONTINUOUS
 62
     5
 10
-37.372921429253211
 20
10.32802640900843
 30
0.0
 40
46.248063966419643
 50
273.29907464215398
 51
280.11579289023592
  0
ARC
  8
DETAIL
  6
CONTINUOUS
 62
     5
 10
-36.484047831054681
 20
6.0799508596335272
 30
0.0
 40
41.905666814564803
 50
283.43162263331658
 51
291.31726290908767
  0
ARC
  8
DETAIL
  6
CONTINUOUS
 62
     5
 10
-25.489403572652581
 20
-13.9431993130928
 30
0.0
 40
19.161166080052311
 50
290.59267628412402
 51
309.69948440977618
  0
ARC
  8
DETAIL
  6
CONTINUOUS
 62
     5
 10
-31.986250717225971
 20
-1.588411450484728
 30
0.0
 40
32.92934922843952
 50
310.15843639846798
 51
324.28470257679447
  0
ARC
  8
DETAIL
  6
CONTINUOUS
 62
     5
 10
-0.692613938347904
 20
-16.961448476382198
 30
0.0
 40
2.075841410732751
 50
104.4325689311857
 51
172.35418189765409
  0
ARC
  8
DETAIL
  6
CONTINUOUS
 62
     5
 10
5.5993864619834994
 20
-22.866111570628728
 30
0.0
 40
8.544768913845127
 50
333.55424507348317
 51
25.87676054313776
  0
ARC
  8
DETAIL
  6
CONTINUOUS
 62
     5
 10
-35.49785985104041
 20
-13.198944759033219
 30
0.0
 40
51.856794336829061
 50
321.7925691190008
 51
333.10512582556208
  0
ARC
  8
DETAIL
  6
CONTINUOUS
 62
     5
 10
9.0765262669403928
 20
-38.032246953259573
 30
0.0
 40
47.081078455883613
 50
29.474231439179128
 51
39.796469613292757
  0
ARC
  8
DETAIL
  6
CONTINUOUS
 62
     5
 10
13.70189404999701
 20
-33.828145810506498
 30
0.0
 40
40.821158817449927
 50
44.635215526147867
 51
54.769985446111242
  0
ARC
  8
DETAIL
  6
CONTINUOUS
 62
     5
 10
16.311305589534751
 20
-29.83918885896367
 30
0.0
 40
36.048035289161611
 50
59.235974233310607
 51
68.965547602601362
  0
ARC
  8
DETAIL
  6
CONTINUOUS
 62
     5
 10
17.384539718380559
 20
-26.760050047838831
 30
0.0
 40
32.782629343181682
 50
73.400283730299094
 51
83.228395554043374
  0
ARC
  8
DETAIL
  6
CONTINUOUS
 62
     5
 10
17.56872666304719
 20
-24.403873699733371
 30
0.0
 40
30.414590381094889
 50
87.797778203722572
 51
95.68460475674631
  0
LINE
  8
OUTLINE
  6
CONTINUOUS
 62
     3
 10
-105.0
 20
101.0
 30
0.0
 11
-105.0
 21
-100.9999999999998
 31
0.0
  0
LINE
  8
OUTLINE
  6
CONTINUOUS
 62
     3
 10
-101.0
 20
105.0
 30
0.0
 11
101.0
 21
105.0
 31
0.0
  0
LINE
  8
OUTLINE
  6
CONTINUOUS
 62
     3
 10
105.0
 20
-100.9999999999998
 30
0.0
 11
105.0
 21
101.0
 31
0.0
  0
LINE
  8
OUTLINE
  6
CONTINUOUS
 62
     3
 10
-101.0
 20
-105.0
 30
0.0
 11
101.0
 21
-105.0
 31
0.0
  0
ARC
  8
OUTLINE
  6
CONTINUOUS
 62
     3
 10
101.0
 20
-100.9999999999998
 30
0.0
 40
4.0000000000000027
 50
270.0
 51
0.0
  0
ARC
  8
OUTLINE
  6
CONTINUOUS
 62
     3
 10
101.0
 20
101.0
 30
0.0
 40
3.9999999999999849
 50
0.0
 51
90.0
  0
ARC
  8
OUTLINE
  6
CONTINUOUS
 62
     3
 10
-101.0
 20
101.0
 30
0.0
 40
4.0000000000000222
 50
90.0
 51
180.0
  0
ARC
  8
OUTLINE
  6
CONTINUOUS
 62
     3
 10
-101.0
 20
-100.9999999999998
 30
0.0
 40
3.9999999999999849
 50
180.0
 51
270.0
  0
ENDSEC
  0
EOF
