  0
SECTION
  2
HEADER
  9
$ACADVER
  1
AC1009
  9
$INSBASE
 10
0.0
 20
0.0
 30
0.0
  9
$EXTMIN
 10
-400.4727259999998
 20
-389.36043599999988
 30
0.0
  9
$EXTMAX
 10
1044.10868267615
 20
523.37364707964355
 30
0.0
  9
$LIMMIN
 10
-4200.0
 20
-2970.0
  9
$LIMMAX
 10
4200.0
 20
2970.0
  9
$ORTHOMODE
 70
     1
  9
$REGENMODE
 70
     0
  9
$FILLMODE
 70
     1
  9
$QTEXTMODE
 70
     0
  9
$MIRRTEXT
 70
     0
  9
$DRAGMODE
 70
     2
  9
$LTSCALE
 40
20.0
  9
$OSMODE
 70
   421
  9
$ATTMODE
 70
     1
  9
$TEXTSIZE
 40
64.0
  9
$TRACEWID
 40
0.05
  9
$TEXTSTYLE
  7
STANDARD
  9
$CLAYER
  8
OUTLINE
  9
$CELTYPE
  6
CONTINUOUS
  9
$CECOLOR
 62
     3
  9
$DIMSCALE
 40
1.0
  9
$DIMASZ
 40
2.0
  9
$DIMEXO
 40
20.0
  9
$DIMDLI
 40
200.0
  9
$DIMRND
 40
0.0
  9
$DIMDLE
 40
0.0
  9
$DIMEXE
 40
30.0
  9
$DIMTP
 40
0.0
  9
$DIMTM
 40
0.0
  9
$DIMTXT
 40
64.0
  9
$DIMCEN
 40
0.09
  9
$DIMTSZ
 40
0.0
  9
$DIMTOL
 70
     0
  9
$DIMLIM
 70
     0
  9
$DIMTIH
 70
     0
  9
$DIMTOH
 70
     0
  9
$DIMSE1
 70
     0
  9
$DIMSE2
 70
     0
  9
$DIMTAD
 70
     1
  9
$DIMZIN
 70
     8
  9
$DIMBLK
  1

  9
$DIMASO
 70
     1
  9
$DIMSHO
 70
     0
  9
$DIMPOST
  1

  9
$DIMAPOST
  1

  9
$DIMALT
 70
     0
  9
$DIMALTD
 70
     2
  9
$DIMALTF
 40
25.399999999999999
  9
$DIMLFAC
 40
1.0
  9
$DIMTOFL
 70
     1
  9
$DIMTVP
 40
0.0
  9
$DIMTIX
 70
     1
  9
$DIMSOXD
 70
     0
  9
$DIMSAH
 70
     0
  9
$DIMBLK1
  1

  9
$DIMBLK2
  1

  9
$DIMSTYLE
  2
STANDARD
  9
$DIMCLRD
 70
     0
  9
$DIMCLRE
 70
     0
  9
$DIMCLRT
 70
     0
  9
$DIMTFAC
 40
1.0
  9
$DIMGAP
 40
0.09
  9
$LUNITS
 70
     2
  9
$LUPREC
 70
     4
  9
$SKETCHINC
 40
0.1
  9
$FILLETRAD
 40
5.0
  9
$AUNITS
 70
     1
  9
$AUPREC
 70
     3
  9
$MENU
  1
ACAD
  9
$ELEVATION
 40
0.0
  9
$PELEVATION
 40
0.0
  9
$THICKNESS
 40
0.0
  9
$LIMCHECK
 70
     1
  9
$BLIPMODE
 70
     0
  9
$CHAMFERA
 40
0.0
  9
$CHAMFERB
 40
0.0
  9
$SKPOLY
 70
     0
  9
$TDCREATE
 40
2451821.680416666
  9
$TDUPDATE
 40
2454722.5605998612
  9
$TDINDWG
 40
0.1014377199
  9
$TDUSRTIMER
 40
0.1014373495
  9
$USRTIMER
 70
     1
  9
$ANGBASE
 50
0.0
  9
$ANGDIR
 70
     0
  9
$PDMODE
 70
     3
  9
$PDSIZE
 40
-2.0
  9
$PLINEWID
 40
0.0
  9
$COORDS
 70
     2
  9
$SPLFRAME
 70
     0
  9
$SPLINETYPE
 70
     6
  9
$SPLINESEGS
 70
     8
  9
$ATTDIA
 70
     0
  9
$ATTREQ
 70
     1
  9
$HANDLING
 70
 22529
  9
$HANDSEED
  5
3A4
  9
$SURFTAB1
 70
     6
  9
$SURFTAB2
 70
     6
  9
$SURFTYPE
 70
     6
  9
$SURFU
 70
     6
  9
$SURFV
 70
     6
  9
$UCSNAME
  2

  9
$UCSORG
 10
0.0
 20
0.0
 30
0.0
  9
$UCSXDIR
 10
1.0
 20
0.0
 30
0.0
  9
$UCSYDIR
 10
0.0
 20
1.0
 30
0.0
  9
$PUCSNAME
  2

  9
$PUCSORG
 10
0.0
 20
0.0
 30
0.0
  9
$PUCSXDIR
 10
1.0
 20
0.0
 30
0.0
  9
$PUCSYDIR
 10
0.0
 20
1.0
 30
0.0
  9
$USERI1
 70
     0
  9
$USERI2
 70
     0
  9
$USERI3
 70
     0
  9
$USERI4
 70
     0
  9
$USERI5
 70
     0
  9
$USERR1
 40
20.0
  9
$USERR2
 40
0.0
  9
$USERR3
 40
0.0
  9
$USERR4
 40
0.0
  9
$USERR5
 40
0.0
  9
$WORLDVIEW
 70
     1
  9
$SHADEDGE
 70
     3
  9
$SHADEDIF
 70
    70
  9
$TILEMODE
 70
     1
  9
$MAXACTVP
 70
    48
  9
$PLIMCHECK
 70
     0
  9
$PEXTMIN
 10
1.0000000000000000E+020
 20
1.0000000000000000E+020
 30
1.0000000000000000E+020
  9
$PEXTMAX
 10
-1.0000000000000000E+020
 20
-1.0000000000000000E+020
 30
-1.0000000000000000E+020
  9
$PLIMMIN
 10
0.0
 20
0.0
  9
$PLIMMAX
 10
12.0
 20
9.0
  9
$UNITMODE
 70
     0
  9
$VISRETAIN
 70
     1
  9
$PLINEGEN
 70
     0
  9
$PSLTSCALE
 70
     1
  0
ENDSEC
  0
SECTION
  2
TABLES
  0
TABLE
  2
VPORT
 70
     3
  0
VPORT
  2
*ACTIVE
 70
     0
 10
0.0
 20
0.0
 11
1.0
 21
1.0
 12
321.07456022407541
 22
62.770809231604062
 13
0.0
 23
0.0
 14
400.0
 24
400.0
 15
400.0
 25
400.0
 16
0.0
 26
0.0
 36
1.0
 17
0.0
 27
0.0
 37
0.0
 40
1124.742339400352
 41
1.493654822335025
 42
50.0
 43
0.0
 44
0.0
 50
0.0
 51
0.0
 71
     0
 72
   500
 73
     1
 74
     0
 75
     0
 76
     0
 77
     0
 78
     1
  0
ENDTAB
  0
TABLE
  2
LTYPE
 70
     7
  0
LTYPE
  2
CONTINUOUS
 70
     0
  3
実線
 72
    65
 73
     0
 40
0.0
  0
LTYPE
  2
DOT
 70
     0
  3
...............................................
 72
    65
 73
     2
 40
0.8
 49
0.5
 49
-0.3
  0
LTYPE
  2
DASHED
 70
     0
  3
_ _ _ _ _ _ _ _ _ _ _ _ _ _ _ _ _ _ _ _ _ _ _
 72
    65
 73
     2
 40
2.0
 49
1.1999999999999991
 49
-0.8
  0
LTYPE
  2
DASHDOT
 70
     0
  3
____ _ ____ _ ____ _ ____ _ ____ _ ____ _ ____
 72
    65
 73
     4
 40
5.5
 49
4.0
 49
-0.6
 49
0.3
 49
-0.6
  0
LTYPE
  2
DASHDOT1
 70
     0
  3
____ _ ____ _ ____ _ ____ _ ____ _ ____ _ ____
 72
    65
 73
     4
 40
2.0
 49
1.5
 49
-0.2
 49
0.1
 49
-0.2
  0
LTYPE
  2
DIVIDE
 70
     0
  3
_____ _ _ _____ _ _ _____ _ _ _____ _ _ ____
 72
    65
 73
     6
 40
6.4000000000000004
 49
4.0
 49
-0.6
 49
0.3
 49
-0.6
 49
0.3
 49
-0.6
  0
LTYPE
  2
DIVIDE1
 70
     0
  3
_____ _ _ _____ _ _ _____ _ _ _____ _ _ ____
 72
    65
 73
     6
 40
3.2000000000000002
 49
2.0
 49
-0.3
 49
0.15
 49
-0.3
 49
0.15
 49
-0.3
  0
ENDTAB
  0
TABLE
  2
LAYER
 70
    12
  0
LAYER
  2
0
 70
     0
 62
     7
  6
CONTINUOUS
  0
LAYER
  2
OUTLINE
 70
     0
 62
     3
  6
CONTINUOUS
  0
LAYER
  2
NOTE
 70
     0
 62
     4
  6
CONTINUOUS
  0
LAYER
  2
DETAIL
 70
     0
 62
     5
  6
CONTINUOUS
  0
LAYER
  2
BASIS
 70
     0
 62
     6
  6
DASHDOT
  0
LAYER
  2
SIZE
 70
     0
 62
    30
  6
CONTINUOUS
  0
LAYER
  2
ARRANGE
 70
     0
 62
     1
  6
CONTINUOUS
  0
LAYER
  2
FIX
 70
     0
 62
    11
  6
CONTINUOUS
  0
LAYER
  2
ETC
 70
     0
 62
    61
  6
CONTINUOUS
  0
LAYER
  2
DEFPOINTS
 70
     0
 62
     7
  6
CONTINUOUS
  0
LAYER
  2
SERVICESPACE
 70
     0
 62
     2
  6
DASHDOT
  0
LAYER
  2
SYMBOLLINE
 70
     0
 62
    15
  6
CONTINUOUS
  0
ENDTAB
  0
TABLE
  2
STYLE
 70
     1
  0
STYLE
  2
STANDARD
 70
     0
 40
0.0
 41
0.9
 50
0.0
 71
     0
 42
64.0
  3
SIMPLEX
  4
BIGFONT
  0
ENDTAB
  0
TABLE
  2
VIEW
 70
     1
  0
VIEW
  2
ALL
 70
     0
 40
6374.9789810000002
 10
0.0
 20
58.11501599999999
 41
8842.1052629999976
 11
0.0
 21
0.0
 31
1.0
 12
0.0
 22
0.0
 32
0.0
 42
50.0
 43
0.0
 44
0.0
 50
0.0
 71
     0
  0
ENDTAB
  0
TABLE
  2
UCS
 70
     0
  0
ENDTAB
  0
TABLE
  2
APPID
 70
     1
  0
APPID
  2
ACAD
 70
     0
  0
ENDTAB
  0
TABLE
  2
DIMSTYLE
 70
     1
  0
DIMSTYLE
  2
STANDARD
 70
     0
  3

  4

  5

  6

  7

 40
1.0
 41
0.18
 42
0.0625
 43
0.38
 44
0.18
 45
0.0
 46
0.0
 47
0.0
 48
0.0
140
0.18
141
0.09
142
0.0
143
25.399999999999999
144
1.0
145
0.0
146
1.0
147
0.09
 71
     0
 72
     0
 73
     1
 74
     1
 75
     0
 76
     0
 77
     0
 78
     0
170
     0
171
     2
172
     0
173
     0
174
     0
175
     0
176
     0
177
     0
178
     0
  0
ENDTAB
  0
ENDSEC
  0
SECTION
  2
BLOCKS
  0
BLOCK
  8
0
  2
$MODEL_SPACE
 70
     0
 10
0.0
 20
0.0
 30
0.0
  3
$MODEL_SPACE
  1

  0
ENDBLK
  5
2DA
  8
0
  0
BLOCK
 67
     1
  8
0
  2
$PAPER_SPACE
 70
     0
 10
0.0
 20
0.0
 30
0.0
  3
$PAPER_SPACE
  1

  0
ENDBLK
  5
2D6
 67
     1
  8
0
  0
BLOCK
  8
0
 62
     4
  2
A$C41804B3A
 70
     0
 10
0.0
 20
0.0
 30
0.0
  3
A$C41804B3A
  1

  0
TEXT
  5
2FA
  8
ETC
  6
CONTINUOUS
 62
    61
 10
1.486447267949585
 20
136.9326717164266
 30
0.0
 40
50.0
  1
V-12PPVS6_4
 41
0.9
  0
TEXT
  5
2FB
  8
ETC
  6
CONTINUOUS
 62
    61
 10
112.6696915460097
 20
-0.0000020123889612
 30
0.0
 40
40.0
  1
V-12PPVS6
 41
0.9
  0
TEXT
  5
2FC
  8
ETC
  6
CONTINUOUS
 62
    61
 10
-0.0000027320504046
 20
63.160222544946009
 30
0.0
 40
50.0
  1
換気扇
 41
0.9
  0
ENDBLK
  5
2FD
  8
0
 62
     4
  0
BLOCK
  8
0
  2
DOT1
 70
     0
 10
0.0
 20
0.0
 30
0.0
  3
DOT1
  1

  0
CIRCLE
  5
300
  8
SIZE
  6
CONTINUOUS
 62
     7
 10
0.0
 20
0.0
 30
0.0
 40
3.0
  0
ENDBLK
  5
301
  8
0
  0
BLOCK
  8
0
  2
_ORIGIN
 70
     0
 10
0.0
 20
0.0
 30
0.0
  3
_ORIGIN
  1

  0
CIRCLE
  5
304
  8
0
  6
CONTINUOUS
 62
     7
 10
0.0
 20
0.0
 30
0.0
 40
0.5
  0
LINE
  5
305
  8
0
  6
CONTINUOUS
 62
     7
 10
0.0
 20
0.0
 30
0.0
 11
-1.0
 21
0.0
 31
0.0
  0
ENDBLK
  5
306
  8
0
  0
ENDSEC
  0
SECTION
  2
ENTITIES
  0
TEXT
  5
307
  8
ETC
  6
CONTINUOUS
 62
    61
 10
342.80947099999992
 20
473.37364707964338
 30
0.0
 40
50.0
  1
V-12PPVS6_1
 41
0.9
  0
LINE
  5
308
  8
NOTE
  6
CONTINUOUS
 62
     4
 10
20.0
 20
0.0
 30
0.0
 11
-136.6256469999999
 21
-190.39269899999999
 31
0.0
  0
LINE
  5
309
  8
NOTE
  6
CONTINUOUS
 62
     4
 10
-136.6256469999999
 20
-190.39269899999999
 30
0.0
 11
-251.31313499999999
 21
-190.39269899999999
 31
0.0
  0
TEXT
  5
30A
  8
NOTE
  6
CONTINUOUS
 62
     4
 10
-239.18708699999991
 20
-169.60640799999999
 30
0.0
 40
64.0
  1
EL
 41
0.9
  0
LINE
  5
30B
  8
DETAIL
  6
CONTINUOUS
 62
     5
 10
64.5
 20
60.0
 30
0.0
 11
64.5
 21
87.0
 31
0.0
  0
LINE
  5
30C
  8
DETAIL
  6
CONTINUOUS
 62
     5
 10
-64.5
 20
60.0
 30
0.0
 11
-64.5
 21
87.0
 31
0.0
  0
LINE
  5
30D
  8
SIZE
  6
CONTINUOUS
 62
    30
 10
337.38533899999982
 20
0.0
 30
0.0
 11
337.38533899999982
 21
-147.60985463756501
 31
0.0
  0
POINT
  5
30E
  8
ARRANGE
  6
CONTINUOUS
 62
     1
 10
0.0
 20
0.0
 30
0.0
  0
LINE
  5
30F
  8
DETAIL
  6
CONTINUOUS
 62
     5
 10
-70.0
 20
0.0
 30
0.0
 11
-70.0
 21
60.0
 31
0.0
  0
LINE
  5
310
  8
DETAIL
  6
CONTINUOUS
 62
     5
 10
70.0
 20
0.0
 30
0.0
 11
70.0
 21
60.0
 31
0.0
  0
LINE
  5
311
  8
DETAIL
  6
CONTINUOUS
 62
     5
 10
-70.0
 20
60.0
 30
0.0
 11
70.0
 21
60.0
 31
0.0
  0
LINE
  5
312
  8
DETAIL
  6
CONTINUOUS
 62
     5
 10
-105.0
 20
-54.271689291351528
 30
0.0
 11
-105.0
 21
0.0
 31
0.0
  0
LINE
  5
313
  8
DETAIL
  6
CONTINUOUS
 62
     5
 10
105.0
 20
-54.271689291351528
 30
0.0
 11
105.0
 21
0.0
 31
0.0
  0
LINE
  5
314
  8
DETAIL
  6
CONTINUOUS
 62
     5
 10
-105.0
 20
0.0
 30
0.0
 11
105.0
 21
0.0
 31
0.0
  0
LINE
  5
315
  8
BASIS
  6
DASHDOT
 62
     6
 10
0.0
 20
-85.454239999999999
 30
0.0
 11
0.0
 21
170.90848199999991
 31
0.0
  0
LINE
  5
316
  8
NOTE
  6
CONTINUOUS
 62
     4
 10
-95.0
 20
20.0
 30
0.0
 11
-95.0
 21
-20.0
 31
0.0
  0
LINE
  5
317
  8
NOTE
  6
CONTINUOUS
 62
     4
 10
-115.0
 20
0.0
 30
0.0
 11
-75.0
 21
0.0
 31
0.0
  0
LINE
  5
318
  8
NOTE
  6
CONTINUOUS
 62
     4
 10
95.0
 20
20.0
 30
0.0
 11
95.0
 21
-20.0
 31
0.0
  0
LINE
  5
319
  8
NOTE
  6
CONTINUOUS
 62
     4
 10
75.0
 20
0.0
 30
0.0
 11
115.0
 21
0.0
 31
0.0
  0
LINE
  5
31A
  8
NOTE
  6
CONTINUOUS
 62
     4
 10
20.0
 20
20.0
 30
0.0
 11
20.0
 21
-20.0
 31
0.0
  0
LINE
  5
31B
  8
NOTE
  6
CONTINUOUS
 62
     4
 10
0.0
 20
0.0
 30
0.0
 11
40.0
 21
0.0
 31
0.0
  0
TEXT
  5
31C
  8
ETC
  6
CONTINUOUS
 62
    61
 10
341.32302099999998
 20
399.6011979081627
 30
0.0
 40
50.0
  1
換気扇
 41
0.9
  0
CIRCLE
  5
31D
  8
ARRANGE
  6
CONTINUOUS
 62
     1
 10
0.0
 20
0.0
 30
0.0
 40
40.0
  0
LINE
  5
31E
  8
OUTLINE
  6
CONTINUOUS
 62
     3
 10
-105.0
 20
0.0
 30
0.0
 11
105.0
 21
0.0
 31
0.0
  0
LINE
  5
31F
  8
OUTLINE
  6
CONTINUOUS
 62
     3
 10
70.0
 20
0.0
 30
0.0
 11
70.0
 21
60.0
 31
0.0
  0
LINE
  5
320
  8
OUTLINE
  6
CONTINUOUS
 62
     3
 10
-70.0
 20
0.0
 30
0.0
 11
-70.0
 21
60.0
 31
0.0
  0
LINE
  5
321
  8
OUTLINE
  6
CONTINUOUS
 62
     3
 10
-64.5
 20
60.0
 30
0.0
 11
-64.5
 21
87.0
 31
0.0
  0
LINE
  5
322
  8
OUTLINE
  6
CONTINUOUS
 62
     3
 10
64.5
 20
60.0
 30
0.0
 11
64.5
 21
87.0
 31
0.0
  0
LINE
  5
323
  8
OUTLINE
  6
CONTINUOUS
 62
     3
 10
70.0
 20
0.0
 30
0.0
 11
105.0
 21
0.0
 31
0.0
  0
LINE
  5
324
  8
DETAIL
  6
CONTINUOUS
 62
     5
 10
-104.9498739999997
 20
-53.0
 30
0.0
 11
104.9498739999997
 21
-53.0
 31
0.0
  0
CIRCLE
  5
325
  8
FIX
  6
CONTINUOUS
 62
    11
 10
95.0
 20
0.0
 30
0.0
 40
2.5
  0
CIRCLE
  5
326
  8
FIX
  6
CONTINUOUS
 62
    11
 10
-95.0
 20
0.0
 30
0.0
 40
2.5
  0
LINE
  5
327
  8
DETAIL
  6
CONTINUOUS
 62
     5
 10
-64.5
 20
87.0
 30
0.0
 11
64.5
 21
87.0
 31
0.0
  0
LINE
  5
328
  8
SIZE
  6
CONTINUOUS
 62
    30
 10
473.01295999999968
 20
2.0
 30
0.0
 11
473.01295999999968
 21
-138.69846799999991
 31
0.0
  0
LINE
  5
329
  8
SIZE
  6
BYBLOCK
 62
    30
 10
125.0
 20
0.0
 30
0.0
 11
503.01295999999991
 21
0.0
 31
0.0
  0
LINE
  5
32A
  8
SIZE
  6
BYBLOCK
 62
    30
 10
84.500000000000014
 20
87.0
 30
0.0
 11
503.01295999999991
 21
87.0
 31
0.0
  0
LINE
  5
32B
  8
SIZE
  6
BYBLOCK
 62
    30
 10
473.01295999999968
 20
2.0
 30
0.0
 11
473.01295999999968
 21
87.0
 31
0.0
  0
TEXT
  5
32C
  8
SIZE
  6
BYBLOCK
 62
    30
 10
441.01295999999991
 20
-130.2098609999999
 30
0.0
 40
64.0
  1
87
 50
90.0
 41
0.9
  0
LINE
  5
32D
  8
SIZE
  6
BYBLOCK
 62
    30
 10
130.0
 20
0.0
 30
0.0
 11
367.38533899999999
 21
0.0
 31
0.0
  0
LINE
  5
32E
  8
SIZE
  6
BYBLOCK
 62
    30
 10
90.0
 20
60.0
 30
0.0
 11
367.38533899999999
 21
60.0
 31
0.0
  0
LINE
  5
32F
  8
SIZE
  6
BYBLOCK
 62
    30
 10
337.38533899999982
 20
-2.0
 30
0.0
 11
337.38533899999982
 21
-4.0
 31
0.0
  0
LINE
  5
330
  8
SIZE
  6
BYBLOCK
 62
    30
 10
337.38533899999982
 20
60.0
 30
0.0
 11
337.38533899999982
 21
0.0
 31
0.0
  0
TEXT
  5
331
  8
SIZE
  6
BYBLOCK
 62
    30
 10
305.38533899999999
 20
-135.79731203603339
 30
0.0
 40
64.0
  1
60
 50
90.0
 41
0.9
  0
LINE
  5
332
  8
SIZE
  6
BYBLOCK
 62
    30
 10
-70.0
 20
79.781614928712301
 30
0.0
 11
-70.0
 21
256.61837700000001
 31
0.0
  0
LINE
  5
333
  8
SIZE
  6
BYBLOCK
 62
    30
 10
70.0
 20
76.828479278330178
 30
0.0
 11
70.0
 21
256.61837700000001
 31
0.0
  0
LINE
  5
334
  8
SIZE
  6
BYBLOCK
 62
    30
 10
-70.0
 20
226.61837700000001
 30
0.0
 11
70.0
 21
226.61837700000001
 31
0.0
  0
TEXT
  5
335
  8
SIZE
  6
BYBLOCK
 62
    30
 10
-97.37142900000002
 20
258.61837700000001
 30
0.0
 40
64.0
  1
φ140
 41
0.9
  0
LINE
  5
336
  8
SIZE
  6
BYBLOCK
 62
    30
 10
-130.0
 20
0.000001
 30
0.0
 11
-334.47272599999991
 21
0.000001
 31
0.0
  0
LINE
  5
337
  8
SIZE
  6
BYBLOCK
 62
    30
 10
0.0
 20
-62.0
 30
0.0
 11
-334.47272599999991
 21
-61.999999000000003
 31
0.0
  0
LINE
  5
338
  8
SIZE
  6
BYBLOCK
 62
    30
 10
-304.47272599999991
 20
-61.999999000000003
 30
0.0
 11
-304.47272599999991
 21
0.000001
 31
0.0
  0
TEXT
  5
339
  8
SIZE
  6
BYBLOCK
 62
    30
 10
-336.47272599999991
 20
-74.999999000000003
 30
0.0
 40
64.0
  1
62
 50
90.0
 41
0.9
  0
LINE
  5
33A
  8
SIZE
  6
BYBLOCK
 62
    30
 10
-105.0
 20
-70.318271999999993
 30
0.0
 11
-105.0
 21
-389.36043599999988
 31
0.0
  0
LINE
  5
33B
  8
SIZE
  6
BYBLOCK
 62
    30
 10
105.0
 20
-70.318271999999993
 30
0.0
 11
105.0
 21
-389.36043599999988
 31
0.0
  0
LINE
  5
33C
  8
SIZE
  6
BYBLOCK
 62
    30
 10
-105.0
 20
-359.36043599999999
 30
0.0
 11
105.0
 21
-359.36043599999999
 31
0.0
  0
TEXT
  5
33D
  8
SIZE
  6
BYBLOCK
 62
    30
 10
-104.6738079999997
 20
-327.36043599999999
 30
0.0
 40
64.0
  1
□210
 41
0.9
  0
LINE
  5
33E
  8
SIZE
  6
BYBLOCK
 62
    30
 10
-95.0
 20
41.653308999999993
 30
0.0
 11
-95.0
 21
395.83579500000002
 31
0.0
  0
LINE
  5
33F
  8
SIZE
  6
BYBLOCK
 62
    30
 10
95.0
 20
41.653308999999993
 30
0.0
 11
95.0
 21
395.83579500000002
 31
0.0
  0
LINE
  5
340
  8
SIZE
  6
BYBLOCK
 62
    30
 10
-95.0
 20
365.83579500000002
 30
0.0
 11
95.0
 21
365.83579500000002
 31
0.0
  0
TEXT
  5
341
  8
SIZE
  6
BYBLOCK
 62
    30
 10
-69.97629702494396
 20
392.89777104992379
 30
0.0
 40
64.0
  1
190
 41
0.9
  0
CIRCLE
  5
342
  8
SIZE
  6
CONTINUOUS
 62
    30
 10
95.0
 20
365.83579500000002
 30
0.0
 40
6.0
  0
CIRCLE
  5
343
  8
SIZE
  6
CONTINUOUS
 62
    30
 10
-95.0
 20
365.83579500000002
 30
0.0
 40
6.0
  0
CIRCLE
  5
344
  8
SIZE
  6
CONTINUOUS
 62
    30
 10
105.0
 20
-359.36043599999999
 30
0.0
 40
6.0
  0
CIRCLE
  5
345
  8
SIZE
  6
CONTINUOUS
 62
    30
 10
-105.0
 20
-359.36043599999999
 30
0.0
 40
6.0
  0
CIRCLE
  5
346
  8
SIZE
  6
CONTINUOUS
 62
    30
 10
-304.47272599999991
 20
0.000001
 30
0.0
 40
6.0
  0
CIRCLE
  5
347
  8
SIZE
  6
CONTINUOUS
 62
    30
 10
-304.47272599999991
 20
-61.999999000000003
 30
0.0
 40
6.0
  0
CIRCLE
  5
348
  8
SIZE
  6
CONTINUOUS
 62
    30
 10
70.0
 20
226.61837700000001
 30
0.0
 40
6.0
  0
CIRCLE
  5
349
  8
SIZE
  6
CONTINUOUS
 62
    30
 10
-70.0
 20
226.61837700000001
 30
0.0
 40
6.0
  0
CIRCLE
  5
34A
  8
SIZE
  6
CONTINUOUS
 62
    30
 10
337.38533899999982
 20
0.0
 30
0.0
 40
6.0
  0
CIRCLE
  5
34B
  8
SIZE
  6
CONTINUOUS
 62
    30
 10
337.38533899999982
 20
60.0
 30
0.0
 40
6.0
  0
CIRCLE
  5
34C
  8
SIZE
  6
CONTINUOUS
 62
    30
 10
473.01295999999968
 20
87.0
 30
0.0
 40
6.0
  0
CIRCLE
  5
34D
  8
SIZE
  6
CONTINUOUS
 62
    30
 10
473.01295999999968
 20
0.0
 30
0.0
 40
6.0
  0
TEXT
  5
34E
  8
ETC
  6
CONTINUOUS
 62
    61
 10
453.99271527806007
 20
336.44097335082762
 30
0.0
 40
40.0
  1
V-12PPVS6
 41
0.9
  0
LINE
  5
34F
  8
OUTLINE
  6
CONTINUOUS
 62
     3
 10
-64.5
 20
60.0
 30
0.0
 11
-70.0
 21
60.0
 31
0.0
  0
LINE
  5
350
  8
OUTLINE
  6
CONTINUOUS
 62
     3
 10
64.5
 20
60.0
 30
0.0
 11
70.0
 21
60.0
 31
0.0
  0
LINE
  5
351
  8
NOTE
  6
CONTINUOUS
 62
     4
 10
5.1511119999999986
 20
-37.141762
 30
0.0
 11
20.0
 21
0.0
 31
0.0
  0
LINE
  5
352
  8
NOTE
  6
CONTINUOUS
 62
     4
 10
20.0
 20
0.0
 30
0.0
 11
-11.430395999999989
 21
-24.741265999999989
 31
0.0
  0
LINE
  5
353
  8
OUTLINE
  6
CONTINUOUS
 62
     3
 10
-64.5
 20
60.0
 30
0.0
 11
64.5
 21
60.0
 31
0.0
  0
LINE
  5
354
  8
NOTE
  6
CONTINUOUS
 62
     4
 10
93.670412351211922
 20
-2.117119903120789
 30
0.0
 11
108.87966564379521
 21
33.40715341177701
 31
0.0
  0
LINE
  5
355
  8
NOTE
  6
CONTINUOUS
 62
     4
 10
95.0
 20
-2.5
 30
0.0
 11
128.0865820433672
 21
23.06929927417103
 31
0.0
  0
TEXT
  5
356
  8
NOTE
  6
CONTINUOUS
 62
     4
 10
225.5683623990943
 20
189.0573797359888
 30
0.0
 40
64.0
  1
2ヶ所×4×10取付用長穴
 41
0.9
  0
SOLID
  5
357
  8
NOTE
  6
CONTINUOUS
 62
     4
 10
95.116464254774755
 20
-0.6958370307434116
 30
0.0
 11
93.670412351211922
 21
-2.117119903120789
 31
0.0
 12
94.577342679757123
 22
-0.3036733253920663
 32
0.0
 13
94.577342679757123
 23
-0.3036733253920663
 33
0.0
1001
ACAD
1000
DSTYLE
1002
{
1070
   147
1040
0.09
1070
    41
1040
2.0
1070
    42
1040
20.0
1070
    43
1040
200.0
1070
    44
1040
30.0
1070
    73
1070
     0
1070
    74
1070
     0
1070
    77
1070
     0
1070
    78
1070
     8
1070
   140
1040
64.0
1070
   172
1070
     1
1070
   174
1070
     1
1002
}
  0
LINE
  5
358
  8
NOTE
  6
CONTINUOUS
 62
     4
 10
94.846903467265918
 20
-0.4997551780677389
 30
0.0
 11
210.82406103867291
 21
158.93822187784849
 31
0.0
1001
ACAD
1000
DSTYLE
1002
{
1070
   147
1040
0.09
1070
    41
1040
2.0
1070
    42
1040
20.0
1070
    43
1040
200.0
1070
    44
1040
30.0
1070
    73
1070
     0
1070
    74
1070
     0
1070
    77
1070
     0
1070
    78
1070
     8
1070
   140
1040
64.0
1070
   172
1070
     1
1070
   174
1070
     1
1002
}
  0
LINE
  5
359
  8
NOTE
  6
CONTINUOUS
 62
     4
 10
210.82406103867291
 20
158.93822187784849
 30
0.0
 11
1044.10868267615
 21
158.93822187784849
 31
0.0
1001
ACAD
1000
DSTYLE
1002
{
1070
   147
1040
0.09
1070
    41
1040
2.0
1070
    42
1040
20.0
1070
    43
1040
200.0
1070
    44
1040
30.0
1070
    73
1070
     0
1070
    74
1070
     0
1070
    77
1070
     0
1070
    78
1070
     8
1070
   140
1040
64.0
1070
   172
1070
     1
1070
   174
1070
     1
1002
}
  0
LINE
  5
35A
  8
OUTLINE
  6
CONTINUOUS
 62
     3
 10
-64.5
 20
87.0
 30
0.0
 11
64.5
 21
87.0
 31
0.0
  0
ARC
  5
35B
  8
DETAIL
  6
CONTINUOUS
 62
     5
 10
0.0
 20
1777.0
 30
0.0
 40
1839.0
 50
266.87436161165959
 51
273.12563838834018
  0
ARC
  5
35C
  8
DETAIL
  6
CONTINUOUS
 62
     5
 10
-100.0
 20
-54.271689291351528
 30
0.0
 40
5.0
 50
180.0
 51
266.87436161165522
  0
ARC
  5
35D
  8
DETAIL
  6
CONTINUOUS
 62
     5
 10
100.0
 20
-54.271689291351528
 30
0.0
 40
5.0
 50
273.12563838833699
 51
0.0
  0
LINE
  5
35E
  8
OUTLINE
  6
CONTINUOUS
 62
     3
 10
-105.0
 20
0.0
 30
0.0
 11
-105.0
 21
-54.271689291351308
 31
0.0
  0
LINE
  5
35F
  8
OUTLINE
  6
CONTINUOUS
 62
     3
 10
105.0
 20
0.0
 30
0.0
 11
105.0
 21
-54.271689291351308
 31
0.0
  0
ARC
  5
360
  8
OUTLINE
  6
CONTINUOUS
 62
     3
 10
0.0
 20
1776.9999999999859
 30
0.0
 40
1838.999999999987
 50
266.87436161165959
 51
273.12563838834018
  0
ARC
  5
361
  8
OUTLINE
  6
CONTINUOUS
 62
     3
 10
-100.0
 20
-54.271689291351308
 30
0.0
 40
5.0
 50
180.0
 51
266.87436161166278
  0
ARC
  5
362
  8
OUTLINE
  6
CONTINUOUS
 62
     3
 10
100.0
 20
-54.271689291351308
 30
0.0
 40
5.0
 50
273.12563838832921
 51
0.0
  0
ENDSEC
  0
EOF
