  0
SECTION
  2
HEADER
  9
$ACADVER
  1
AC1009
  9
$INSBASE
 10
0.0
 20
0.0
 30
0.0
  9
$EXTMIN
 10
-984.8241946646483
 20
-275.76425599999948
 30
0.0
  9
$EXTMAX
 10
695.17204608268196
 20
564.32539732297005
 30
0.0
  9
$LIMMIN
 10
-4200.0
 20
-2970.0
  9
$LIMMAX
 10
4200.0
 20
2970.0
  9
$ORTHOMODE
 70
     1
  9
$REGENMODE
 70
     0
  9
$FILLMODE
 70
     1
  9
$QTEXTMODE
 70
     0
  9
$MIRRTEXT
 70
     0
  9
$DRAGMODE
 70
     2
  9
$LTSCALE
 40
20.0
  9
$OSMODE
 70
    39
  9
$ATTMODE
 70
     1
  9
$TEXTSIZE
 40
64.0
  9
$TRACEWID
 40
0.05
  9
$TEXTSTYLE
  7
STANDARD
  9
$CLAYER
  8
OUTLINE
  9
$CELTYPE
  6
CONTINUOUS
  9
$CECOLOR
 62
     3
  9
$DIMSCALE
 40
1.0
  9
$DIMASZ
 40
2.0
  9
$DIMEXO
 40
20.0
  9
$DIMDLI
 40
200.0
  9
$DIMRND
 40
0.0
  9
$DIMDLE
 40
0.0
  9
$DIMEXE
 40
30.0
  9
$DIMTP
 40
0.0
  9
$DIMTM
 40
0.0
  9
$DIMTXT
 40
64.0
  9
$DIMCEN
 40
0.09
  9
$DIMTSZ
 40
0.0
  9
$DIMTOL
 70
     0
  9
$DIMLIM
 70
     0
  9
$DIMTIH
 70
     0
  9
$DIMTOH
 70
     0
  9
$DIMSE1
 70
     0
  9
$DIMSE2
 70
     0
  9
$DIMTAD
 70
     1
  9
$DIMZIN
 70
     8
  9
$DIMBLK
  1

  9
$DIMASO
 70
     1
  9
$DIMSHO
 70
     0
  9
$DIMPOST
  1

  9
$DIMAPOST
  1

  9
$DIMALT
 70
     0
  9
$DIMALTD
 70
     2
  9
$DIMALTF
 40
25.399999999999999
  9
$DIMLFAC
 40
1.0
  9
$DIMTOFL
 70
     1
  9
$DIMTVP
 40
0.0
  9
$DIMTIX
 70
     1
  9
$DIMSOXD
 70
     0
  9
$DIMSAH
 70
     0
  9
$DIMBLK1
  1

  9
$DIMBLK2
  1

  9
$DIMSTYLE
  2
STANDARD
  9
$DIMCLRD
 70
     0
  9
$DIMCLRE
 70
     0
  9
$DIMCLRT
 70
     0
  9
$DIMTFAC
 40
1.0
  9
$DIMGAP
 40
0.09
  9
$LUNITS
 70
     2
  9
$LUPREC
 70
     4
  9
$SKETCHINC
 40
0.1
  9
$FILLETRAD
 40
5.0
  9
$AUNITS
 70
     1
  9
$AUPREC
 70
     3
  9
$MENU
  1
ACAD
  9
$ELEVATION
 40
0.0
  9
$PELEVATION
 40
0.0
  9
$THICKNESS
 40
0.0
  9
$LIMCHECK
 70
     1
  9
$BLIPMODE
 70
     0
  9
$CHAMFERA
 40
0.0
  9
$CHAMFERB
 40
0.0
  9
$SKPOLY
 70
     0
  9
$TDCREATE
 40
2451821.680474536
  9
$TDUPDATE
 40
2455044.8464123961
  9
$TDINDWG
 40
0.0388626505
  9
$TDUSRTIMER
 40
0.0388622801
  9
$USRTIMER
 70
     1
  9
$ANGBASE
 50
0.0
  9
$ANGDIR
 70
     0
  9
$PDMODE
 70
     3
  9
$PDSIZE
 40
-2.0
  9
$PLINEWID
 40
0.0
  9
$COORDS
 70
     2
  9
$SPLFRAME
 70
     0
  9
$SPLINETYPE
 70
     6
  9
$SPLINESEGS
 70
     8
  9
$ATTDIA
 70
     0
  9
$ATTREQ
 70
     1
  9
$HANDLING
 70
 22529
  9
$HANDSEED
  5
52F
  9
$SURFTAB1
 70
     6
  9
$SURFTAB2
 70
     6
  9
$SURFTYPE
 70
     6
  9
$SURFU
 70
     6
  9
$SURFV
 70
     6
  9
$UCSNAME
  2

  9
$UCSORG
 10
0.0
 20
0.0
 30
0.0
  9
$UCSXDIR
 10
1.0
 20
0.0
 30
0.0
  9
$UCSYDIR
 10
0.0
 20
1.0
 30
0.0
  9
$PUCSNAME
  2

  9
$PUCSORG
 10
0.0
 20
0.0
 30
0.0
  9
$PUCSXDIR
 10
1.0
 20
0.0
 30
0.0
  9
$PUCSYDIR
 10
0.0
 20
1.0
 30
0.0
  9
$USERI1
 70
     0
  9
$USERI2
 70
     0
  9
$USERI3
 70
     0
  9
$USERI4
 70
     0
  9
$USERI5
 70
     0
  9
$USERR1
 40
20.0
  9
$USERR2
 40
0.0
  9
$USERR3
 40
0.0
  9
$USERR4
 40
0.0
  9
$USERR5
 40
0.0
  9
$WORLDVIEW
 70
     1
  9
$SHADEDGE
 70
     3
  9
$SHADEDIF
 70
    70
  9
$TILEMODE
 70
     1
  9
$MAXACTVP
 70
    64
  9
$PLIMCHECK
 70
     0
  9
$PEXTMIN
 10
1.0000000000000000E+020
 20
1.0000000000000000E+020
 30
1.0000000000000000E+020
  9
$PEXTMAX
 10
-1.0000000000000000E+020
 20
-1.0000000000000000E+020
 30
-1.0000000000000000E+020
  9
$PLIMMIN
 10
0.0
 20
0.0
  9
$PLIMMAX
 10
12.0
 20
9.0
  9
$UNITMODE
 70
     0
  9
$VISRETAIN
 70
     1
  9
$PLINEGEN
 70
     0
  9
$PSLTSCALE
 70
     1
  0
ENDSEC
  0
SECTION
  2
TABLES
  0
TABLE
  2
VPORT
 70
     3
  0
VPORT
  2
*ACTIVE
 70
     0
 10
0.0
 20
0.0
 11
1.0
 21
1.0
 12
-156.6639015642719
 22
158.77627673095091
 13
0.0
 23
0.0
 14
400.0
 24
400.0
 15
400.0
 25
400.0
 16
0.0
 26
0.0
 36
1.0
 17
0.0
 27
0.0
 37
0.0
 40
1166.235655154981
 41
1.493654822335025
 42
50.0
 43
0.0
 44
0.0
 50
0.0
 51
0.0
 71
     0
 72
   500
 73
     1
 74
     0
 75
     0
 76
     0
 77
     0
 78
     1
  0
ENDTAB
  0
TABLE
  2
LTYPE
 70
     7
  0
LTYPE
  2
CONTINUOUS
 70
     0
  3
実線
 72
    65
 73
     0
 40
0.0
  0
LTYPE
  2
DOT
 70
     0
  3
...............................................
 72
    65
 73
     2
 40
0.8
 49
0.5
 49
-0.3
  0
LTYPE
  2
DASHED
 70
     0
  3
_ _ _ _ _ _ _ _ _ _ _ _ _ _ _ _ _ _ _ _ _ _ _
 72
    65
 73
     2
 40
2.0
 49
1.1999999999999991
 49
-0.8
  0
LTYPE
  2
DASHDOT
 70
     0
  3
____ _ ____ _ ____ _ ____ _ ____ _ ____ _ ____
 72
    65
 73
     4
 40
5.5
 49
4.0
 49
-0.6
 49
0.3
 49
-0.6
  0
LTYPE
  2
DASHDOT1
 70
     0
  3
____ _ ____ _ ____ _ ____ _ ____ _ ____ _ ____
 72
    65
 73
     4
 40
2.0
 49
1.5
 49
-0.2
 49
0.1
 49
-0.2
  0
LTYPE
  2
DIVIDE
 70
     0
  3
_____ _ _ _____ _ _ _____ _ _ _____ _ _ ____
 72
    65
 73
     6
 40
6.4000000000000004
 49
4.0
 49
-0.6
 49
0.3
 49
-0.6
 49
0.3
 49
-0.6
  0
LTYPE
  2
DIVIDE1
 70
     0
  3
_____ _ _ _____ _ _ _____ _ _ _____ _ _ ____
 72
    65
 73
     6
 40
3.2000000000000002
 49
2.0
 49
-0.3
 49
0.15
 49
-0.3
 49
0.15
 49
-0.3
  0
ENDTAB
  0
TABLE
  2
LAYER
 70
    13
  0
LAYER
  2
0
 70
     0
 62
     7
  6
CONTINUOUS
  0
LAYER
  2
OUTLINE
 70
     0
 62
     3
  6
CONTINUOUS
  0
LAYER
  2
DETAIL
 70
     0
 62
     5
  6
CONTINUOUS
  0
LAYER
  2
BASIS
 70
     0
 62
     6
  6
DASHDOT
  0
LAYER
  2
SIZE
 70
     0
 62
    30
  6
CONTINUOUS
  0
LAYER
  2
NOTE
 70
     0
 62
     4
  6
CONTINUOUS
  0
LAYER
  2
ARRANGE
 70
     0
 62
     1
  6
CONTINUOUS
  0
LAYER
  2
FIX
 70
     0
 62
    11
  6
CONTINUOUS
  0
LAYER
  2
ETC
 70
     0
 62
    61
  6
CONTINUOUS
  0
LAYER
  2
DEFPOINTS
 70
     0
 62
     7
  6
CONTINUOUS
  0
LAYER
  2
SERVICESPACE
 70
     0
 62
     2
  6
DASHDOT
  0
LAYER
  2
SYMBOLLINE
 70
     0
 62
    15
  6
CONTINUOUS
  0
LAYER
  2
ARRENGE
 70
     0
 62
     1
  6
CONTINUOUS
  0
ENDTAB
  0
TABLE
  2
STYLE
 70
     1
  0
STYLE
  2
STANDARD
 70
     0
 40
0.0
 41
0.9
 50
0.0
 71
     0
 42
64.0
  3
SIMPLEX
  4
BIGFONT
  0
ENDTAB
  0
TABLE
  2
VIEW
 70
     1
  0
VIEW
  2
ALL
 70
     0
 40
6374.9789810000002
 10
0.0
 20
58.11501599999999
 41
8842.1052629999976
 11
0.0
 21
0.0
 31
1.0
 12
0.0
 22
0.0
 32
0.0
 42
50.0
 43
0.0
 44
0.0
 50
0.0
 71
     0
  0
ENDTAB
  0
TABLE
  2
UCS
 70
     0
  0
ENDTAB
  0
TABLE
  2
APPID
 70
     3
  0
APPID
  2
ACAD
 70
     0
  0
APPID
  2
CONTENTBLOCKDESCRIPTION
 70
     0
  0
APPID
  2
CONTENTBLOCKICON
 70
     0
  0
ENDTAB
  0
TABLE
  2
DIMSTYLE
 70
     1
  0
DIMSTYLE
  2
STANDARD
 70
     0
  3

  4

  5

  6

  7

 40
1.0
 41
0.18
 42
0.0625
 43
0.38
 44
0.18
 45
0.0
 46
0.0
 47
0.0
 48
0.0
140
0.18
141
0.09
142
0.0
143
25.399999999999999
144
1.0
145
0.0
146
1.0
147
0.09
 71
     0
 72
     0
 73
     1
 74
     1
 75
     0
 76
     0
 77
     0
 78
     0
170
     0
171
     2
172
     0
173
     0
174
     0
175
     0
176
     0
177
     0
178
     0
  0
ENDTAB
  0
ENDSEC
  0
SECTION
  2
BLOCKS
  0
BLOCK
  8
0
  2
$MODEL_SPACE
 70
     0
 10
0.0
 20
0.0
 30
0.0
  3
$MODEL_SPACE
  1

  0
ENDBLK
  5
44A
  8
0
  0
BLOCK
 67
     1
  8
0
  2
$PAPER_SPACE
 70
     0
 10
0.0
 20
0.0
 30
0.0
  3
$PAPER_SPACE
  1

  0
ENDBLK
  5
446
 67
     1
  8
0
  0
BLOCK
  8
0
 62
    30
  2
_NONE
 70
     0
 10
0.0
 20
0.0
 30
0.0
  3
_NONE
  1

  0
ENDBLK
  5
46A
  8
0
 62
    30
  0
BLOCK
  8
0
 62
    30
  2
_OPEN30
 70
     0
 10
0.0
 20
0.0
 30
0.0
  3
_OPEN30
  1

  0
LINE
  5
46D
  8
0
  6
BYBLOCK
 62
     0
 10
-1.0
 20
0.26794919
 30
0.0
 11
0.0
 21
0.0
 31
0.0
  0
LINE
  5
46E
  8
0
  6
BYBLOCK
 62
     0
 10
0.0
 20
0.0
 30
0.0
 11
-1.0
 21
-0.26794919
 31
0.0
  0
LINE
  5
46F
  8
0
  6
BYBLOCK
 62
     0
 10
0.0
 20
0.0
 30
0.0
 11
-1.0
 21
0.0
 31
0.0
  0
ENDBLK
  5
470
  8
0
 62
    30
  0
BLOCK
  8
0
 62
     1
  2
配置点
 70
     0
 10
0.0
 20
0.0
 30
0.0
  3
配置点
  1

  0
LINE
  5
4DC
  8
ARRENGE
 62
     1
 10
189.77681747763219
 20
149.03934829407481
 30
0.0
 11
218.06108872509409
 21
177.3236195415368
 31
0.0
  0
LINE
  5
4DD
  8
ARRENGE
 62
     1
 10
189.77681747763219
 20
177.3236195415368
 30
0.0
 11
218.06108872509409
 21
149.03934829407481
 31
0.0
  0
CIRCLE
  5
4DE
  8
ARRENGE
 62
     1
 10
203.91895310136309
 20
163.18148391780579
 30
0.0
 40
40.0
  0
ENDBLK
  5
4E0
  8
0
 62
     1
  0
ENDSEC
  0
SECTION
  2
ENTITIES
  0
LINE
  5
471
  8
NOTE
  6
CONTINUOUS
 62
     4
 10
-168.12830999999991
 20
160.1752449999999
 30
0.0
 11
-94.999999999999986
 21
0.0000000000000036
 31
0.0
  0
LINE
  5
472
  8
DETAIL
  6
CONTINUOUS
 62
     5
 10
64.5
 20
59.999999999999979
 30
0.0
 11
64.5
 21
86.999999999999929
 31
0.0
  0
LINE
  5
473
  8
DETAIL
  6
CONTINUOUS
 62
     5
 10
-64.499999999999972
 20
59.999999999999979
 30
0.0
 11
-64.499999999999972
 21
86.999999999999929
 31
0.0
  0
LINE
  5
474
  8
NOTE
  6
CONTINUOUS
 62
     4
 10
-168.12830999999991
 20
160.1752449999999
 30
0.0
 11
-984.8241946646483
 21
160.1752449999999
 31
0.0
  0
LINE
  5
475
  8
SIZE
  6
CONTINUOUS
 62
    30
 10
337.3853389999997
 20
0.0000000000000036
 30
0.0
 11
337.3853389999997
 21
-137.45081937768899
 31
0.0
  0
LINE
  5
477
  8
DETAIL
  6
CONTINUOUS
 62
     5
 10
-69.999999999999972
 20
0.0000000000000036
 30
0.0
 11
-69.999999999999972
 21
59.999999999999979
 31
0.0
  0
LINE
  5
478
  8
DETAIL
  6
CONTINUOUS
 62
     5
 10
70.0
 20
0.0000000000000036
 30
0.0
 11
70.0
 21
59.999999999999979
 31
0.0
  0
LINE
  5
479
  8
DETAIL
  6
CONTINUOUS
 62
     5
 10
-69.999999999999972
 20
59.999999999999979
 30
0.0
 11
70.0
 21
59.999999999999979
 31
0.0
  0
LINE
  5
47A
  8
DETAIL
  6
CONTINUOUS
 62
     5
 10
-104.9999999999999
 20
-54.271689291351308
 30
0.0
 11
-104.9999999999999
 21
0.0000000000000036
 31
0.0
  0
LINE
  5
47B
  8
DETAIL
  6
CONTINUOUS
 62
     5
 10
104.9999999999998
 20
-54.271689291351308
 30
0.0
 11
104.9999999999998
 21
0.0000000000000036
 31
0.0
  0
LINE
  5
47C
  8
DETAIL
  6
CONTINUOUS
 62
     5
 10
-104.9999999999999
 20
0.0000000000000036
 30
0.0
 11
104.9999999999998
 21
0.0000000000000036
 31
0.0
  0
LINE
  5
47D
  8
BASIS
  6
DASHDOT
 62
     6
 10
0.0
 20
-85.454239999999999
 30
0.0
 11
0.0
 21
170.90848199999999
 31
0.0
  0
LINE
  5
47E
  8
NOTE
  6
CONTINUOUS
 62
     4
 10
-94.999999999999986
 20
20.0
 30
0.0
 11
-94.999999999999986
 21
-19.999999999999989
 31
0.0
  0
LINE
  5
47F
  8
NOTE
  6
CONTINUOUS
 62
     4
 10
-114.9999999999999
 20
0.0000000000000036
 30
0.0
 11
-74.999999999999972
 21
0.0000000000000036
 31
0.0
  0
LINE
  5
480
  8
NOTE
  6
CONTINUOUS
 62
     4
 10
94.999999999999886
 20
20.0
 30
0.0
 11
94.999999999999886
 21
-19.999999999999989
 31
0.0
  0
LINE
  5
481
  8
NOTE
  6
CONTINUOUS
 62
     4
 10
75.0
 20
0.0000000000000036
 30
0.0
 11
114.9999999999998
 21
0.0000000000000036
 31
0.0
  0
CIRCLE
  5
48A
  8
FIX
  6
CONTINUOUS
 62
    11
 10
94.999999999999886
 20
0.0000000000000036
 30
0.0
 40
2.5
  0
CIRCLE
  5
48B
  8
FIX
  6
CONTINUOUS
 62
    11
 10
-94.999999999999986
 20
0.0000000000000036
 30
0.0
 40
2.5
  0
LINE
  5
48C
  8
DETAIL
  6
CONTINUOUS
 62
     5
 10
-64.499999999999972
 20
86.999999999999929
 30
0.0
 11
64.5
 21
86.999999999999929
 31
0.0
  0
LINE
  5
48D
  8
SIZE
  6
CONTINUOUS
 62
    30
 10
473.01296000000002
 20
1.999999999999996
 30
0.0
 11
473.01296000000002
 21
-138.69846799999991
 31
0.0
  0
LINE
  5
48E
  8
SIZE
  6
BYBLOCK
 62
    30
 10
124.9999999999999
 20
0.0000000000000036
 30
0.0
 11
503.01295999999991
 21
0.0000000000000036
 31
0.0
  0
LINE
  5
48F
  8
SIZE
  6
BYBLOCK
 62
    30
 10
84.500000000000014
 20
86.999999999999929
 30
0.0
 11
503.01295999999991
 21
86.999999999999929
 31
0.0
  0
LINE
  5
490
  8
SIZE
  6
BYBLOCK
 62
    30
 10
473.01296000000002
 20
1.999999999999996
 30
0.0
 11
473.01296000000002
 21
49.500000000000007
 31
0.0
  0
LINE
  5
491
  8
SIZE
  6
BYBLOCK
 62
    30
 10
473.01296000000002
 20
86.999999999999929
 30
0.0
 11
473.01296000000002
 21
49.500000000000007
 31
0.0
  0
TEXT
  5
492
  8
SIZE
  6
BYBLOCK
 62
    30
 10
441.01295999999991
 20
-130.20986099999959
 30
0.0
 40
64.0
  1
87
 50
90.0
 41
0.9
  0
LINE
  5
493
  8
SIZE
  6
BYBLOCK
 62
    30
 10
129.9999999999998
 20
0.0000000000000036
 30
0.0
 11
367.3853389999997
 21
0.0000000000000036
 31
0.0
  0
LINE
  5
494
  8
SIZE
  6
BYBLOCK
 62
    30
 10
89.999999999999886
 20
59.999999999999979
 30
0.0
 11
367.3853389999997
 21
59.999999999999979
 31
0.0
  0
LINE
  5
495
  8
SIZE
  6
BYBLOCK
 62
    30
 10
337.3853389999997
 20
-2.0000000000000031
 30
0.0
 11
337.3853389999997
 21
-3.999999999999996
 31
0.0
  0
LINE
  5
496
  8
SIZE
  6
BYBLOCK
 62
    30
 10
337.3853389999997
 20
59.999999999999979
 30
0.0
 11
337.3853389999997
 21
0.0000000000000036
 31
0.0
  0
TEXT
  5
497
  8
SIZE
  6
BYBLOCK
 62
    30
 10
305.38533899999982
 20
-128.2176133885404
 30
0.0
 40
64.0
  1
60
 50
90.0
 41
0.9
  0
LINE
  5
498
  8
SIZE
  6
BYBLOCK
 62
    30
 10
-69.999999999999972
 20
91.499999999999943
 30
0.0
 11
-69.999999999999972
 21
256.6183769999999
 31
0.0
  0
LINE
  5
499
  8
SIZE
  6
BYBLOCK
 62
    30
 10
70.0
 20
91.499999999999943
 30
0.0
 11
70.0
 21
256.6183769999999
 31
0.0
  0
LINE
  5
49A
  8
SIZE
  6
BYBLOCK
 62
    30
 10
-69.999999999999972
 20
226.6183769999999
 30
0.0
 11
0.0
 21
226.6183769999999
 31
0.0
  0
LINE
  5
49B
  8
SIZE
  6
BYBLOCK
 62
    30
 10
70.0
 20
226.6183769999999
 30
0.0
 11
0.0
 21
226.6183769999999
 31
0.0
  0
TEXT
  5
49C
  8
SIZE
  6
BYBLOCK
 62
    30
 10
-97.37142900000002
 20
258.6183769999999
 30
0.0
 40
64.0
  1
φ140
 41
0.9
  0
LINE
  5
49D
  8
SIZE
  6
BYBLOCK
 62
    30
 10
-129.99999999999989
 20
0.0000009999999939
 30
0.0
 11
-334.4727259999998
 21
0.0000009999999939
 31
0.0
  0
LINE
  5
49E
  8
SIZE
  6
BYBLOCK
 62
    30
 10
-0.000015991304771
 20
-61.999999999999993
 30
0.0
 11
-334.4727259999998
 21
-61.999998999999988
 31
0.0
  0
LINE
  5
49F
  8
SIZE
  6
BYBLOCK
 62
    30
 10
-304.47272599999991
 20
-61.999998999999988
 30
0.0
 11
-304.47272599999991
 21
0.0000009999999939
 31
0.0
  0
TEXT
  5
4A0
  8
SIZE
  6
BYBLOCK
 62
    30
 10
-336.47272599999991
 20
-74.999999000000003
 30
0.0
 40
64.0
  1
62
 50
90.0
 41
0.9
  0
LINE
  5
4A1
  8
SIZE
  6
BYBLOCK
 62
    30
 10
-104.9999999999999
 20
-70.318271999999979
 30
0.0
 11
-104.9999999999999
 21
-275.76425599999948
 31
0.0
  0
LINE
  5
4A2
  8
SIZE
  6
BYBLOCK
 62
    30
 10
104.9999999999998
 20
-70.318271999999979
 30
0.0
 11
104.9999999999998
 21
-275.76425599999948
 31
0.0
  0
LINE
  5
4A3
  8
SIZE
  6
BYBLOCK
 62
    30
 10
-104.9999999999999
 20
-245.76425599999999
 30
0.0
 11
0.0
 21
-245.76425599999999
 31
0.0
  0
LINE
  5
4A4
  8
SIZE
  6
BYBLOCK
 62
    30
 10
104.9999999999998
 20
-245.76425599999999
 30
0.0
 11
0.0
 21
-245.76425599999999
 31
0.0
  0
TEXT
  5
4A5
  8
SIZE
  6
BYBLOCK
 62
    30
 10
-104.67380799999989
 20
-213.7642559999999
 30
0.0
 40
64.0
  1
□210
 41
0.9
  0
LINE
  5
4A6
  8
SIZE
  6
BYBLOCK
 62
    30
 10
-94.999999999999986
 20
41.653309000000029
 30
0.0
 11
-94.999999999999986
 21
395.83579500000002
 31
0.0
  0
LINE
  5
4A7
  8
SIZE
  6
BYBLOCK
 62
    30
 10
94.999999999999886
 20
41.653309000000029
 30
0.0
 11
94.999999999999886
 21
395.83579500000002
 31
0.0
  0
LINE
  5
4A8
  8
SIZE
  6
BYBLOCK
 62
    30
 10
-94.999999999999986
 20
365.83579499999991
 30
0.0
 11
0.0
 21
365.83579499999991
 31
0.0
  0
LINE
  5
4A9
  8
SIZE
  6
BYBLOCK
 62
    30
 10
94.999999999999886
 20
365.83579499999991
 30
0.0
 11
0.0
 21
365.83579499999991
 31
0.0
  0
TEXT
  5
4AA
  8
SIZE
  6
BYBLOCK
 62
    30
 10
-73.881707229369539
 20
393.01302907474059
 30
0.0
 40
64.0
  1
190
 41
0.9
  0
CIRCLE
  5
4AB
  8
SIZE
  6
CONTINUOUS
 62
    30
 10
94.999999999999886
 20
365.83579499999991
 30
0.0
 40
6.0
  0
CIRCLE
  5
4AC
  8
SIZE
  6
CONTINUOUS
 62
    30
 10
-94.999999999999986
 20
365.83579499999991
 30
0.0
 40
6.0
  0
CIRCLE
  5
4AD
  8
SIZE
  6
CONTINUOUS
 62
    30
 10
104.9999999999998
 20
-245.76425599999999
 30
0.0
 40
6.0
  0
CIRCLE
  5
4AE
  8
SIZE
  6
CONTINUOUS
 62
    30
 10
-104.9999999999999
 20
-245.76425599999999
 30
0.0
 40
6.0
  0
CIRCLE
  5
4AF
  8
SIZE
  6
CONTINUOUS
 62
    30
 10
-304.47272599999991
 20
0.0000009999999939
 30
0.0
 40
6.0
  0
CIRCLE
  5
4B0
  8
SIZE
  6
CONTINUOUS
 62
    30
 10
-304.47272599999991
 20
-61.999998999999988
 30
0.0
 40
6.0
  0
CIRCLE
  5
4B1
  8
SIZE
  6
CONTINUOUS
 62
    30
 10
70.0
 20
226.6183769999999
 30
0.0
 40
6.0
  0
CIRCLE
  5
4B2
  8
SIZE
  6
CONTINUOUS
 62
    30
 10
-69.999999999999972
 20
226.6183769999999
 30
0.0
 40
6.0
  0
CIRCLE
  5
4B3
  8
SIZE
  6
CONTINUOUS
 62
    30
 10
337.3853389999997
 20
0.0000000000000036
 30
0.0
 40
6.0
  0
CIRCLE
  5
4B4
  8
SIZE
  6
CONTINUOUS
 62
    30
 10
337.3853389999997
 20
59.999999999999979
 30
0.0
 40
6.0
  0
CIRCLE
  5
4B5
  8
SIZE
  6
CONTINUOUS
 62
    30
 10
473.01296000000002
 20
86.999999999999929
 30
0.0
 40
6.0
  0
CIRCLE
  5
4B6
  8
SIZE
  6
CONTINUOUS
 62
    30
 10
473.01296000000002
 20
0.0000000000000036
 30
0.0
 40
6.0
  0
TEXT
  5
4B7
  8
NOTE
  6
CONTINUOUS
 62
     4
 10
-981.37456911558297
 20
179.27411459256061
 30
0.0
 40
64.0
  1
2ヶ所×4×10取付用長穴
 41
0.9
  0
TEXT
  5
4B8
  8
ETC
  6
CONTINUOUS
 62
    61
 10
179.89243971868771
 20
486.24680241583991
 30
0.0
 40
50.0
  1
V-12PPVS6_6
 41
0.9
  0
TEXT
  5
4B9
  8
ETC
  6
CONTINUOUS
 62
    61
 10
291.0756839967479
 20
349.31412868702438
 30
0.0
 40
40.0
  1
V-12PPVS6
 41
0.9
  0
TEXT
  5
4BA
  8
ETC
  6
CONTINUOUS
 62
    61
 10
178.40598971868781
 20
412.47435324435929
 30
0.0
 40
50.0
  1
換気扇
 41
0.9
  0
LINE
  5
4BB
  8
NOTE
  6
CONTINUOUS
 62
     4
 10
-121.1709699999999
 20
30.250295000000001
 30
0.0
 11
-94.999999999999986
 21
0.0000000000000036
 31
0.0
  0
LINE
  5
4BC
  8
NOTE
  6
CONTINUOUS
 62
     4
 10
-94.999999999999986
 20
0.0000000000000036
 30
0.0
 11
-102.53957799999991
 21
39.283008999999993
 31
0.0
  0
ARC
  5
4BE
  8
DETAIL
  6
CONTINUOUS
 62
     5
 10
-0.0000000000000426
 20
1776.999999999995
 30
0.0
 40
1838.999999999997
 50
266.87436161165959
 51
273.12563838834012
  0
ARC
  5
4BF
  8
DETAIL
  6
CONTINUOUS
 62
     5
 10
-99.999999999999986
 20
-54.271689291351308
 30
0.0
 40
5.0
 50
180.0
 51
266.87436161165613
  0
ARC
  5
4C0
  8
DETAIL
  6
CONTINUOUS
 62
     5
 10
99.999999999999886
 20
-54.271689291351308
 30
0.0
 40
5.0
 50
273.12563838833631
 51
0.0
  0
LINE
  5
4C6
  8
NOTE
  6
CONTINUOUS
 62
     4
 10
-136.6256469999997
 20
-190.39269899999999
 30
0.0
 11
-251.3131349999999
 21
-190.39269899999999
 31
0.0
  0
TEXT
  5
4C7
  8
NOTE
  6
CONTINUOUS
 62
     4
 10
-239.18708699999979
 20
-169.6064079999999
 30
0.0
 40
64.0
  1
EL
 41
0.9
  0
LINE
  5
4C8
  8
NOTE
  6
CONTINUOUS
 62
     4
 10
20.0
 20
0.0000000000000036
 30
0.0
 11
-136.6256469999997
 21
-190.39269899999999
 31
0.0
  0
LINE
  5
4C9
  8
NOTE
  6
CONTINUOUS
 62
     4
 10
20.0
 20
0.0000000000000036
 30
0.0
 11
-11.43039599999995
 21
-24.741265999999989
 31
0.0
  0
LINE
  5
4CA
  8
NOTE
  6
CONTINUOUS
 62
     4
 10
0.0000000000000071
 20
0.0000000000000036
 30
0.0
 11
40.0
 21
0.0000000000000036
 31
0.0
  0
LINE
  5
4CB
  8
NOTE
  6
CONTINUOUS
 62
     4
 10
20.0
 20
20.0
 30
0.0
 11
20.0
 21
-19.999999999999989
 31
0.0
  0
LINE
  5
4CC
  8
NOTE
  6
CONTINUOUS
 62
     4
 10
5.1511120000000403
 20
-37.141761999999993
 30
0.0
 11
20.0
 21
0.0000000000000036
 31
0.0
  0
LINE
  5
4CE
  8
OUTLINE
  6
CONTINUOUS
 62
     3
 10
70.0
 20
0.0
 30
0.0
 11
70.0
 21
59.999999999999979
 31
0.0
  0
LINE
  5
4CF
  8
OUTLINE
  6
CONTINUOUS
 62
     3
 10
-70.0
 20
0.0
 30
0.0
 11
-70.0
 21
59.999999999999979
 31
0.0
  0
LINE
  5
4D0
  8
OUTLINE
  6
CONTINUOUS
 62
     3
 10
-105.0
 20
0.0
 30
0.0
 11
104.9999999999998
 21
0.0
 31
0.0
  0
ARC
  5
4D1
  8
OUTLINE
  6
CONTINUOUS
 62
     3
 10
-0.0000000000002274
 20
1777.000000000018
 30
0.0
 40
1839.0000000000191
 50
266.87436161165959
 51
273.12563838834012
  0
LINE
  5
4D2
  8
OUTLINE
  6
CONTINUOUS
 62
     3
 10
-105.0
 20
0.0
 30
0.0
 11
-105.0
 21
-54.271689291351322
 31
0.0
  0
ARC
  5
4D3
  8
OUTLINE
  6
CONTINUOUS
 62
     3
 10
-100.0
 20
-54.271689291351322
 30
0.0
 40
5.0
 50
180.0
 51
266.8743616116592
  0
LINE
  5
4D4
  8
OUTLINE
  6
CONTINUOUS
 62
     3
 10
104.9999999999998
 20
0.0
 30
0.0
 11
104.9999999999998
 21
-54.271689291351322
 31
0.0
  0
ARC
  5
4D5
  8
OUTLINE
  6
CONTINUOUS
 62
     3
 10
99.999999999999886
 20
-54.271689291351322
 30
0.0
 40
5.0
 50
273.1256383883287
 51
0.0
  0
LINE
  5
4D6
  8
OUTLINE
  6
CONTINUOUS
 62
     3
 10
70.0
 20
0.0
 30
0.0
 11
104.9999999999998
 21
0.0
 31
0.0
  0
LINE
  5
4D7
  8
OUTLINE
  6
CONTINUOUS
 62
     3
 10
-64.5
 20
86.999999999999929
 30
0.0
 11
64.5
 21
86.999999999999929
 31
0.0
  0
LINE
  5
4D8
  8
OUTLINE
  6
CONTINUOUS
 62
     3
 10
-70.0
 20
59.999999999999979
 30
0.0
 11
70.0
 21
59.999999999999979
 31
0.0
  0
LINE
  5
4D9
  8
OUTLINE
  6
CONTINUOUS
 62
     3
 10
-64.5
 20
59.999999999999979
 30
0.0
 11
-64.5
 21
86.999999999999929
 31
0.0
  0
LINE
  5
4DA
  8
OUTLINE
  6
CONTINUOUS
 62
     3
 10
64.5
 20
59.999999999999979
 30
0.0
 11
64.5
 21
86.999999999999929
 31
0.0
  0
LINE
  5
4E8
  8
ARRENGE
 62
     1
 10
-14.142135623730949
 20
-14.142135623730949
 30
0.0
 11
14.142135623730949
 21
14.142135623730949
 31
0.0
  0
LINE
  5
4E9
  8
ARRENGE
 62
     1
 10
-14.142135623730949
 20
14.142135623730949
 30
0.0
 11
14.142135623730949
 21
-14.142135623730949
 31
0.0
  0
CIRCLE
  5
4EA
  8
ARRENGE
 62
     1
 10
0.0
 20
0.0
 30
0.0
 40
40.0
  0
ENDSEC
  0
EOF
