  0
SECTION
  2
HEADER
  9
$ACADVER
  1
AC1009
  9
$DWGCODEPAGE
  3
dos932
  9
$INSBASE
 10
0.0
 20
0.0
 30
0.0
  9
$EXTMIN
 10
-267.96835180693512
 20
-114.82618259740001
 30
0.0
  9
$EXTMAX
 10
776.46204325219435
 20
466.08969854397532
 30
0.0
  9
$LIMMIN
 10
-2970.0
 20
-2100.0
  9
$LIMMAX
 10
2970.0
 20
2100.0
  9
$ORTHOMODE
 70
     1
  9
$REGENMODE
 70
     1
  9
$FILLMODE
 70
     1
  9
$QTEXTMODE
 70
     0
  9
$MIRRTEXT
 70
     0
  9
$LTSCALE
 40
20.0
  9
$ATTMODE
 70
     1
  9
$TEXTSIZE
 40
64.0
  9
$TRACEWID
 40
0.05
  9
$TEXTSTYLE
  7
STANDARD
  9
$CLAYER
  8
SIZE
  9
$CELTYPE
  6
CONTINUOUS
  9
$CECOLOR
 62
     7
  9
$DIMSCALE
 40
1.0
  9
$DIMASZ
 40
12.0
  9
$DIMEXO
 40
20.0
  9
$DIMDLI
 40
200.0
  9
$DIMRND
 40
0.0
  9
$DIMDLE
 40
0.0
  9
$DIMEXE
 40
20.0
  9
$DIMTP
 40
0.0
  9
$DIMTM
 40
0.0
  9
$DIMTXT
 40
64.0
  9
$DIMCEN
 40
0.09
  9
$DIMTSZ
 40
0.0
  9
$DIMTOL
 70
     0
  9
$DIMLIM
 70
     0
  9
$DIMTIH
 70
     0
  9
$DIMTOH
 70
     0
  9
$DIMSE1
 70
     0
  9
$DIMSE2
 70
     0
  9
$DIMTAD
 70
     1
  9
$DIMZIN
 70
     8
  9
$DIMBLK
  1

  9
$DIMASO
 70
     1
  9
$DIMSHO
 70
     0
  9
$DIMPOST
  1

  9
$DIMAPOST
  1

  9
$DIMALT
 70
     0
  9
$DIMALTD
 70
     2
  9
$DIMALTF
 40
25.399999999999999
  9
$DIMLFAC
 40
1.0
  9
$DIMTOFL
 70
     1
  9
$DIMTVP
 40
0.0
  9
$DIMTIX
 70
     1
  9
$DIMSOXD
 70
     0
  9
$DIMSAH
 70
     0
  9
$DIMBLK1
  1

  9
$DIMBLK2
  1

  9
$DIMSTYLE
  2
STANDARD
  9
$DIMCLRD
 70
     7
  9
$DIMCLRE
 70
     7
  9
$DIMCLRT
 70
     7
  9
$DIMTFAC
 40
1.0
  9
$DIMGAP
 40
25.0
  9
$LUNITS
 70
     2
  9
$LUPREC
 70
     4
  9
$SKETCHINC
 40
0.1
  9
$FILLETRAD
 40
3.0
  9
$AUNITS
 70
     1
  9
$AUPREC
 70
     3
  9
$MENU
  1
ACAD
  9
$ELEVATION
 40
0.0
  9
$PELEVATION
 40
0.0
  9
$THICKNESS
 40
0.0
  9
$LIMCHECK
 70
     0
  9
$CHAMFERA
 40
0.0
  9
$CHAMFERB
 40
0.0
  9
$SKPOLY
 70
     0
  9
$TDCREATE
 40
2453019.623009259
  9
$TDUPDATE
 40
2459356.668809815
  9
$TDINDWG
 40
1.7148770949
  9
$TDUSRTIMER
 40
1.7148770949
  9
$USRTIMER
 70
     1
  9
$ANGBASE
 50
0.0
  9
$ANGDIR
 70
     0
  9
$PDMODE
 70
     3
  9
$PDSIZE
 40
-2.0
  9
$PLINEWID
 40
0.0
  9
$SPLFRAME
 70
     0
  9
$SPLINETYPE
 70
     6
  9
$SPLINESEGS
 70
     8
  9
$SURFTAB1
 70
     6
  9
$SURFTAB2
 70
     6
  9
$SURFTYPE
 70
     6
  9
$SURFU
 70
     6
  9
$SURFV
 70
     6
  9
$UCSNAME
  2

  9
$UCSORG
 10
0.0
 20
0.0
 30
0.0
  9
$UCSXDIR
 10
1.0
 20
0.0
 30
0.0
  9
$UCSYDIR
 10
0.0
 20
1.0
 30
0.0
  9
$PUCSNAME
  2

  9
$PUCSORG
 10
0.0
 20
0.0
 30
0.0
  9
$PUCSXDIR
 10
1.0
 20
0.0
 30
0.0
  9
$PUCSYDIR
 10
0.0
 20
1.0
 30
0.0
  9
$USERI1
 70
     0
  9
$USERI2
 70
     0
  9
$USERI3
 70
     0
  9
$USERI4
 70
     0
  9
$USERI5
 70
     0
  9
$USERR1
 40
20.0
  9
$USERR2
 40
0.0
  9
$USERR3
 40
0.0
  9
$USERR4
 40
0.0
  9
$USERR5
 40
0.0
  9
$WORLDVIEW
 70
     1
  9
$SHADEDGE
 70
     3
  9
$SHADEDIF
 70
    70
  9
$TILEMODE
 70
     1
  9
$MAXACTVP
 70
    48
  9
$PINSBASE
 10
0.0
 20
0.0
 30
0.0
  9
$PLIMCHECK
 70
     0
  9
$PEXTMIN
 10
-100000000000000000000.0
 20
-100000000000000000000.0
 30
-100000000000000000000.0
  9
$PEXTMAX
 10
100000000000000000000.0
 20
100000000000000000000.0
 30
100000000000000000000.0
  9
$PLIMMIN
 10
0.0
 20
0.0
  9
$PLIMMAX
 10
12.0
 20
9.0
  9
$UNITMODE
 70
     0
  9
$VISRETAIN
 70
     0
  9
$PLINEGEN
 70
     0
  9
$PSLTSCALE
 70
     0
  9
$TREEDEPTH
 70
  3020
  9
$ATTDIA
 70
     0
  9
$ATTREQ
 70
     1
  9
$BLIPMODE
 70
     1
  9
$COORDS
 70
     1
  9
$DRAGMODE
 70
     2
  9
$OSMODE
 70
     0
  9
$HANDLING
 70
     0
  9
$HANDSEED
  5
8CE
  0
ENDSEC
  0
SECTION
  2
TABLES
  0
TABLE
  2
LTYPE
 70
     2
  0
LTYPE
  2
CONTINUOUS
 70
     0
  3
実線
 72
    65
 73
     0
 40
0.0
  0
LTYPE
  2
DASHDOT
 70
     0
  3
____ _ ____ _ ____ _ ____ _ ____ _ ____ _ ____
 72
    65
 73
     4
 40
5.5
 49
4.0
 49
-0.6
 49
0.3
 49
-0.6
  0
ENDTAB
  0
TABLE
  2
LAYER
 70
    12
  0
LAYER
  2
SIZE
 70
     0
 62
    30
  6
CONTINUOUS
  0
LAYER
  2
BASIS
 70
     0
 62
     6
  6
DASHDOT
  0
LAYER
  2
OUTLINE
 70
     0
 62
     3
  6
CONTINUOUS
  0
LAYER
  2
DETAIL
 70
     0
 62
     5
  6
CONTINUOUS
  0
LAYER
  2
ARRANGE
 70
     0
 62
     1
  6
CONTINUOUS
  0
LAYER
  2
ETC
 70
     0
 62
    61
  6
CONTINUOUS
  0
LAYER
  2
NOTE
 70
     0
 62
     4
  6
CONTINUOUS
  0
LAYER
  2
0
 70
    64
 62
     7
  6
CONTINUOUS
  0
LAYER
  2
DEFPOINTS
 70
    64
 62
     7
  6
CONTINUOUS
  0
LAYER
  2
FIX
 70
    64
 62
    11
  6
CONTINUOUS
  0
LAYER
  2
SERVICESPACE
 70
    64
 62
     2
  6
DASHDOT
  0
LAYER
  2
SYMBOLLINE
 70
    64
 62
    15
  6
CONTINUOUS
  0
ENDTAB
  0
TABLE
  2
STYLE
 70
     1
  0
STYLE
  2
STANDARD
 70
     0
 40
64.0
 41
0.9
 50
0.0
 71
     0
 42
64.0
  3
SIMPLEX.shx
  4
BIGFONT.shx
  0
ENDTAB
  0
TABLE
  2
APPID
 70
    20
  0
APPID
  2
ACAD
 70
     0
  0
APPID
  2
ACADANNOTATIVE
 70
     0
  0
APPID
  2
AUTOCAD_POSTSCRIPT_FIGURE
 70
     0
  0
APPID
  2
ACAD_EXEMPT_FROM_CAD_STANDARDS
 70
     0
  0
APPID
  2
ACAD_PSEXT
 70
     0
  0
APPID
  2
ACAUTHENVIRON
 70
     0
  0
APPID
  2
GENIUS_GENOENT_13
 70
     0
  0
APPID
  2
GENIUS_GENCFG_13
 70
     0
  0
APPID
  2
GENIUS_GENCFG0_13
 70
     0
  0
APPID
  2
GENIUS_GENCFG1_13
 70
     0
  0
APPID
  2
GENIUS_GENCFG2_13
 70
     0
  0
APPID
  2
GENIUS_GENCFG3_13
 70
     0
  0
APPID
  2
GENIUS_GENCFG4_13
 70
     0
  0
APPID
  2
GENIUS_GEVCFG0_13
 70
     0
  0
APPID
  2
CONTENTBLOCKICON
 70
     0
  0
APPID
  2
CONTENTBLOCKDESCRIPTION
 70
     0
  0
APPID
  2
ACAD_NAV_VCDISPLAY
 70
     0
  0
APPID
  2
ACAD_MLEADERVER
 70
     0
  0
APPID
  2
ACDBDYNAMICBLOCKTRUENAME
 70
     0
  0
APPID
  2
ACDBDYNAMICBLOCKGUID
 70
     0
  0
ENDTAB
  0
TABLE
  2
DIMSTYLE
 70
     1
  0
DIMSTYLE
  2
STANDARD
 70
     0
  3

  4

  5

  6

  7

 40
1.0
 41
12.0
 42
20.0
 43
200.0
 44
20.0
 45
0.0
 46
0.0
 47
0.0
 48
0.0
140
64.0
141
0.09
142
0.0
143
25.399999999999999
144
1.0
145
0.0
146
1.0
147
25.0
 71
     0
 72
     0
 73
     0
 74
     0
 75
     0
 76
     0
 77
     1
 78
     8
170
     0
171
     2
172
     1
173
     0
174
     1
175
     0
176
     7
177
     7
178
     7
  0
ENDTAB
  0
TABLE
  2
VIEW
 70
     1
  0
VIEW
  2
ALL
 70
     0
 40
4282.6198079999986
 10
0.0
 20
41.309904000000003
 41
5940.0
 11
0.0
 21
0.0
 31
1.0
 12
0.0
 22
0.0
 32
0.0
 42
50.0
 43
0.0
 44
0.0
 50
0.0
 71
     0
  0
ENDTAB
  0
TABLE
  2
UCS
 70
     0
  0
ENDTAB
  0
TABLE
  2
VPORT
 70
     1
  0
VPORT
  2
*ACTIVE
 70
     0
 10
0.0
 20
0.0
 11
1.0
 21
1.0
 12
254.23737984876601
 22
175.59815451455961
 13
0.0
 23
0.0
 14
1.0
 24
1.0
 15
0.0
 25
0.0
 16
0.0
 26
0.0
 36
1.0
 17
0.0
 27
0.0
 37
0.0
 40
593.55437631718439
 41
1.767337807606264
 42
50.0
 43
0.0
 44
0.0
 50
0.0
 51
0.0
 71
     0
 72
  1000
 73
     1
 74
     3
 75
     0
 76
     0
 77
     0
 78
     0
  0
ENDTAB
  0
ENDSEC
  0
SECTION
  2
BLOCKS
  0
ENDSEC
  0
SECTION
  2
ENTITIES
  0
TEXT
  8
ETC
  6
CONTINUOUS
 62
    61
 10
167.54775753790861
 20
402.08969854397509
 30
0.0
 40
64.0
  1
V-12PPVS8_2
 41
0.9
  0
TEXT
  8
ETC
  6
CONTINUOUS
 62
    61
 10
163.36176353790819
 20
284.13438852914402
 30
0.0
 40
64.0
  1
換気扇
 41
0.9
  0
CIRCLE
  8
ARRANGE
  6
CONTINUOUS
 62
     1
 10
0.0
 20
0.0
 30
0.0
 40
40.0
  0
POINT
  8
ARRANGE
  6
CONTINUOUS
 62
     1
 10
0.0
 20
0.0
 30
0.0
  0
LINE
  8
BASIS
  6
DASHDOT
 62
     6
 10
125.4561247050906
 20
0.0
 30
0.0
 11
-125.4561247050906
 21
0.0
 31
0.0
  0
TEXT
  8
ETC
  6
CONTINUOUS
 62
    61
 10
214.06316178646421
 20
175.9856156429187
 30
0.0
 40
40.0
  1
V-12PPVS8
 41
0.9
  0
LINE
  8
SIZE
  6
CONTINUOUS
 62
    30
 10
-105.0
 20
121.0
 30
0.0
 11
-105.0
 21
353.39543708812312
 31
0.0
  0
LINE
  8
SIZE
  6
CONTINUOUS
 62
    30
 10
105.0
 20
121.0
 30
0.0
 11
105.0
 21
353.39543708812312
 31
0.0
  0
LINE
  8
SIZE
  6
CONTINUOUS
 62
    30
 10
-93.0
 20
333.39543708812312
 30
0.0
 11
93.0
 21
333.39543708812312
 31
0.0
  0
CIRCLE
  8
SIZE
  6
CONTINUOUS
 62
    30
 10
-105.0
 20
333.39543708812312
 30
0.0
 40
6.0
  0
LINE
  8
SIZE
  6
CONTINUOUS
 62
    30
 10
-105.0
 20
333.39543708812312
 30
0.0
 11
-93.0
 21
333.39543708812312
 31
0.0
  0
CIRCLE
  8
SIZE
  6
CONTINUOUS
 62
    30
 10
105.0
 20
333.39543708812312
 30
0.0
 40
6.0
  0
LINE
  8
SIZE
  6
CONTINUOUS
 62
    30
 10
105.0
 20
333.39543708812312
 30
0.0
 11
93.0
 21
333.39543708812312
 31
0.0
  0
TEXT
  8
SIZE
  6
CONTINUOUS
 62
    30
 10
-105.0514285714286
 20
358.39543708812312
 30
0.0
 40
64.0
  1
□210
 41
0.9
 72
     1
 11
0.0
 21
358.39543708812312
 31
0.0
  0
LINE
  8
SIZE
  6
CONTINUOUS
 62
    30
 10
-121.0
 20
105.0
 30
0.0
 11
-198.96835180693509
 21
105.0
 31
0.0
  0
LINE
  8
SIZE
  6
CONTINUOUS
 62
    30
 10
-145.45612470509059
 20
0.0
 30
0.0
 11
-198.96835180693509
 21
0.0000000000000142
 31
0.0
  0
LINE
  8
SIZE
  6
CONTINUOUS
 62
    30
 10
-178.96835180693509
 20
93.000000000000043
 30
0.0
 11
-178.96835180693509
 21
12.000000000000011
 31
0.0
  0
CIRCLE
  8
SIZE
  6
CONTINUOUS
 62
    30
 10
-178.96835180693509
 20
105.0
 30
0.0
 40
6.0
  0
LINE
  8
SIZE
  6
CONTINUOUS
 62
    30
 10
-178.96835180693509
 20
105.0
 30
0.0
 11
-178.96835180693509
 21
93.0
 31
0.0
  0
CIRCLE
  8
SIZE
  6
CONTINUOUS
 62
    30
 10
-178.96835180693509
 20
0.0000000000000142
 30
0.0
 40
6.0
  0
LINE
  8
SIZE
  6
CONTINUOUS
 62
    30
 10
-178.96835180693509
 20
0.0000000000000142
 30
0.0
 11
-178.96835180693509
 21
12.000000000000011
 31
0.0
  0
TEXT
  8
SIZE
  6
CONTINUOUS
 62
    30
 10
-203.96835180693509
 20
-16.071428571428552
 30
0.0
 40
64.0
  1
105
 50
90.0
 41
0.9
 72
     1
 11
-203.96835180693509
 21
52.500000000000021
 31
0.0
  0
LINE
  8
BASIS
  6
DASHDOT
 62
     6
 10
0.0
 20
109.7929570428
 30
0.0
 11
0.0
 21
-114.82618259740001
 31
0.0
  0
LINE
  8
OUTLINE
  6
CONTINUOUS
 62
     3
 10
-98.500000000000441
 20
105.0000000000005
 30
0.0
 11
98.5
 21
105.0000000000005
 31
0.0
  0
LINE
  8
OUTLINE
  6
CONTINUOUS
 62
     3
 10
-98.500000000000441
 20
-105.0
 30
0.0
 11
98.5
 21
-105.0
 31
0.0
  0
LINE
  8
OUTLINE
  6
CONTINUOUS
 62
     3
 10
104.9999999999995
 20
-98.499999999999545
 30
0.0
 11
104.9999999999995
 21
98.500000000000441
 31
0.0
  0
ARC
  8
OUTLINE
  6
CONTINUOUS
 62
     3
 10
98.5
 20
-98.499999999999545
 30
0.0
 40
6.5000000000000027
 50
270.0
 51
0.0
  0
ARC
  8
OUTLINE
  6
CONTINUOUS
 62
     3
 10
-98.500000000000441
 20
-98.499999999999545
 30
0.0
 40
6.4999999999999849
 50
180.0
 51
270.0
  0
ARC
  8
OUTLINE
  6
CONTINUOUS
 62
     3
 10
-98.500000000000441
 20
98.500000000000441
 30
0.0
 40
6.5000000000000231
 50
90.0
 51
180.0
  0
ARC
  8
OUTLINE
  6
CONTINUOUS
 62
     3
 10
98.5
 20
98.500000000000441
 30
0.0
 40
6.4999999999999849
 50
0.0
 51
90.0
  0
LINE
  8
OUTLINE
  6
CONTINUOUS
 62
     3
 10
-105.0
 20
98.500000000000441
 30
0.0
 11
-105.0
 21
-98.499999999999545
 31
0.0
  0
LINE
  8
DETAIL
  6
CONTINUOUS
 62
     5
 10
-98.500000000000441
 20
105.0000000000005
 30
0.0
 11
98.5
 21
105.0000000000005
 31
0.0
  0
LINE
  8
DETAIL
  6
CONTINUOUS
 62
     5
 10
-98.500000000000441
 20
-105.0
 30
0.0
 11
98.5
 21
-105.0
 31
0.0
  0
LINE
  8
DETAIL
  6
CONTINUOUS
 62
     5
 10
104.9999999999995
 20
-98.499999999999545
 30
0.0
 11
104.9999999999995
 21
98.500000000000441
 31
0.0
  0
ARC
  8
DETAIL
  6
CONTINUOUS
 62
     5
 10
98.5
 20
-98.499999999999545
 30
0.0
 40
6.5000000000000027
 50
270.0
 51
0.0
  0
ARC
  8
DETAIL
  6
CONTINUOUS
 62
     5
 10
-98.500000000000441
 20
-98.499999999999545
 30
0.0
 40
6.4999999999999849
 50
180.0
 51
270.0
  0
ARC
  8
DETAIL
  6
CONTINUOUS
 62
     5
 10
-98.500000000000441
 20
98.500000000000441
 30
0.0
 40
6.5000000000000231
 50
90.0
 51
180.0
  0
ARC
  8
DETAIL
  6
CONTINUOUS
 62
     5
 10
98.5
 20
98.500000000000441
 30
0.0
 40
6.4999999999999849
 50
0.0
 51
90.0
  0
LINE
  8
DETAIL
  6
CONTINUOUS
 62
     5
 10
-98.500000000000441
 20
-82.5
 30
0.0
 11
98.999999999999545
 21
-82.5
 31
0.0
  0
LINE
  8
DETAIL
  6
CONTINUOUS
 62
     5
 10
103.607290949416
 20
-75.345731916869681
 30
0.0
 11
103.607290949416
 21
98.500000000000441
 31
0.0
  0
LINE
  8
DETAIL
  6
CONTINUOUS
 62
     5
 10
-98.430501513045101
 20
-80.0
 30
0.0
 11
98.430501513045314
 21
-80.000000000000909
 31
0.0
  0
ARC
  8
DETAIL
  6
CONTINUOUS
 62
     5
 10
-97.107290949415983
 20
98.500000000000441
 30
0.0
 40
6.5000000000000231
 50
90.0
 51
180.0
  0
ARC
  8
DETAIL
  6
CONTINUOUS
 62
     5
 10
97.107290949415983
 20
98.500000000000441
 30
0.0
 40
6.4999999999999849
 50
0.0
 51
90.0
  0
CIRCLE
  8
DETAIL
  6
CONTINUOUS
 62
     5
 10
0.0
 20
17.000000000000451
 30
0.0
 40
1.4999999999999849
  0
CIRCLE
  8
DETAIL
  6
CONTINUOUS
 62
     5
 10
0.0
 20
21.000000000000451
 30
0.0
 40
1.4999999999999849
  0
CIRCLE
  8
DETAIL
  6
CONTINUOUS
 62
     5
 10
0.0
 20
25.0
 30
0.0
 40
1.4999999999999849
  0
CIRCLE
  8
DETAIL
  6
CONTINUOUS
 62
     5
 10
0.0
 20
29.000000000000451
 30
0.0
 40
1.4999999999999849
  0
CIRCLE
  8
DETAIL
  6
CONTINUOUS
 62
     5
 10
0.0
 20
33.0
 30
0.0
 40
1.4999999999999849
  0
CIRCLE
  8
DETAIL
  6
CONTINUOUS
 62
     5
 10
0.0
 20
37.000000000000448
 30
0.0
 40
1.4999999999999849
  0
CIRCLE
  8
DETAIL
  6
CONTINUOUS
 62
     5
 10
0.0
 20
41.000000000000448
 30
0.0
 40
1.4999999999999849
  0
CIRCLE
  8
DETAIL
  6
CONTINUOUS
 62
     5
 10
0.0
 20
45.0
 30
0.0
 40
1.4999999999999849
  0
CIRCLE
  8
DETAIL
  6
CONTINUOUS
 62
     5
 10
0.0
 20
49.000000000000448
 30
0.0
 40
1.4999999999999849
  0
CIRCLE
  8
DETAIL
  6
CONTINUOUS
 62
     5
 10
0.0
 20
53.0
 30
0.0
 40
1.4999999999999849
  0
CIRCLE
  8
DETAIL
  6
CONTINUOUS
 62
     5
 10
0.0
 20
57.000000000000448
 30
0.0
 40
1.4999999999999849
  0
CIRCLE
  8
DETAIL
  6
CONTINUOUS
 62
     5
 10
0.0
 20
61.000000000000448
 30
0.0
 40
1.4999999999999849
  0
CIRCLE
  8
DETAIL
  6
CONTINUOUS
 62
     5
 10
0.0
 20
65.000000000000455
 30
0.0
 40
1.4999999999999849
  0
CIRCLE
  8
DETAIL
  6
CONTINUOUS
 62
     5
 10
0.0
 20
69.000000000000455
 30
0.0
 40
1.4999999999999849
  0
CIRCLE
  8
DETAIL
  6
CONTINUOUS
 62
     5
 10
0.0
 20
73.0
 30
0.0
 40
1.4999999999999849
  0
CIRCLE
  8
DETAIL
  6
CONTINUOUS
 62
     5
 10
0.0
 20
77.0
 30
0.0
 40
1.4999999999999849
  0
CIRCLE
  8
DETAIL
  6
CONTINUOUS
 62
     5
 10
0.0
 20
13.0
 30
0.0
 40
1.4999999999999849
  0
CIRCLE
  8
DETAIL
  6
CONTINUOUS
 62
     5
 10
0.0
 20
81.000000000000455
 30
0.0
 40
1.1999999999999751
  0
CIRCLE
  8
DETAIL
  6
CONTINUOUS
 62
     5
 10
0.0
 20
85.000000000000455
 30
0.0
 40
0.8999999999999624
  0
CIRCLE
  8
DETAIL
  6
CONTINUOUS
 62
     5
 10
3.4641016151372241
 20
15.0
 30
0.0
 40
1.4999999999999849
  0
CIRCLE
  8
DETAIL
  6
CONTINUOUS
 62
     5
 10
6.9282032302753578
 20
13.0
 30
0.0
 40
1.4999999999999849
  0
CIRCLE
  8
DETAIL
  6
CONTINUOUS
 62
     5
 10
3.4641016151372241
 20
19.000000000000451
 30
0.0
 40
1.4999999999999849
  0
CIRCLE
  8
DETAIL
  6
CONTINUOUS
 62
     5
 10
6.9282032302753578
 20
17.000000000000451
 30
0.0
 40
1.4999999999999849
  0
CIRCLE
  8
DETAIL
  6
CONTINUOUS
 62
     5
 10
10.39230484541304
 20
15.0
 30
0.0
 40
1.4999999999999849
  0
CIRCLE
  8
DETAIL
  6
CONTINUOUS
 62
     5
 10
13.856406460550719
 20
13.0
 30
0.0
 40
1.5000000000000571
  0
CIRCLE
  8
DETAIL
  6
CONTINUOUS
 62
     5
 10
3.4641016151372241
 20
23.0
 30
0.0
 40
1.4999999999999849
  0
CIRCLE
  8
DETAIL
  6
CONTINUOUS
 62
     5
 10
6.9282032302753578
 20
21.000000000000451
 30
0.0
 40
1.4999999999999849
  0
CIRCLE
  8
DETAIL
  6
CONTINUOUS
 62
     5
 10
10.39230484541304
 20
19.000000000000451
 30
0.0
 40
1.4999999999999849
  0
CIRCLE
  8
DETAIL
  6
CONTINUOUS
 62
     5
 10
13.856406460550719
 20
17.000000000000451
 30
0.0
 40
1.5000000000000571
  0
CIRCLE
  8
DETAIL
  6
CONTINUOUS
 62
     5
 10
20.784609690826532
 20
13.0
 30
0.0
 40
1.4999999999999849
  0
CIRCLE
  8
DETAIL
  6
CONTINUOUS
 62
     5
 10
17.320508075688849
 20
15.0
 30
0.0
 40
1.500000000000022
  0
CIRCLE
  8
DETAIL
  6
CONTINUOUS
 62
     5
 10
3.4641016151372241
 20
27.000000000000451
 30
0.0
 40
1.4999999999999849
  0
CIRCLE
  8
DETAIL
  6
CONTINUOUS
 62
     5
 10
6.9282032302753578
 20
25.0
 30
0.0
 40
1.4999999999999849
  0
CIRCLE
  8
DETAIL
  6
CONTINUOUS
 62
     5
 10
10.39230484541304
 20
23.0
 30
0.0
 40
1.4999999999999849
  0
CIRCLE
  8
DETAIL
  6
CONTINUOUS
 62
     5
 10
13.856406460550719
 20
21.000000000000451
 30
0.0
 40
1.5000000000000571
  0
CIRCLE
  8
DETAIL
  6
CONTINUOUS
 62
     5
 10
24.248711305964211
 20
15.0
 30
0.0
 40
1.4999999999999849
  0
CIRCLE
  8
DETAIL
  6
CONTINUOUS
 62
     5
 10
20.784609690826532
 20
17.0
 30
0.0
 40
1.4999999999999849
  0
CIRCLE
  8
DETAIL
  6
CONTINUOUS
 62
     5
 10
17.320508075688849
 20
18.999999999999549
 30
0.0
 40
1.500000000000022
  0
CIRCLE
  8
DETAIL
  6
CONTINUOUS
 62
     5
 10
27.712812921101889
 20
13.0
 30
0.0
 40
1.500000000000022
  0
CIRCLE
  8
DETAIL
  6
CONTINUOUS
 62
     5
 10
3.4641016151372241
 20
31.000000000000451
 30
0.0
 40
1.4999999999999849
  0
CIRCLE
  8
DETAIL
  6
CONTINUOUS
 62
     5
 10
6.9282032302753578
 20
29.000000000000451
 30
0.0
 40
1.4999999999999849
  0
CIRCLE
  8
DETAIL
  6
CONTINUOUS
 62
     5
 10
10.39230484541304
 20
27.000000000000451
 30
0.0
 40
1.4999999999999849
  0
CIRCLE
  8
DETAIL
  6
CONTINUOUS
 62
     5
 10
13.856406460550719
 20
25.0
 30
0.0
 40
1.5000000000000571
  0
CIRCLE
  8
DETAIL
  6
CONTINUOUS
 62
     5
 10
24.248711305964211
 20
18.999999999999549
 30
0.0
 40
1.4999999999999849
  0
CIRCLE
  8
DETAIL
  6
CONTINUOUS
 62
     5
 10
20.784609690826532
 20
21.000000000000451
 30
0.0
 40
1.4999999999999849
  0
CIRCLE
  8
DETAIL
  6
CONTINUOUS
 62
     5
 10
17.320508075688849
 20
23.0
 30
0.0
 40
1.500000000000022
  0
CIRCLE
  8
DETAIL
  6
CONTINUOUS
 62
     5
 10
27.712812921101889
 20
17.0
 30
0.0
 40
1.500000000000022
  0
CIRCLE
  8
DETAIL
  6
CONTINUOUS
 62
     5
 10
31.17691453624002
 20
15.0
 30
0.0
 40
1.4999999999999849
  0
CIRCLE
  8
DETAIL
  6
CONTINUOUS
 62
     5
 10
34.641016151377698
 20
13.0
 30
0.0
 40
1.500000000000022
  0
CIRCLE
  8
DETAIL
  6
CONTINUOUS
 62
     5
 10
3.4641016151372241
 20
35.0
 30
0.0
 40
1.4999999999999849
  0
CIRCLE
  8
DETAIL
  6
CONTINUOUS
 62
     5
 10
6.9282032302753578
 20
33.0
 30
0.0
 40
1.4999999999999849
  0
CIRCLE
  8
DETAIL
  6
CONTINUOUS
 62
     5
 10
10.39230484541304
 20
31.000000000000451
 30
0.0
 40
1.4999999999999849
  0
CIRCLE
  8
DETAIL
  6
CONTINUOUS
 62
     5
 10
13.856406460550719
 20
29.000000000000451
 30
0.0
 40
1.5000000000000571
  0
CIRCLE
  8
DETAIL
  6
CONTINUOUS
 62
     5
 10
24.248711305964211
 20
23.0
 30
0.0
 40
1.4999999999999849
  0
CIRCLE
  8
DETAIL
  6
CONTINUOUS
 62
     5
 10
20.784609690826532
 20
25.0
 30
0.0
 40
1.4999999999999849
  0
CIRCLE
  8
DETAIL
  6
CONTINUOUS
 62
     5
 10
17.320508075688849
 20
27.0
 30
0.0
 40
1.500000000000022
  0
CIRCLE
  8
DETAIL
  6
CONTINUOUS
 62
     5
 10
27.712812921101889
 20
21.000000000000451
 30
0.0
 40
1.500000000000022
  0
CIRCLE
  8
DETAIL
  6
CONTINUOUS
 62
     5
 10
31.17691453624002
 20
18.999999999999549
 30
0.0
 40
1.4999999999999849
  0
CIRCLE
  8
DETAIL
  6
CONTINUOUS
 62
     5
 10
41.569219381653511
 20
13.0
 30
0.0
 40
1.4999999999999849
  0
CIRCLE
  8
DETAIL
  6
CONTINUOUS
 62
     5
 10
38.105117766515377
 20
15.0
 30
0.0
 40
1.4999999999999849
  0
CIRCLE
  8
DETAIL
  6
CONTINUOUS
 62
     5
 10
34.641016151377698
 20
17.0
 30
0.0
 40
1.500000000000022
  0
CIRCLE
  8
DETAIL
  6
CONTINUOUS
 62
     5
 10
3.4641016151372241
 20
39.000000000000448
 30
0.0
 40
1.4999999999999849
  0
CIRCLE
  8
DETAIL
  6
CONTINUOUS
 62
     5
 10
6.9282032302753578
 20
37.000000000000448
 30
0.0
 40
1.4999999999999849
  0
CIRCLE
  8
DETAIL
  6
CONTINUOUS
 62
     5
 10
10.39230484541304
 20
35.0
 30
0.0
 40
1.4999999999999849
  0
CIRCLE
  8
DETAIL
  6
CONTINUOUS
 62
     5
 10
13.856406460550719
 20
33.0
 30
0.0
 40
1.5000000000000571
  0
CIRCLE
  8
DETAIL
  6
CONTINUOUS
 62
     5
 10
24.248711305964211
 20
27.0
 30
0.0
 40
1.4999999999999849
  0
CIRCLE
  8
DETAIL
  6
CONTINUOUS
 62
     5
 10
20.784609690826532
 20
28.999999999999549
 30
0.0
 40
1.4999999999999849
  0
CIRCLE
  8
DETAIL
  6
CONTINUOUS
 62
     5
 10
17.320508075688849
 20
31.000000000000451
 30
0.0
 40
1.500000000000022
  0
CIRCLE
  8
DETAIL
  6
CONTINUOUS
 62
     5
 10
27.712812921101889
 20
25.0
 30
0.0
 40
1.500000000000022
  0
CIRCLE
  8
DETAIL
  6
CONTINUOUS
 62
     5
 10
31.17691453624002
 20
23.0
 30
0.0
 40
1.4999999999999849
  0
CIRCLE
  8
DETAIL
  6
CONTINUOUS
 62
     5
 10
48.497422611928862
 20
13.0
 30
0.0
 40
1.4999999999999849
  0
CIRCLE
  8
DETAIL
  6
CONTINUOUS
 62
     5
 10
45.03332099679119
 20
15.0
 30
0.0
 40
1.500000000000022
  0
CIRCLE
  8
DETAIL
  6
CONTINUOUS
 62
     5
 10
41.569219381653511
 20
17.0
 30
0.0
 40
1.4999999999999849
  0
CIRCLE
  8
DETAIL
  6
CONTINUOUS
 62
     5
 10
38.105117766515377
 20
18.999999999999549
 30
0.0
 40
1.4999999999999849
  0
CIRCLE
  8
DETAIL
  6
CONTINUOUS
 62
     5
 10
34.641016151377698
 20
21.000000000000451
 30
0.0
 40
1.500000000000022
  0
CIRCLE
  8
DETAIL
  6
CONTINUOUS
 62
     5
 10
3.4641016151372241
 20
43.0
 30
0.0
 40
1.4999999999999849
  0
CIRCLE
  8
DETAIL
  6
CONTINUOUS
 62
     5
 10
6.9282032302753578
 20
41.000000000000448
 30
0.0
 40
1.4999999999999849
  0
CIRCLE
  8
DETAIL
  6
CONTINUOUS
 62
     5
 10
10.39230484541304
 20
39.000000000000448
 30
0.0
 40
1.4999999999999849
  0
CIRCLE
  8
DETAIL
  6
CONTINUOUS
 62
     5
 10
13.856406460550719
 20
37.000000000000448
 30
0.0
 40
1.5000000000000571
  0
CIRCLE
  8
DETAIL
  6
CONTINUOUS
 62
     5
 10
24.248711305964211
 20
31.000000000000451
 30
0.0
 40
1.4999999999999849
  0
CIRCLE
  8
DETAIL
  6
CONTINUOUS
 62
     5
 10
20.784609690826532
 20
33.0
 30
0.0
 40
1.4999999999999849
  0
CIRCLE
  8
DETAIL
  6
CONTINUOUS
 62
     5
 10
17.320508075688849
 20
35.0
 30
0.0
 40
1.500000000000022
  0
CIRCLE
  8
DETAIL
  6
CONTINUOUS
 62
     5
 10
27.712812921101889
 20
28.999999999999549
 30
0.0
 40
1.500000000000022
  0
CIRCLE
  8
DETAIL
  6
CONTINUOUS
 62
     5
 10
31.17691453624002
 20
27.0
 30
0.0
 40
1.4999999999999849
  0
CIRCLE
  8
DETAIL
  6
CONTINUOUS
 62
     5
 10
55.425625842204667
 20
13.0
 30
0.0
 40
1.4999999999999849
  0
CIRCLE
  8
DETAIL
  6
CONTINUOUS
 62
     5
 10
51.961524227067002
 20
15.0
 30
0.0
 40
1.500000000000022
  0
CIRCLE
  8
DETAIL
  6
CONTINUOUS
 62
     5
 10
48.497422611928862
 20
17.0
 30
0.0
 40
1.4999999999999849
  0
CIRCLE
  8
DETAIL
  6
CONTINUOUS
 62
     5
 10
45.03332099679119
 20
18.999999999999549
 30
0.0
 40
1.500000000000022
  0
CIRCLE
  8
DETAIL
  6
CONTINUOUS
 62
     5
 10
41.569219381653511
 20
21.000000000000451
 30
0.0
 40
1.4999999999999849
  0
CIRCLE
  8
DETAIL
  6
CONTINUOUS
 62
     5
 10
38.105117766515377
 20
23.0
 30
0.0
 40
1.4999999999999849
  0
CIRCLE
  8
DETAIL
  6
CONTINUOUS
 62
     5
 10
34.641016151377698
 20
25.0
 30
0.0
 40
1.500000000000022
  0
CIRCLE
  8
DETAIL
  6
CONTINUOUS
 62
     5
 10
3.4641016151372241
 20
47.000000000000448
 30
0.0
 40
1.4999999999999849
  0
CIRCLE
  8
DETAIL
  6
CONTINUOUS
 62
     5
 10
6.9282032302753578
 20
45.0
 30
0.0
 40
1.4999999999999849
  0
CIRCLE
  8
DETAIL
  6
CONTINUOUS
 62
     5
 10
10.39230484541304
 20
43.0
 30
0.0
 40
1.4999999999999849
  0
CIRCLE
  8
DETAIL
  6
CONTINUOUS
 62
     5
 10
13.856406460550719
 20
41.000000000000448
 30
0.0
 40
1.5000000000000571
  0
CIRCLE
  8
DETAIL
  6
CONTINUOUS
 62
     5
 10
24.248711305964211
 20
35.0
 30
0.0
 40
1.4999999999999849
  0
CIRCLE
  8
DETAIL
  6
CONTINUOUS
 62
     5
 10
20.784609690826532
 20
37.0
 30
0.0
 40
1.4999999999999849
  0
CIRCLE
  8
DETAIL
  6
CONTINUOUS
 62
     5
 10
17.320508075688849
 20
38.999999999999552
 30
0.0
 40
1.500000000000022
  0
CIRCLE
  8
DETAIL
  6
CONTINUOUS
 62
     5
 10
27.712812921101889
 20
33.0
 30
0.0
 40
1.500000000000022
  0
CIRCLE
  8
DETAIL
  6
CONTINUOUS
 62
     5
 10
31.17691453624002
 20
31.000000000000451
 30
0.0
 40
1.4999999999999849
  0
CIRCLE
  8
DETAIL
  6
CONTINUOUS
 62
     5
 10
62.353829072480039
 20
13.0
 30
0.0
 40
1.500000000000022
  0
CIRCLE
  8
DETAIL
  6
CONTINUOUS
 62
     5
 10
58.88972745734236
 20
15.0
 30
0.0
 40
1.4999999999999849
  0
CIRCLE
  8
DETAIL
  6
CONTINUOUS
 62
     5
 10
55.425625842204667
 20
17.0
 30
0.0
 40
1.4999999999999849
  0
CIRCLE
  8
DETAIL
  6
CONTINUOUS
 62
     5
 10
51.961524227067002
 20
18.999999999999549
 30
0.0
 40
1.500000000000022
  0
CIRCLE
  8
DETAIL
  6
CONTINUOUS
 62
     5
 10
48.497422611928862
 20
21.000000000000451
 30
0.0
 40
1.4999999999999849
  0
CIRCLE
  8
DETAIL
  6
CONTINUOUS
 62
     5
 10
45.03332099679119
 20
23.0
 30
0.0
 40
1.500000000000022
  0
CIRCLE
  8
DETAIL
  6
CONTINUOUS
 62
     5
 10
41.569219381653511
 20
25.0
 30
0.0
 40
1.4999999999999849
  0
CIRCLE
  8
DETAIL
  6
CONTINUOUS
 62
     5
 10
38.105117766515377
 20
27.0
 30
0.0
 40
1.4999999999999849
  0
CIRCLE
  8
DETAIL
  6
CONTINUOUS
 62
     5
 10
34.641016151377698
 20
28.999999999999549
 30
0.0
 40
1.500000000000022
  0
CIRCLE
  8
DETAIL
  6
CONTINUOUS
 62
     5
 10
3.4641016151372241
 20
51.000000000000448
 30
0.0
 40
1.4999999999999849
  0
CIRCLE
  8
DETAIL
  6
CONTINUOUS
 62
     5
 10
6.9282032302753578
 20
49.000000000000448
 30
0.0
 40
1.4999999999999849
  0
CIRCLE
  8
DETAIL
  6
CONTINUOUS
 62
     5
 10
10.39230484541304
 20
47.000000000000448
 30
0.0
 40
1.4999999999999849
  0
CIRCLE
  8
DETAIL
  6
CONTINUOUS
 62
     5
 10
13.856406460550719
 20
45.0
 30
0.0
 40
1.5000000000000571
  0
CIRCLE
  8
DETAIL
  6
CONTINUOUS
 62
     5
 10
24.248711305964211
 20
38.999999999999552
 30
0.0
 40
1.4999999999999849
  0
CIRCLE
  8
DETAIL
  6
CONTINUOUS
 62
     5
 10
20.784609690826532
 20
41.000000000000448
 30
0.0
 40
1.4999999999999849
  0
CIRCLE
  8
DETAIL
  6
CONTINUOUS
 62
     5
 10
17.320508075688849
 20
43.0
 30
0.0
 40
1.500000000000022
  0
CIRCLE
  8
DETAIL
  6
CONTINUOUS
 62
     5
 10
27.712812921101889
 20
37.0
 30
0.0
 40
1.500000000000022
  0
CIRCLE
  8
DETAIL
  6
CONTINUOUS
 62
     5
 10
31.17691453624002
 20
35.0
 30
0.0
 40
1.4999999999999849
  0
CIRCLE
  8
DETAIL
  6
CONTINUOUS
 62
     5
 10
69.282032302755852
 20
13.0
 30
0.0
 40
1.500000000000022
  0
CIRCLE
  8
DETAIL
  6
CONTINUOUS
 62
     5
 10
65.817930687617718
 20
15.0
 30
0.0
 40
1.4999999999999849
  0
CIRCLE
  8
DETAIL
  6
CONTINUOUS
 62
     5
 10
62.353829072480039
 20
17.0
 30
0.0
 40
1.500000000000022
  0
CIRCLE
  8
DETAIL
  6
CONTINUOUS
 62
     5
 10
58.88972745734236
 20
18.999999999999549
 30
0.0
 40
1.4999999999999849
  0
CIRCLE
  8
DETAIL
  6
CONTINUOUS
 62
     5
 10
55.425625842204667
 20
21.000000000000451
 30
0.0
 40
1.4999999999999849
  0
CIRCLE
  8
DETAIL
  6
CONTINUOUS
 62
     5
 10
51.961524227067002
 20
23.0
 30
0.0
 40
1.500000000000022
  0
CIRCLE
  8
DETAIL
  6
CONTINUOUS
 62
     5
 10
48.497422611928862
 20
25.0
 30
0.0
 40
1.4999999999999849
  0
CIRCLE
  8
DETAIL
  6
CONTINUOUS
 62
     5
 10
45.03332099679119
 20
27.0
 30
0.0
 40
1.500000000000022
  0
CIRCLE
  8
DETAIL
  6
CONTINUOUS
 62
     5
 10
41.569219381653511
 20
28.999999999999549
 30
0.0
 40
1.4999999999999849
  0
CIRCLE
  8
DETAIL
  6
CONTINUOUS
 62
     5
 10
38.105117766515377
 20
31.000000000000451
 30
0.0
 40
1.4999999999999849
  0
CIRCLE
  8
DETAIL
  6
CONTINUOUS
 62
     5
 10
34.641016151377698
 20
33.0
 30
0.0
 40
1.500000000000022
  0
CIRCLE
  8
DETAIL
  6
CONTINUOUS
 62
     5
 10
3.4641016151372241
 20
55.0
 30
0.0
 40
1.4999999999999849
  0
CIRCLE
  8
DETAIL
  6
CONTINUOUS
 62
     5
 10
6.9282032302753578
 20
53.0
 30
0.0
 40
1.4999999999999849
  0
CIRCLE
  8
DETAIL
  6
CONTINUOUS
 62
     5
 10
10.39230484541304
 20
51.000000000000448
 30
0.0
 40
1.4999999999999849
  0
CIRCLE
  8
DETAIL
  6
CONTINUOUS
 62
     5
 10
13.856406460550719
 20
49.000000000000448
 30
0.0
 40
1.5000000000000571
  0
CIRCLE
  8
DETAIL
  6
CONTINUOUS
 62
     5
 10
24.248711305964211
 20
43.0
 30
0.0
 40
1.4999999999999849
  0
CIRCLE
  8
DETAIL
  6
CONTINUOUS
 62
     5
 10
20.784609690826532
 20
45.0
 30
0.0
 40
1.4999999999999849
  0
CIRCLE
  8
DETAIL
  6
CONTINUOUS
 62
     5
 10
17.320508075688849
 20
47.0
 30
0.0
 40
1.500000000000022
  0
CIRCLE
  8
DETAIL
  6
CONTINUOUS
 62
     5
 10
27.712812921101889
 20
41.000000000000448
 30
0.0
 40
1.500000000000022
  0
CIRCLE
  8
DETAIL
  6
CONTINUOUS
 62
     5
 10
31.17691453624002
 20
38.999999999999552
 30
0.0
 40
1.4999999999999849
  0
CIRCLE
  8
DETAIL
  6
CONTINUOUS
 62
     5
 10
76.210235533031209
 20
12.999999999999551
 30
0.0
 40
1.4999999999999849
  0
CIRCLE
  8
DETAIL
  6
CONTINUOUS
 62
     5
 10
72.74613391789353
 20
15.0
 30
0.0
 40
1.4999999999999849
  0
CIRCLE
  8
DETAIL
  6
CONTINUOUS
 62
     5
 10
69.282032302755852
 20
17.0
 30
0.0
 40
1.500000000000022
  0
CIRCLE
  8
DETAIL
  6
CONTINUOUS
 62
     5
 10
65.817930687617718
 20
18.999999999999549
 30
0.0
 40
1.4999999999999849
  0
CIRCLE
  8
DETAIL
  6
CONTINUOUS
 62
     5
 10
62.353829072480039
 20
21.000000000000451
 30
0.0
 40
1.500000000000022
  0
CIRCLE
  8
DETAIL
  6
CONTINUOUS
 62
     5
 10
58.88972745734236
 20
23.0
 30
0.0
 40
1.4999999999999849
  0
CIRCLE
  8
DETAIL
  6
CONTINUOUS
 62
     5
 10
55.425625842204667
 20
25.0
 30
0.0
 40
1.4999999999999849
  0
CIRCLE
  8
DETAIL
  6
CONTINUOUS
 62
     5
 10
51.961524227067002
 20
27.0
 30
0.0
 40
1.500000000000022
  0
CIRCLE
  8
DETAIL
  6
CONTINUOUS
 62
     5
 10
48.497422611928862
 20
28.999999999999549
 30
0.0
 40
1.4999999999999849
  0
CIRCLE
  8
DETAIL
  6
CONTINUOUS
 62
     5
 10
45.03332099679119
 20
31.000000000000451
 30
0.0
 40
1.500000000000022
  0
CIRCLE
  8
DETAIL
  6
CONTINUOUS
 62
     5
 10
41.569219381653511
 20
33.0
 30
0.0
 40
1.4999999999999849
  0
CIRCLE
  8
DETAIL
  6
CONTINUOUS
 62
     5
 10
38.105117766515377
 20
35.0
 30
0.0
 40
1.4999999999999849
  0
CIRCLE
  8
DETAIL
  6
CONTINUOUS
 62
     5
 10
34.641016151377698
 20
37.0
 30
0.0
 40
1.500000000000022
  0
CIRCLE
  8
DETAIL
  6
CONTINUOUS
 62
     5
 10
3.4641016151372241
 20
59.000000000000448
 30
0.0
 40
1.4999999999999849
  0
CIRCLE
  8
DETAIL
  6
CONTINUOUS
 62
     5
 10
6.9282032302753578
 20
57.000000000000448
 30
0.0
 40
1.4999999999999849
  0
CIRCLE
  8
DETAIL
  6
CONTINUOUS
 62
     5
 10
10.39230484541304
 20
55.0
 30
0.0
 40
1.4999999999999849
  0
CIRCLE
  8
DETAIL
  6
CONTINUOUS
 62
     5
 10
13.856406460550719
 20
53.0
 30
0.0
 40
1.5000000000000571
  0
CIRCLE
  8
DETAIL
  6
CONTINUOUS
 62
     5
 10
24.248711305964211
 20
47.0
 30
0.0
 40
1.4999999999999849
  0
CIRCLE
  8
DETAIL
  6
CONTINUOUS
 62
     5
 10
20.784609690826532
 20
48.999999999999552
 30
0.0
 40
1.4999999999999849
  0
CIRCLE
  8
DETAIL
  6
CONTINUOUS
 62
     5
 10
17.320508075688849
 20
51.000000000000448
 30
0.0
 40
1.500000000000022
  0
CIRCLE
  8
DETAIL
  6
CONTINUOUS
 62
     5
 10
27.712812921101889
 20
45.0
 30
0.0
 40
1.500000000000022
  0
CIRCLE
  8
DETAIL
  6
CONTINUOUS
 62
     5
 10
31.17691453624002
 20
43.0
 30
0.0
 40
1.4999999999999849
  0
CIRCLE
  8
DETAIL
  6
CONTINUOUS
 62
     5
 10
79.674337148168902
 20
15.0
 30
0.0
 40
1.2000000000000099
  0
CIRCLE
  8
DETAIL
  6
CONTINUOUS
 62
     5
 10
83.138438763306567
 20
12.999999999999551
 30
0.0
 40
0.8999999999999974
  0
CIRCLE
  8
DETAIL
  6
CONTINUOUS
 62
     5
 10
76.210235533031209
 20
17.0
 30
0.0
 40
1.4999999999999849
  0
CIRCLE
  8
DETAIL
  6
CONTINUOUS
 62
     5
 10
72.74613391789353
 20
18.999999999999549
 30
0.0
 40
1.4999999999999849
  0
CIRCLE
  8
DETAIL
  6
CONTINUOUS
 62
     5
 10
69.282032302755852
 20
21.000000000000451
 30
0.0
 40
1.500000000000022
  0
CIRCLE
  8
DETAIL
  6
CONTINUOUS
 62
     5
 10
65.817930687617718
 20
23.0
 30
0.0
 40
1.4999999999999849
  0
CIRCLE
  8
DETAIL
  6
CONTINUOUS
 62
     5
 10
62.353829072480039
 20
25.0
 30
0.0
 40
1.500000000000022
  0
CIRCLE
  8
DETAIL
  6
CONTINUOUS
 62
     5
 10
58.88972745734236
 20
27.0
 30
0.0
 40
1.4999999999999849
  0
CIRCLE
  8
DETAIL
  6
CONTINUOUS
 62
     5
 10
55.425625842204667
 20
28.999999999999549
 30
0.0
 40
1.4999999999999849
  0
CIRCLE
  8
DETAIL
  6
CONTINUOUS
 62
     5
 10
51.961524227067002
 20
31.000000000000451
 30
0.0
 40
1.500000000000022
  0
CIRCLE
  8
DETAIL
  6
CONTINUOUS
 62
     5
 10
48.497422611928862
 20
33.0
 30
0.0
 40
1.4999999999999849
  0
CIRCLE
  8
DETAIL
  6
CONTINUOUS
 62
     5
 10
45.03332099679119
 20
35.0
 30
0.0
 40
1.500000000000022
  0
CIRCLE
  8
DETAIL
  6
CONTINUOUS
 62
     5
 10
41.569219381653511
 20
37.0
 30
0.0
 40
1.4999999999999849
  0
CIRCLE
  8
DETAIL
  6
CONTINUOUS
 62
     5
 10
38.105117766515377
 20
38.999999999999552
 30
0.0
 40
1.4999999999999849
  0
CIRCLE
  8
DETAIL
  6
CONTINUOUS
 62
     5
 10
34.641016151377698
 20
41.000000000000448
 30
0.0
 40
1.500000000000022
  0
CIRCLE
  8
DETAIL
  6
CONTINUOUS
 62
     5
 10
3.4641016151372241
 20
63.0
 30
0.0
 40
1.4999999999999849
  0
CIRCLE
  8
DETAIL
  6
CONTINUOUS
 62
     5
 10
6.9282032302753578
 20
61.000000000000448
 30
0.0
 40
1.4999999999999849
  0
CIRCLE
  8
DETAIL
  6
CONTINUOUS
 62
     5
 10
10.39230484541304
 20
59.000000000000448
 30
0.0
 40
1.4999999999999849
  0
CIRCLE
  8
DETAIL
  6
CONTINUOUS
 62
     5
 10
13.856406460550719
 20
57.000000000000448
 30
0.0
 40
1.5000000000000571
  0
CIRCLE
  8
DETAIL
  6
CONTINUOUS
 62
     5
 10
24.248711305964211
 20
51.000000000000448
 30
0.0
 40
1.4999999999999849
  0
CIRCLE
  8
DETAIL
  6
CONTINUOUS
 62
     5
 10
20.784609690826532
 20
53.0
 30
0.0
 40
1.4999999999999849
  0
CIRCLE
  8
DETAIL
  6
CONTINUOUS
 62
     5
 10
17.320508075688849
 20
55.0
 30
0.0
 40
1.500000000000022
  0
CIRCLE
  8
DETAIL
  6
CONTINUOUS
 62
     5
 10
27.712812921101889
 20
48.999999999999552
 30
0.0
 40
1.500000000000022
  0
CIRCLE
  8
DETAIL
  6
CONTINUOUS
 62
     5
 10
31.17691453624002
 20
47.0
 30
0.0
 40
1.4999999999999849
  0
CIRCLE
  8
DETAIL
  6
CONTINUOUS
 62
     5
 10
79.674337148168902
 20
18.999999999999549
 30
0.0
 40
1.2000000000000099
  0
CIRCLE
  8
DETAIL
  6
CONTINUOUS
 62
     5
 10
83.138438763306567
 20
17.0
 30
0.0
 40
0.8999999999999974
  0
CIRCLE
  8
DETAIL
  6
CONTINUOUS
 62
     5
 10
76.210235533031209
 20
20.999999999999549
 30
0.0
 40
1.4999999999999849
  0
CIRCLE
  8
DETAIL
  6
CONTINUOUS
 62
     5
 10
72.74613391789353
 20
23.0
 30
0.0
 40
1.4999999999999849
  0
CIRCLE
  8
DETAIL
  6
CONTINUOUS
 62
     5
 10
69.282032302755852
 20
25.0
 30
0.0
 40
1.500000000000022
  0
CIRCLE
  8
DETAIL
  6
CONTINUOUS
 62
     5
 10
65.817930687617718
 20
27.0
 30
0.0
 40
1.4999999999999849
  0
CIRCLE
  8
DETAIL
  6
CONTINUOUS
 62
     5
 10
62.353829072480039
 20
28.999999999999549
 30
0.0
 40
1.500000000000022
  0
CIRCLE
  8
DETAIL
  6
CONTINUOUS
 62
     5
 10
58.88972745734236
 20
31.000000000000451
 30
0.0
 40
1.4999999999999849
  0
CIRCLE
  8
DETAIL
  6
CONTINUOUS
 62
     5
 10
55.425625842204667
 20
33.0
 30
0.0
 40
1.4999999999999849
  0
CIRCLE
  8
DETAIL
  6
CONTINUOUS
 62
     5
 10
51.961524227067002
 20
35.0
 30
0.0
 40
1.500000000000022
  0
CIRCLE
  8
DETAIL
  6
CONTINUOUS
 62
     5
 10
48.497422611928862
 20
37.0
 30
0.0
 40
1.4999999999999849
  0
CIRCLE
  8
DETAIL
  6
CONTINUOUS
 62
     5
 10
45.03332099679119
 20
38.999999999999552
 30
0.0
 40
1.500000000000022
  0
CIRCLE
  8
DETAIL
  6
CONTINUOUS
 62
     5
 10
41.569219381653511
 20
41.000000000000448
 30
0.0
 40
1.4999999999999849
  0
CIRCLE
  8
DETAIL
  6
CONTINUOUS
 62
     5
 10
38.105117766515377
 20
43.0
 30
0.0
 40
1.4999999999999849
  0
CIRCLE
  8
DETAIL
  6
CONTINUOUS
 62
     5
 10
34.641016151377698
 20
45.0
 30
0.0
 40
1.500000000000022
  0
CIRCLE
  8
DETAIL
  6
CONTINUOUS
 62
     5
 10
3.4641016151372241
 20
67.0
 30
0.0
 40
1.4999999999999849
  0
CIRCLE
  8
DETAIL
  6
CONTINUOUS
 62
     5
 10
6.9282032302753578
 20
65.000000000000455
 30
0.0
 40
1.4999999999999849
  0
CIRCLE
  8
DETAIL
  6
CONTINUOUS
 62
     5
 10
10.39230484541304
 20
63.0
 30
0.0
 40
1.4999999999999849
  0
CIRCLE
  8
DETAIL
  6
CONTINUOUS
 62
     5
 10
13.856406460550719
 20
61.000000000000448
 30
0.0
 40
1.5000000000000571
  0
CIRCLE
  8
DETAIL
  6
CONTINUOUS
 62
     5
 10
24.248711305964211
 20
55.0
 30
0.0
 40
1.4999999999999849
  0
CIRCLE
  8
DETAIL
  6
CONTINUOUS
 62
     5
 10
20.784609690826532
 20
57.0
 30
0.0
 40
1.4999999999999849
  0
CIRCLE
  8
DETAIL
  6
CONTINUOUS
 62
     5
 10
17.320508075688849
 20
58.999999999999552
 30
0.0
 40
1.500000000000022
  0
CIRCLE
  8
DETAIL
  6
CONTINUOUS
 62
     5
 10
27.712812921101889
 20
53.0
 30
0.0
 40
1.500000000000022
  0
CIRCLE
  8
DETAIL
  6
CONTINUOUS
 62
     5
 10
31.17691453624002
 20
51.000000000000448
 30
0.0
 40
1.4999999999999849
  0
CIRCLE
  8
DETAIL
  6
CONTINUOUS
 62
     5
 10
79.674337148168902
 20
22.999999999999549
 30
0.0
 40
1.2000000000000099
  0
CIRCLE
  8
DETAIL
  6
CONTINUOUS
 62
     5
 10
83.138438763306567
 20
20.999999999999549
 30
0.0
 40
0.8999999999999974
  0
CIRCLE
  8
DETAIL
  6
CONTINUOUS
 62
     5
 10
76.210235533031209
 20
25.0
 30
0.0
 40
1.4999999999999849
  0
CIRCLE
  8
DETAIL
  6
CONTINUOUS
 62
     5
 10
72.74613391789353
 20
27.0
 30
0.0
 40
1.4999999999999849
  0
CIRCLE
  8
DETAIL
  6
CONTINUOUS
 62
     5
 10
69.282032302755852
 20
28.999999999999549
 30
0.0
 40
1.500000000000022
  0
CIRCLE
  8
DETAIL
  6
CONTINUOUS
 62
     5
 10
65.817930687617718
 20
31.000000000000451
 30
0.0
 40
1.4999999999999849
  0
CIRCLE
  8
DETAIL
  6
CONTINUOUS
 62
     5
 10
62.353829072480039
 20
33.0
 30
0.0
 40
1.500000000000022
  0
CIRCLE
  8
DETAIL
  6
CONTINUOUS
 62
     5
 10
58.88972745734236
 20
35.0
 30
0.0
 40
1.4999999999999849
  0
CIRCLE
  8
DETAIL
  6
CONTINUOUS
 62
     5
 10
55.425625842204667
 20
37.0
 30
0.0
 40
1.4999999999999849
  0
CIRCLE
  8
DETAIL
  6
CONTINUOUS
 62
     5
 10
51.961524227067002
 20
38.999999999999552
 30
0.0
 40
1.500000000000022
  0
CIRCLE
  8
DETAIL
  6
CONTINUOUS
 62
     5
 10
48.497422611928862
 20
41.000000000000448
 30
0.0
 40
1.4999999999999849
  0
CIRCLE
  8
DETAIL
  6
CONTINUOUS
 62
     5
 10
45.03332099679119
 20
43.0
 30
0.0
 40
1.500000000000022
  0
CIRCLE
  8
DETAIL
  6
CONTINUOUS
 62
     5
 10
41.569219381653511
 20
45.0
 30
0.0
 40
1.4999999999999849
  0
CIRCLE
  8
DETAIL
  6
CONTINUOUS
 62
     5
 10
38.105117766515377
 20
47.0
 30
0.0
 40
1.4999999999999849
  0
CIRCLE
  8
DETAIL
  6
CONTINUOUS
 62
     5
 10
34.641016151377698
 20
48.999999999999552
 30
0.0
 40
1.500000000000022
  0
CIRCLE
  8
DETAIL
  6
CONTINUOUS
 62
     5
 10
3.4641016151372241
 20
71.000000000000455
 30
0.0
 40
1.4999999999999849
  0
CIRCLE
  8
DETAIL
  6
CONTINUOUS
 62
     5
 10
6.9282032302753578
 20
69.000000000000455
 30
0.0
 40
1.4999999999999849
  0
CIRCLE
  8
DETAIL
  6
CONTINUOUS
 62
     5
 10
10.39230484541304
 20
67.0
 30
0.0
 40
1.4999999999999849
  0
CIRCLE
  8
DETAIL
  6
CONTINUOUS
 62
     5
 10
13.856406460550719
 20
65.000000000000455
 30
0.0
 40
1.5000000000000571
  0
CIRCLE
  8
DETAIL
  6
CONTINUOUS
 62
     5
 10
24.248711305964211
 20
58.999999999999552
 30
0.0
 40
1.4999999999999849
  0
CIRCLE
  8
DETAIL
  6
CONTINUOUS
 62
     5
 10
20.784609690826532
 20
61.000000000000448
 30
0.0
 40
1.4999999999999849
  0
CIRCLE
  8
DETAIL
  6
CONTINUOUS
 62
     5
 10
17.320508075688849
 20
63.0
 30
0.0
 40
1.500000000000022
  0
CIRCLE
  8
DETAIL
  6
CONTINUOUS
 62
     5
 10
27.712812921101889
 20
57.0
 30
0.0
 40
1.500000000000022
  0
CIRCLE
  8
DETAIL
  6
CONTINUOUS
 62
     5
 10
31.17691453624002
 20
55.0
 30
0.0
 40
1.4999999999999849
  0
CIRCLE
  8
DETAIL
  6
CONTINUOUS
 62
     5
 10
79.674337148168902
 20
27.0
 30
0.0
 40
1.2000000000000099
  0
CIRCLE
  8
DETAIL
  6
CONTINUOUS
 62
     5
 10
83.138438763306567
 20
25.0
 30
0.0
 40
0.8999999999999974
  0
CIRCLE
  8
DETAIL
  6
CONTINUOUS
 62
     5
 10
76.210235533031209
 20
28.999999999999549
 30
0.0
 40
1.4999999999999849
  0
CIRCLE
  8
DETAIL
  6
CONTINUOUS
 62
     5
 10
72.74613391789353
 20
31.000000000000451
 30
0.0
 40
1.4999999999999849
  0
CIRCLE
  8
DETAIL
  6
CONTINUOUS
 62
     5
 10
69.282032302755852
 20
33.0
 30
0.0
 40
1.500000000000022
  0
CIRCLE
  8
DETAIL
  6
CONTINUOUS
 62
     5
 10
65.817930687617718
 20
35.0
 30
0.0
 40
1.4999999999999849
  0
CIRCLE
  8
DETAIL
  6
CONTINUOUS
 62
     5
 10
62.353829072480039
 20
37.0
 30
0.0
 40
1.500000000000022
  0
CIRCLE
  8
DETAIL
  6
CONTINUOUS
 62
     5
 10
58.88972745734236
 20
38.999999999999552
 30
0.0
 40
1.4999999999999849
  0
CIRCLE
  8
DETAIL
  6
CONTINUOUS
 62
     5
 10
55.425625842204667
 20
41.000000000000448
 30
0.0
 40
1.4999999999999849
  0
CIRCLE
  8
DETAIL
  6
CONTINUOUS
 62
     5
 10
51.961524227067002
 20
43.0
 30
0.0
 40
1.500000000000022
  0
CIRCLE
  8
DETAIL
  6
CONTINUOUS
 62
     5
 10
48.497422611928862
 20
45.0
 30
0.0
 40
1.4999999999999849
  0
CIRCLE
  8
DETAIL
  6
CONTINUOUS
 62
     5
 10
45.03332099679119
 20
47.0
 30
0.0
 40
1.500000000000022
  0
CIRCLE
  8
DETAIL
  6
CONTINUOUS
 62
     5
 10
41.569219381653511
 20
48.999999999999552
 30
0.0
 40
1.4999999999999849
  0
CIRCLE
  8
DETAIL
  6
CONTINUOUS
 62
     5
 10
38.105117766515377
 20
51.000000000000448
 30
0.0
 40
1.4999999999999849
  0
CIRCLE
  8
DETAIL
  6
CONTINUOUS
 62
     5
 10
34.641016151377698
 20
53.0
 30
0.0
 40
1.500000000000022
  0
CIRCLE
  8
DETAIL
  6
CONTINUOUS
 62
     5
 10
3.4641016151372241
 20
75.000000000000455
 30
0.0
 40
1.4999999999999849
  0
CIRCLE
  8
DETAIL
  6
CONTINUOUS
 62
     5
 10
6.9282032302753578
 20
73.0
 30
0.0
 40
1.4999999999999849
  0
CIRCLE
  8
DETAIL
  6
CONTINUOUS
 62
     5
 10
10.39230484541304
 20
71.000000000000455
 30
0.0
 40
1.4999999999999849
  0
CIRCLE
  8
DETAIL
  6
CONTINUOUS
 62
     5
 10
13.856406460550719
 20
69.000000000000455
 30
0.0
 40
1.5000000000000571
  0
CIRCLE
  8
DETAIL
  6
CONTINUOUS
 62
     5
 10
24.248711305964211
 20
63.0
 30
0.0
 40
1.4999999999999849
  0
CIRCLE
  8
DETAIL
  6
CONTINUOUS
 62
     5
 10
20.784609690826532
 20
65.0
 30
0.0
 40
1.4999999999999849
  0
CIRCLE
  8
DETAIL
  6
CONTINUOUS
 62
     5
 10
17.320508075688849
 20
67.0
 30
0.0
 40
1.500000000000022
  0
CIRCLE
  8
DETAIL
  6
CONTINUOUS
 62
     5
 10
27.712812921101889
 20
61.000000000000448
 30
0.0
 40
1.500000000000022
  0
CIRCLE
  8
DETAIL
  6
CONTINUOUS
 62
     5
 10
31.17691453624002
 20
58.999999999999552
 30
0.0
 40
1.4999999999999849
  0
CIRCLE
  8
DETAIL
  6
CONTINUOUS
 62
     5
 10
79.674337148168902
 20
30.999999999999549
 30
0.0
 40
1.2000000000000099
  0
CIRCLE
  8
DETAIL
  6
CONTINUOUS
 62
     5
 10
83.138438763306567
 20
28.999999999999549
 30
0.0
 40
0.8999999999999974
  0
CIRCLE
  8
DETAIL
  6
CONTINUOUS
 62
     5
 10
76.210235533031209
 20
32.999999999999552
 30
0.0
 40
1.4999999999999849
  0
CIRCLE
  8
DETAIL
  6
CONTINUOUS
 62
     5
 10
72.74613391789353
 20
35.0
 30
0.0
 40
1.4999999999999849
  0
CIRCLE
  8
DETAIL
  6
CONTINUOUS
 62
     5
 10
69.282032302755852
 20
37.0
 30
0.0
 40
1.500000000000022
  0
CIRCLE
  8
DETAIL
  6
CONTINUOUS
 62
     5
 10
65.817930687617718
 20
38.999999999999552
 30
0.0
 40
1.4999999999999849
  0
CIRCLE
  8
DETAIL
  6
CONTINUOUS
 62
     5
 10
62.353829072480039
 20
41.000000000000448
 30
0.0
 40
1.500000000000022
  0
CIRCLE
  8
DETAIL
  6
CONTINUOUS
 62
     5
 10
58.88972745734236
 20
43.0
 30
0.0
 40
1.4999999999999849
  0
CIRCLE
  8
DETAIL
  6
CONTINUOUS
 62
     5
 10
55.425625842204667
 20
45.0
 30
0.0
 40
1.4999999999999849
  0
CIRCLE
  8
DETAIL
  6
CONTINUOUS
 62
     5
 10
51.961524227067002
 20
47.0
 30
0.0
 40
1.500000000000022
  0
CIRCLE
  8
DETAIL
  6
CONTINUOUS
 62
     5
 10
48.497422611928862
 20
48.999999999999552
 30
0.0
 40
1.4999999999999849
  0
CIRCLE
  8
DETAIL
  6
CONTINUOUS
 62
     5
 10
45.03332099679119
 20
51.000000000000448
 30
0.0
 40
1.500000000000022
  0
CIRCLE
  8
DETAIL
  6
CONTINUOUS
 62
     5
 10
41.569219381653511
 20
53.0
 30
0.0
 40
1.4999999999999849
  0
CIRCLE
  8
DETAIL
  6
CONTINUOUS
 62
     5
 10
38.105117766515377
 20
55.0
 30
0.0
 40
1.4999999999999849
  0
CIRCLE
  8
DETAIL
  6
CONTINUOUS
 62
     5
 10
34.641016151377698
 20
57.0
 30
0.0
 40
1.500000000000022
  0
CIRCLE
  8
DETAIL
  6
CONTINUOUS
 62
     5
 10
6.9282032302753578
 20
77.0
 30
0.0
 40
1.4999999999999849
  0
CIRCLE
  8
DETAIL
  6
CONTINUOUS
 62
     5
 10
10.39230484541304
 20
75.000000000000455
 30
0.0
 40
1.4999999999999849
  0
CIRCLE
  8
DETAIL
  6
CONTINUOUS
 62
     5
 10
13.856406460550719
 20
73.0
 30
0.0
 40
1.5000000000000571
  0
CIRCLE
  8
DETAIL
  6
CONTINUOUS
 62
     5
 10
24.248711305964211
 20
67.0
 30
0.0
 40
1.4999999999999849
  0
CIRCLE
  8
DETAIL
  6
CONTINUOUS
 62
     5
 10
20.784609690826532
 20
69.0
 30
0.0
 40
1.4999999999999849
  0
CIRCLE
  8
DETAIL
  6
CONTINUOUS
 62
     5
 10
17.320508075688849
 20
71.0
 30
0.0
 40
1.500000000000022
  0
CIRCLE
  8
DETAIL
  6
CONTINUOUS
 62
     5
 10
27.712812921101889
 20
65.0
 30
0.0
 40
1.500000000000022
  0
CIRCLE
  8
DETAIL
  6
CONTINUOUS
 62
     5
 10
31.17691453624002
 20
63.0
 30
0.0
 40
1.4999999999999849
  0
CIRCLE
  8
DETAIL
  6
CONTINUOUS
 62
     5
 10
79.674337148168902
 20
35.0
 30
0.0
 40
1.2000000000000099
  0
CIRCLE
  8
DETAIL
  6
CONTINUOUS
 62
     5
 10
83.138438763306567
 20
32.999999999999552
 30
0.0
 40
0.8999999999999974
  0
CIRCLE
  8
DETAIL
  6
CONTINUOUS
 62
     5
 10
76.210235533031209
 20
37.0
 30
0.0
 40
1.4999999999999849
  0
CIRCLE
  8
DETAIL
  6
CONTINUOUS
 62
     5
 10
72.74613391789353
 20
38.999999999999552
 30
0.0
 40
1.4999999999999849
  0
CIRCLE
  8
DETAIL
  6
CONTINUOUS
 62
     5
 10
69.282032302755852
 20
41.000000000000448
 30
0.0
 40
1.500000000000022
  0
CIRCLE
  8
DETAIL
  6
CONTINUOUS
 62
     5
 10
65.817930687617718
 20
43.0
 30
0.0
 40
1.4999999999999849
  0
CIRCLE
  8
DETAIL
  6
CONTINUOUS
 62
     5
 10
62.353829072480039
 20
45.0
 30
0.0
 40
1.500000000000022
  0
CIRCLE
  8
DETAIL
  6
CONTINUOUS
 62
     5
 10
58.88972745734236
 20
47.0
 30
0.0
 40
1.4999999999999849
  0
CIRCLE
  8
DETAIL
  6
CONTINUOUS
 62
     5
 10
55.425625842204667
 20
48.999999999999552
 30
0.0
 40
1.4999999999999849
  0
CIRCLE
  8
DETAIL
  6
CONTINUOUS
 62
     5
 10
51.961524227067002
 20
51.000000000000448
 30
0.0
 40
1.500000000000022
  0
CIRCLE
  8
DETAIL
  6
CONTINUOUS
 62
     5
 10
48.497422611928862
 20
53.0
 30
0.0
 40
1.4999999999999849
  0
CIRCLE
  8
DETAIL
  6
CONTINUOUS
 62
     5
 10
45.03332099679119
 20
55.0
 30
0.0
 40
1.500000000000022
  0
CIRCLE
  8
DETAIL
  6
CONTINUOUS
 62
     5
 10
41.569219381653511
 20
57.0
 30
0.0
 40
1.4999999999999849
  0
CIRCLE
  8
DETAIL
  6
CONTINUOUS
 62
     5
 10
38.105117766515377
 20
58.999999999999552
 30
0.0
 40
1.4999999999999849
  0
CIRCLE
  8
DETAIL
  6
CONTINUOUS
 62
     5
 10
34.641016151377698
 20
61.000000000000448
 30
0.0
 40
1.500000000000022
  0
CIRCLE
  8
DETAIL
  6
CONTINUOUS
 62
     5
 10
13.856406460550719
 20
77.0
 30
0.0
 40
1.5000000000000571
  0
CIRCLE
  8
DETAIL
  6
CONTINUOUS
 62
     5
 10
24.248711305964211
 20
71.0
 30
0.0
 40
1.4999999999999849
  0
CIRCLE
  8
DETAIL
  6
CONTINUOUS
 62
     5
 10
20.784609690826532
 20
73.0
 30
0.0
 40
1.4999999999999849
  0
CIRCLE
  8
DETAIL
  6
CONTINUOUS
 62
     5
 10
17.320508075688849
 20
75.0
 30
0.0
 40
1.500000000000022
  0
CIRCLE
  8
DETAIL
  6
CONTINUOUS
 62
     5
 10
27.712812921101889
 20
69.0
 30
0.0
 40
1.500000000000022
  0
CIRCLE
  8
DETAIL
  6
CONTINUOUS
 62
     5
 10
31.17691453624002
 20
67.0
 30
0.0
 40
1.4999999999999849
  0
CIRCLE
  8
DETAIL
  6
CONTINUOUS
 62
     5
 10
79.674337148168902
 20
38.999999999999552
 30
0.0
 40
1.2000000000000099
  0
CIRCLE
  8
DETAIL
  6
CONTINUOUS
 62
     5
 10
83.138438763306567
 20
37.0
 30
0.0
 40
0.8999999999999974
  0
CIRCLE
  8
DETAIL
  6
CONTINUOUS
 62
     5
 10
76.210235533031209
 20
40.999999999999552
 30
0.0
 40
1.4999999999999849
  0
CIRCLE
  8
DETAIL
  6
CONTINUOUS
 62
     5
 10
72.74613391789353
 20
43.0
 30
0.0
 40
1.4999999999999849
  0
CIRCLE
  8
DETAIL
  6
CONTINUOUS
 62
     5
 10
69.282032302755852
 20
45.0
 30
0.0
 40
1.500000000000022
  0
CIRCLE
  8
DETAIL
  6
CONTINUOUS
 62
     5
 10
65.817930687617718
 20
47.0
 30
0.0
 40
1.4999999999999849
  0
CIRCLE
  8
DETAIL
  6
CONTINUOUS
 62
     5
 10
62.353829072480039
 20
48.999999999999552
 30
0.0
 40
1.500000000000022
  0
CIRCLE
  8
DETAIL
  6
CONTINUOUS
 62
     5
 10
58.88972745734236
 20
51.000000000000448
 30
0.0
 40
1.4999999999999849
  0
CIRCLE
  8
DETAIL
  6
CONTINUOUS
 62
     5
 10
55.425625842204667
 20
53.0
 30
0.0
 40
1.4999999999999849
  0
CIRCLE
  8
DETAIL
  6
CONTINUOUS
 62
     5
 10
51.961524227067002
 20
55.0
 30
0.0
 40
1.500000000000022
  0
CIRCLE
  8
DETAIL
  6
CONTINUOUS
 62
     5
 10
48.497422611928862
 20
57.0
 30
0.0
 40
1.4999999999999849
  0
CIRCLE
  8
DETAIL
  6
CONTINUOUS
 62
     5
 10
45.03332099679119
 20
58.999999999999552
 30
0.0
 40
1.500000000000022
  0
CIRCLE
  8
DETAIL
  6
CONTINUOUS
 62
     5
 10
41.569219381653511
 20
61.000000000000448
 30
0.0
 40
1.4999999999999849
  0
CIRCLE
  8
DETAIL
  6
CONTINUOUS
 62
     5
 10
38.105117766515377
 20
63.0
 30
0.0
 40
1.4999999999999849
  0
CIRCLE
  8
DETAIL
  6
CONTINUOUS
 62
     5
 10
34.641016151377698
 20
65.0
 30
0.0
 40
1.500000000000022
  0
CIRCLE
  8
DETAIL
  6
CONTINUOUS
 62
     5
 10
24.248711305964211
 20
75.0
 30
0.0
 40
1.4999999999999849
  0
CIRCLE
  8
DETAIL
  6
CONTINUOUS
 62
     5
 10
20.784609690826532
 20
77.0
 30
0.0
 40
1.4999999999999849
  0
CIRCLE
  8
DETAIL
  6
CONTINUOUS
 62
     5
 10
27.712812921101889
 20
73.0
 30
0.0
 40
1.500000000000022
  0
CIRCLE
  8
DETAIL
  6
CONTINUOUS
 62
     5
 10
31.17691453624002
 20
71.0
 30
0.0
 40
1.4999999999999849
  0
CIRCLE
  8
DETAIL
  6
CONTINUOUS
 62
     5
 10
79.674337148168902
 20
42.999999999999552
 30
0.0
 40
1.2000000000000099
  0
CIRCLE
  8
DETAIL
  6
CONTINUOUS
 62
     5
 10
83.138438763306567
 20
40.999999999999552
 30
0.0
 40
0.8999999999999974
  0
CIRCLE
  8
DETAIL
  6
CONTINUOUS
 62
     5
 10
76.210235533031209
 20
45.0
 30
0.0
 40
1.4999999999999849
  0
CIRCLE
  8
DETAIL
  6
CONTINUOUS
 62
     5
 10
72.74613391789353
 20
47.0
 30
0.0
 40
1.4999999999999849
  0
CIRCLE
  8
DETAIL
  6
CONTINUOUS
 62
     5
 10
69.282032302755852
 20
48.999999999999552
 30
0.0
 40
1.500000000000022
  0
CIRCLE
  8
DETAIL
  6
CONTINUOUS
 62
     5
 10
65.817930687617718
 20
51.000000000000448
 30
0.0
 40
1.4999999999999849
  0
CIRCLE
  8
DETAIL
  6
CONTINUOUS
 62
     5
 10
62.353829072480039
 20
53.0
 30
0.0
 40
1.500000000000022
  0
CIRCLE
  8
DETAIL
  6
CONTINUOUS
 62
     5
 10
58.88972745734236
 20
55.0
 30
0.0
 40
1.4999999999999849
  0
CIRCLE
  8
DETAIL
  6
CONTINUOUS
 62
     5
 10
55.425625842204667
 20
57.0
 30
0.0
 40
1.4999999999999849
  0
CIRCLE
  8
DETAIL
  6
CONTINUOUS
 62
     5
 10
51.961524227067002
 20
58.999999999999552
 30
0.0
 40
1.500000000000022
  0
CIRCLE
  8
DETAIL
  6
CONTINUOUS
 62
     5
 10
48.497422611928862
 20
61.000000000000448
 30
0.0
 40
1.4999999999999849
  0
CIRCLE
  8
DETAIL
  6
CONTINUOUS
 62
     5
 10
45.03332099679119
 20
63.0
 30
0.0
 40
1.500000000000022
  0
CIRCLE
  8
DETAIL
  6
CONTINUOUS
 62
     5
 10
41.569219381653511
 20
65.0
 30
0.0
 40
1.4999999999999849
  0
CIRCLE
  8
DETAIL
  6
CONTINUOUS
 62
     5
 10
38.105117766515377
 20
67.0
 30
0.0
 40
1.4999999999999849
  0
CIRCLE
  8
DETAIL
  6
CONTINUOUS
 62
     5
 10
34.641016151377698
 20
69.0
 30
0.0
 40
1.500000000000022
  0
CIRCLE
  8
DETAIL
  6
CONTINUOUS
 62
     5
 10
27.712812921101889
 20
77.0
 30
0.0
 40
1.500000000000022
  0
CIRCLE
  8
DETAIL
  6
CONTINUOUS
 62
     5
 10
31.17691453624002
 20
75.0
 30
0.0
 40
1.4999999999999849
  0
CIRCLE
  8
DETAIL
  6
CONTINUOUS
 62
     5
 10
79.674337148168902
 20
47.0
 30
0.0
 40
1.2000000000000099
  0
CIRCLE
  8
DETAIL
  6
CONTINUOUS
 62
     5
 10
83.138438763306567
 20
45.0
 30
0.0
 40
0.8999999999999974
  0
CIRCLE
  8
DETAIL
  6
CONTINUOUS
 62
     5
 10
76.210235533031209
 20
48.999999999999552
 30
0.0
 40
1.4999999999999849
  0
CIRCLE
  8
DETAIL
  6
CONTINUOUS
 62
     5
 10
72.74613391789353
 20
51.000000000000448
 30
0.0
 40
1.4999999999999849
  0
CIRCLE
  8
DETAIL
  6
CONTINUOUS
 62
     5
 10
69.282032302755852
 20
53.0
 30
0.0
 40
1.500000000000022
  0
CIRCLE
  8
DETAIL
  6
CONTINUOUS
 62
     5
 10
65.817930687617718
 20
55.0
 30
0.0
 40
1.4999999999999849
  0
CIRCLE
  8
DETAIL
  6
CONTINUOUS
 62
     5
 10
62.353829072480039
 20
57.0
 30
0.0
 40
1.500000000000022
  0
CIRCLE
  8
DETAIL
  6
CONTINUOUS
 62
     5
 10
58.88972745734236
 20
58.999999999999552
 30
0.0
 40
1.4999999999999849
  0
CIRCLE
  8
DETAIL
  6
CONTINUOUS
 62
     5
 10
55.425625842204667
 20
61.000000000000448
 30
0.0
 40
1.4999999999999849
  0
CIRCLE
  8
DETAIL
  6
CONTINUOUS
 62
     5
 10
51.961524227067002
 20
63.0
 30
0.0
 40
1.500000000000022
  0
CIRCLE
  8
DETAIL
  6
CONTINUOUS
 62
     5
 10
48.497422611928862
 20
65.0
 30
0.0
 40
1.4999999999999849
  0
CIRCLE
  8
DETAIL
  6
CONTINUOUS
 62
     5
 10
45.03332099679119
 20
67.0
 30
0.0
 40
1.500000000000022
  0
CIRCLE
  8
DETAIL
  6
CONTINUOUS
 62
     5
 10
41.569219381653511
 20
69.0
 30
0.0
 40
1.4999999999999849
  0
CIRCLE
  8
DETAIL
  6
CONTINUOUS
 62
     5
 10
38.105117766515377
 20
71.0
 30
0.0
 40
1.4999999999999849
  0
CIRCLE
  8
DETAIL
  6
CONTINUOUS
 62
     5
 10
34.641016151377698
 20
73.0
 30
0.0
 40
1.500000000000022
  0
CIRCLE
  8
DETAIL
  6
CONTINUOUS
 62
     5
 10
79.674337148168902
 20
50.999999999999552
 30
0.0
 40
1.2000000000000099
  0
CIRCLE
  8
DETAIL
  6
CONTINUOUS
 62
     5
 10
83.138438763306567
 20
48.999999999999552
 30
0.0
 40
0.8999999999999974
  0
CIRCLE
  8
DETAIL
  6
CONTINUOUS
 62
     5
 10
76.210235533031209
 20
52.999999999999552
 30
0.0
 40
1.4999999999999849
  0
CIRCLE
  8
DETAIL
  6
CONTINUOUS
 62
     5
 10
72.74613391789353
 20
55.0
 30
0.0
 40
1.4999999999999849
  0
CIRCLE
  8
DETAIL
  6
CONTINUOUS
 62
     5
 10
69.282032302755852
 20
57.0
 30
0.0
 40
1.500000000000022
  0
CIRCLE
  8
DETAIL
  6
CONTINUOUS
 62
     5
 10
65.817930687617718
 20
58.999999999999552
 30
0.0
 40
1.4999999999999849
  0
CIRCLE
  8
DETAIL
  6
CONTINUOUS
 62
     5
 10
62.353829072480039
 20
61.000000000000448
 30
0.0
 40
1.500000000000022
  0
CIRCLE
  8
DETAIL
  6
CONTINUOUS
 62
     5
 10
58.88972745734236
 20
63.0
 30
0.0
 40
1.4999999999999849
  0
CIRCLE
  8
DETAIL
  6
CONTINUOUS
 62
     5
 10
55.425625842204667
 20
65.0
 30
0.0
 40
1.4999999999999849
  0
CIRCLE
  8
DETAIL
  6
CONTINUOUS
 62
     5
 10
51.961524227067002
 20
67.0
 30
0.0
 40
1.500000000000022
  0
CIRCLE
  8
DETAIL
  6
CONTINUOUS
 62
     5
 10
48.497422611928862
 20
69.0
 30
0.0
 40
1.4999999999999849
  0
CIRCLE
  8
DETAIL
  6
CONTINUOUS
 62
     5
 10
45.03332099679119
 20
71.0
 30
0.0
 40
1.500000000000022
  0
CIRCLE
  8
DETAIL
  6
CONTINUOUS
 62
     5
 10
41.569219381653511
 20
73.0
 30
0.0
 40
1.4999999999999849
  0
CIRCLE
  8
DETAIL
  6
CONTINUOUS
 62
     5
 10
38.105117766515377
 20
75.0
 30
0.0
 40
1.4999999999999849
  0
CIRCLE
  8
DETAIL
  6
CONTINUOUS
 62
     5
 10
34.641016151377698
 20
77.0
 30
0.0
 40
1.500000000000022
  0
CIRCLE
  8
DETAIL
  6
CONTINUOUS
 62
     5
 10
79.674337148168902
 20
55.0
 30
0.0
 40
1.2000000000000099
  0
CIRCLE
  8
DETAIL
  6
CONTINUOUS
 62
     5
 10
83.138438763306567
 20
52.999999999999552
 30
0.0
 40
0.8999999999999974
  0
CIRCLE
  8
DETAIL
  6
CONTINUOUS
 62
     5
 10
76.210235533031209
 20
57.0
 30
0.0
 40
1.4999999999999849
  0
CIRCLE
  8
DETAIL
  6
CONTINUOUS
 62
     5
 10
72.74613391789353
 20
58.999999999999552
 30
0.0
 40
1.4999999999999849
  0
CIRCLE
  8
DETAIL
  6
CONTINUOUS
 62
     5
 10
69.282032302755852
 20
61.000000000000448
 30
0.0
 40
1.500000000000022
  0
CIRCLE
  8
DETAIL
  6
CONTINUOUS
 62
     5
 10
65.817930687617718
 20
63.0
 30
0.0
 40
1.4999999999999849
  0
CIRCLE
  8
DETAIL
  6
CONTINUOUS
 62
     5
 10
62.353829072480039
 20
65.0
 30
0.0
 40
1.500000000000022
  0
CIRCLE
  8
DETAIL
  6
CONTINUOUS
 62
     5
 10
58.88972745734236
 20
67.0
 30
0.0
 40
1.4999999999999849
  0
CIRCLE
  8
DETAIL
  6
CONTINUOUS
 62
     5
 10
55.425625842204667
 20
69.0
 30
0.0
 40
1.4999999999999849
  0
CIRCLE
  8
DETAIL
  6
CONTINUOUS
 62
     5
 10
51.961524227067002
 20
71.0
 30
0.0
 40
1.500000000000022
  0
CIRCLE
  8
DETAIL
  6
CONTINUOUS
 62
     5
 10
48.497422611928862
 20
73.0
 30
0.0
 40
1.4999999999999849
  0
CIRCLE
  8
DETAIL
  6
CONTINUOUS
 62
     5
 10
45.03332099679119
 20
75.0
 30
0.0
 40
1.500000000000022
  0
CIRCLE
  8
DETAIL
  6
CONTINUOUS
 62
     5
 10
41.569219381653511
 20
77.0
 30
0.0
 40
1.4999999999999849
  0
CIRCLE
  8
DETAIL
  6
CONTINUOUS
 62
     5
 10
79.674337148168902
 20
58.999999999999552
 30
0.0
 40
1.2000000000000099
  0
CIRCLE
  8
DETAIL
  6
CONTINUOUS
 62
     5
 10
83.138438763306567
 20
57.0
 30
0.0
 40
0.8999999999999974
  0
CIRCLE
  8
DETAIL
  6
CONTINUOUS
 62
     5
 10
76.210235533031209
 20
60.999999999999552
 30
0.0
 40
1.4999999999999849
  0
CIRCLE
  8
DETAIL
  6
CONTINUOUS
 62
     5
 10
72.74613391789353
 20
63.0
 30
0.0
 40
1.4999999999999849
  0
CIRCLE
  8
DETAIL
  6
CONTINUOUS
 62
     5
 10
69.282032302755852
 20
65.0
 30
0.0
 40
1.500000000000022
  0
CIRCLE
  8
DETAIL
  6
CONTINUOUS
 62
     5
 10
65.817930687617718
 20
67.0
 30
0.0
 40
1.4999999999999849
  0
CIRCLE
  8
DETAIL
  6
CONTINUOUS
 62
     5
 10
62.353829072480039
 20
69.0
 30
0.0
 40
1.500000000000022
  0
CIRCLE
  8
DETAIL
  6
CONTINUOUS
 62
     5
 10
58.88972745734236
 20
71.0
 30
0.0
 40
1.4999999999999849
  0
CIRCLE
  8
DETAIL
  6
CONTINUOUS
 62
     5
 10
55.425625842204667
 20
73.0
 30
0.0
 40
1.4999999999999849
  0
CIRCLE
  8
DETAIL
  6
CONTINUOUS
 62
     5
 10
51.961524227067002
 20
75.0
 30
0.0
 40
1.500000000000022
  0
CIRCLE
  8
DETAIL
  6
CONTINUOUS
 62
     5
 10
48.497422611928862
 20
77.0
 30
0.0
 40
1.4999999999999849
  0
CIRCLE
  8
DETAIL
  6
CONTINUOUS
 62
     5
 10
79.674337148168902
 20
63.0
 30
0.0
 40
1.2000000000000099
  0
CIRCLE
  8
DETAIL
  6
CONTINUOUS
 62
     5
 10
83.138438763306567
 20
60.999999999999552
 30
0.0
 40
0.8999999999999974
  0
CIRCLE
  8
DETAIL
  6
CONTINUOUS
 62
     5
 10
76.210235533031209
 20
64.999999999999545
 30
0.0
 40
1.4999999999999849
  0
CIRCLE
  8
DETAIL
  6
CONTINUOUS
 62
     5
 10
72.74613391789353
 20
67.0
 30
0.0
 40
1.4999999999999849
  0
CIRCLE
  8
DETAIL
  6
CONTINUOUS
 62
     5
 10
69.282032302755852
 20
69.0
 30
0.0
 40
1.500000000000022
  0
CIRCLE
  8
DETAIL
  6
CONTINUOUS
 62
     5
 10
65.817930687617718
 20
71.0
 30
0.0
 40
1.4999999999999849
  0
CIRCLE
  8
DETAIL
  6
CONTINUOUS
 62
     5
 10
62.353829072480039
 20
73.0
 30
0.0
 40
1.500000000000022
  0
CIRCLE
  8
DETAIL
  6
CONTINUOUS
 62
     5
 10
58.88972745734236
 20
75.0
 30
0.0
 40
1.4999999999999849
  0
CIRCLE
  8
DETAIL
  6
CONTINUOUS
 62
     5
 10
55.425625842204667
 20
77.0
 30
0.0
 40
1.4999999999999849
  0
CIRCLE
  8
DETAIL
  6
CONTINUOUS
 62
     5
 10
79.674337148168902
 20
67.0
 30
0.0
 40
1.2000000000000099
  0
CIRCLE
  8
DETAIL
  6
CONTINUOUS
 62
     5
 10
83.138438763306567
 20
64.999999999999545
 30
0.0
 40
0.8999999999999974
  0
CIRCLE
  8
DETAIL
  6
CONTINUOUS
 62
     5
 10
76.210235533031209
 20
68.999999999999545
 30
0.0
 40
1.4999999999999849
  0
CIRCLE
  8
DETAIL
  6
CONTINUOUS
 62
     5
 10
72.74613391789353
 20
71.0
 30
0.0
 40
1.4999999999999849
  0
CIRCLE
  8
DETAIL
  6
CONTINUOUS
 62
     5
 10
69.282032302755852
 20
73.0
 30
0.0
 40
1.500000000000022
  0
CIRCLE
  8
DETAIL
  6
CONTINUOUS
 62
     5
 10
65.817930687617718
 20
75.0
 30
0.0
 40
1.4999999999999849
  0
CIRCLE
  8
DETAIL
  6
CONTINUOUS
 62
     5
 10
62.353829072480039
 20
77.0
 30
0.0
 40
1.500000000000022
  0
CIRCLE
  8
DETAIL
  6
CONTINUOUS
 62
     5
 10
79.674337148168902
 20
70.999999999999545
 30
0.0
 40
1.2000000000000099
  0
CIRCLE
  8
DETAIL
  6
CONTINUOUS
 62
     5
 10
83.138438763306567
 20
68.999999999999545
 30
0.0
 40
0.8999999999999974
  0
CIRCLE
  8
DETAIL
  6
CONTINUOUS
 62
     5
 10
76.210235533031209
 20
73.0
 30
0.0
 40
1.4999999999999849
  0
CIRCLE
  8
DETAIL
  6
CONTINUOUS
 62
     5
 10
72.74613391789353
 20
75.0
 30
0.0
 40
1.4999999999999849
  0
CIRCLE
  8
DETAIL
  6
CONTINUOUS
 62
     5
 10
69.282032302755852
 20
77.0
 30
0.0
 40
1.500000000000022
  0
CIRCLE
  8
DETAIL
  6
CONTINUOUS
 62
     5
 10
79.674337148168902
 20
74.999999999999545
 30
0.0
 40
1.2000000000000099
  0
CIRCLE
  8
DETAIL
  6
CONTINUOUS
 62
     5
 10
83.138438763306567
 20
73.0
 30
0.0
 40
0.8999999999999974
  0
CIRCLE
  8
DETAIL
  6
CONTINUOUS
 62
     5
 10
76.210235533031209
 20
77.0
 30
0.0
 40
1.4999999999999849
  0
CIRCLE
  8
DETAIL
  6
CONTINUOUS
 62
     5
 10
79.674337148168902
 20
78.999999999999545
 30
0.0
 40
1.2000000000000099
  0
CIRCLE
  8
DETAIL
  6
CONTINUOUS
 62
     5
 10
83.138438763306567
 20
77.0
 30
0.0
 40
0.8999999999999974
  0
CIRCLE
  8
DETAIL
  6
CONTINUOUS
 62
     5
 10
83.138438763306567
 20
80.999999999999545
 30
0.0
 40
0.8999999999999974
  0
CIRCLE
  8
DETAIL
  6
CONTINUOUS
 62
     5
 10
83.138438763306567
 20
84.999999999999545
 30
0.0
 40
0.8999999999999974
  0
CIRCLE
  8
DETAIL
  6
CONTINUOUS
 62
     5
 10
6.9282032302753578
 20
85.000000000000455
 30
0.0
 40
0.8999999999999624
  0
CIRCLE
  8
DETAIL
  6
CONTINUOUS
 62
     5
 10
13.856406460550719
 20
85.000000000000455
 30
0.0
 40
0.9000000000000351
  0
CIRCLE
  8
DETAIL
  6
CONTINUOUS
 62
     5
 10
20.784609690826532
 20
85.0
 30
0.0
 40
0.8999999999999624
  0
CIRCLE
  8
DETAIL
  6
CONTINUOUS
 62
     5
 10
27.712812921101889
 20
85.0
 30
0.0
 40
0.8999999999999974
  0
CIRCLE
  8
DETAIL
  6
CONTINUOUS
 62
     5
 10
76.210235533031209
 20
84.999999999999545
 30
0.0
 40
0.8999999999999624
  0
CIRCLE
  8
DETAIL
  6
CONTINUOUS
 62
     5
 10
69.282032302755852
 20
85.0
 30
0.0
 40
0.8999999999999974
  0
CIRCLE
  8
DETAIL
  6
CONTINUOUS
 62
     5
 10
62.353829072480039
 20
85.0
 30
0.0
 40
0.8999999999999974
  0
CIRCLE
  8
DETAIL
  6
CONTINUOUS
 62
     5
 10
55.425625842204667
 20
85.0
 30
0.0
 40
0.8999999999999624
  0
CIRCLE
  8
DETAIL
  6
CONTINUOUS
 62
     5
 10
48.497422611928862
 20
85.0
 30
0.0
 40
0.8999999999999624
  0
CIRCLE
  8
DETAIL
  6
CONTINUOUS
 62
     5
 10
41.569219381653511
 20
85.0
 30
0.0
 40
0.8999999999999624
  0
CIRCLE
  8
DETAIL
  6
CONTINUOUS
 62
     5
 10
34.641016151377698
 20
85.0
 30
0.0
 40
0.8999999999999974
  0
CIRCLE
  8
DETAIL
  6
CONTINUOUS
 62
     5
 10
31.176914536243199
 20
82.999999999999545
 30
0.0
 40
0.8999999999999624
  0
CIRCLE
  8
DETAIL
  6
CONTINUOUS
 62
     5
 10
38.105117766519022
 20
82.999999999999545
 30
0.0
 40
0.8999999999999624
  0
CIRCLE
  8
DETAIL
  6
CONTINUOUS
 62
     5
 10
45.033320996794373
 20
82.999999999999545
 30
0.0
 40
0.8999999999999974
  0
CIRCLE
  8
DETAIL
  6
CONTINUOUS
 62
     5
 10
51.961524227070193
 20
82.999999999999545
 30
0.0
 40
0.8999999999999974
  0
CIRCLE
  8
DETAIL
  6
CONTINUOUS
 62
     5
 10
58.889727457345543
 20
82.999999999999545
 30
0.0
 40
0.8999999999999624
  0
CIRCLE
  8
DETAIL
  6
CONTINUOUS
 62
     5
 10
65.817930687621356
 20
82.999999999999545
 30
0.0
 40
0.8999999999999624
  0
CIRCLE
  8
DETAIL
  6
CONTINUOUS
 62
     5
 10
72.746133917896699
 20
82.999999999999545
 30
0.0
 40
0.8999999999999624
  0
CIRCLE
  8
DETAIL
  6
CONTINUOUS
 62
     5
 10
24.248711305967841
 20
82.999999999999545
 30
0.0
 40
0.8999999999999624
  0
CIRCLE
  8
DETAIL
  6
CONTINUOUS
 62
     5
 10
17.320508075692029
 20
83.0
 30
0.0
 40
0.8999999999999974
  0
CIRCLE
  8
DETAIL
  6
CONTINUOUS
 62
     5
 10
10.392304845416669
 20
83.0
 30
0.0
 40
0.8999999999999624
  0
CIRCLE
  8
DETAIL
  6
CONTINUOUS
 62
     5
 10
3.4641016151408621
 20
83.0
 30
0.0
 40
0.8999999999999624
  0
CIRCLE
  8
DETAIL
  6
CONTINUOUS
 62
     5
 10
79.674337148172512
 20
82.999999999999091
 30
0.0
 40
0.8999999999999974
  0
CIRCLE
  8
DETAIL
  6
CONTINUOUS
 62
     5
 10
76.210235533031209
 20
80.999999999999545
 30
0.0
 40
1.1999999999999751
  0
CIRCLE
  8
DETAIL
  6
CONTINUOUS
 62
     5
 10
69.282032302755852
 20
81.0
 30
0.0
 40
1.2000000000000099
  0
CIRCLE
  8
DETAIL
  6
CONTINUOUS
 62
     5
 10
62.353829072480487
 20
81.0
 30
0.0
 40
1.2000000000000099
  0
CIRCLE
  8
DETAIL
  6
CONTINUOUS
 62
     5
 10
55.425625842204667
 20
81.0
 30
0.0
 40
1.2000000000000099
  0
CIRCLE
  8
DETAIL
  6
CONTINUOUS
 62
     5
 10
48.497422611928862
 20
81.0
 30
0.0
 40
1.2000000000000099
  0
CIRCLE
  8
DETAIL
  6
CONTINUOUS
 62
     5
 10
41.569219381653511
 20
81.0
 30
0.0
 40
1.1999999999999751
  0
CIRCLE
  8
DETAIL
  6
CONTINUOUS
 62
     5
 10
34.641016151378153
 20
81.0
 30
0.0
 40
1.1999999999999751
  0
CIRCLE
  8
DETAIL
  6
CONTINUOUS
 62
     5
 10
27.712812921102341
 20
81.0
 30
0.0
 40
1.1999999999999751
  0
CIRCLE
  8
DETAIL
  6
CONTINUOUS
 62
     5
 10
20.784609690826979
 20
81.000000000000455
 30
0.0
 40
1.1999999999999751
  0
CIRCLE
  8
DETAIL
  6
CONTINUOUS
 62
     5
 10
13.85640646055117
 20
81.000000000000455
 30
0.0
 40
1.1999999999999751
  0
CIRCLE
  8
DETAIL
  6
CONTINUOUS
 62
     5
 10
6.9282032302758134
 20
81.000000000000455
 30
0.0
 40
1.1999999999999751
  0
CIRCLE
  8
DETAIL
  6
CONTINUOUS
 62
     5
 10
72.74613391789353
 20
79.0
 30
0.0
 40
1.1999999999999751
  0
CIRCLE
  8
DETAIL
  6
CONTINUOUS
 62
     5
 10
65.817930687617718
 20
79.0
 30
0.0
 40
1.1999999999999751
  0
CIRCLE
  8
DETAIL
  6
CONTINUOUS
 62
     5
 10
58.88972745734236
 20
79.0
 30
0.0
 40
1.1999999999999751
  0
CIRCLE
  8
DETAIL
  6
CONTINUOUS
 62
     5
 10
51.961524227067002
 20
79.0
 30
0.0
 40
1.1999999999999751
  0
CIRCLE
  8
DETAIL
  6
CONTINUOUS
 62
     5
 10
45.03332099679119
 20
79.0
 30
0.0
 40
1.1999999999999751
  0
CIRCLE
  8
DETAIL
  6
CONTINUOUS
 62
     5
 10
38.105117766515377
 20
79.0
 30
0.0
 40
1.2000000000000099
  0
CIRCLE
  8
DETAIL
  6
CONTINUOUS
 62
     5
 10
31.176914536240471
 20
79.0
 30
0.0
 40
1.2000000000000099
  0
CIRCLE
  8
DETAIL
  6
CONTINUOUS
 62
     5
 10
24.248711305964669
 20
79.000000000000455
 30
0.0
 40
1.2000000000000099
  0
CIRCLE
  8
DETAIL
  6
CONTINUOUS
 62
     5
 10
17.3205080756893
 20
79.000000000000455
 30
0.0
 40
1.2000000000000099
  0
CIRCLE
  8
DETAIL
  6
CONTINUOUS
 62
     5
 10
10.39230484541349
 20
79.000000000000455
 30
0.0
 40
1.1999999999999751
  0
CIRCLE
  8
DETAIL
  6
CONTINUOUS
 62
     5
 10
3.4641016151381341
 20
79.000000000000455
 30
0.0
 40
1.1999999999999751
  0
CIRCLE
  8
DETAIL
  6
CONTINUOUS
 62
     5
 10
-72.746133917893985
 20
79.0
 30
0.0
 40
1.1999999999999751
  0
CIRCLE
  8
DETAIL
  6
CONTINUOUS
 62
     5
 10
-65.817930687618173
 20
79.0
 30
0.0
 40
1.1999999999999751
  0
CIRCLE
  8
DETAIL
  6
CONTINUOUS
 62
     5
 10
-58.889727457342808
 20
79.0
 30
0.0
 40
1.1999999999999751
  0
CIRCLE
  8
DETAIL
  6
CONTINUOUS
 62
     5
 10
-51.961524227067457
 20
79.0
 30
0.0
 40
1.200000000000045
  0
CIRCLE
  8
DETAIL
  6
CONTINUOUS
 62
     5
 10
-45.033320996791637
 20
79.0
 30
0.0
 40
1.1999999999999751
  0
CIRCLE
  8
DETAIL
  6
CONTINUOUS
 62
     5
 10
-38.105117766516287
 20
79.0
 30
0.0
 40
1.1999999999999751
  0
CIRCLE
  8
DETAIL
  6
CONTINUOUS
 62
     5
 10
-31.176914536240471
 20
79.0
 30
0.0
 40
1.1999999999999751
  0
CIRCLE
  8
DETAIL
  6
CONTINUOUS
 62
     5
 10
-24.24871130596512
 20
79.000000000000455
 30
0.0
 40
1.1999999999999751
  0
CIRCLE
  8
DETAIL
  6
CONTINUOUS
 62
     5
 10
-17.320508075689759
 20
79.000000000000455
 30
0.0
 40
1.1999999999999751
  0
CIRCLE
  8
DETAIL
  6
CONTINUOUS
 62
     5
 10
-10.39230484541395
 20
79.000000000000455
 30
0.0
 40
1.200000000000045
  0
CIRCLE
  8
DETAIL
  6
CONTINUOUS
 62
     5
 10
-3.4641016151385879
 20
79.000000000000455
 30
0.0
 40
1.200000000000045
  0
CIRCLE
  8
DETAIL
  6
CONTINUOUS
 62
     5
 10
-20.784609690827441
 20
81.000000000000455
 30
0.0
 40
1.1999999999999751
  0
CIRCLE
  8
DETAIL
  6
CONTINUOUS
 62
     5
 10
-6.9282032302762673
 20
81.000000000000455
 30
0.0
 40
1.1999999999999751
  0
CIRCLE
  8
DETAIL
  6
CONTINUOUS
 62
     5
 10
-13.85640646055208
 20
81.000000000000455
 30
0.0
 40
1.1999999999999751
  0
CIRCLE
  8
DETAIL
  6
CONTINUOUS
 62
     5
 10
-27.71281292110325
 20
81.0
 30
0.0
 40
1.1999999999999751
  0
CIRCLE
  8
DETAIL
  6
CONTINUOUS
 62
     5
 10
-34.641016151378608
 20
81.0
 30
0.0
 40
1.200000000000045
  0
CIRCLE
  8
DETAIL
  6
CONTINUOUS
 62
     5
 10
-41.569219381653973
 20
81.0
 30
0.0
 40
1.200000000000045
  0
CIRCLE
  8
DETAIL
  6
CONTINUOUS
 62
     5
 10
-48.497422611929778
 20
81.0
 30
0.0
 40
1.1999999999999751
  0
CIRCLE
  8
DETAIL
  6
CONTINUOUS
 62
     5
 10
-55.425625842205143
 20
81.0
 30
0.0
 40
1.1999999999999751
  0
CIRCLE
  8
DETAIL
  6
CONTINUOUS
 62
     5
 10
-62.353829072480963
 20
81.0
 30
0.0
 40
1.1999999999999751
  0
CIRCLE
  8
DETAIL
  6
CONTINUOUS
 62
     5
 10
-69.282032302755852
 20
81.0
 30
0.0
 40
1.1999999999999751
  0
CIRCLE
  8
DETAIL
  6
CONTINUOUS
 62
     5
 10
-76.21023553303165
 20
80.999999999999545
 30
0.0
 40
1.200000000000045
  0
CIRCLE
  8
DETAIL
  6
CONTINUOUS
 62
     5
 10
-31.176914536243661
 20
82.999999999999545
 30
0.0
 40
0.8999999999999624
  0
CIRCLE
  8
DETAIL
  6
CONTINUOUS
 62
     5
 10
-38.10511776651947
 20
82.999999999999545
 30
0.0
 40
0.9000000000000351
  0
CIRCLE
  8
DETAIL
  6
CONTINUOUS
 62
     5
 10
-45.033320996794828
 20
82.999999999999545
 30
0.0
 40
0.8999999999999624
  0
CIRCLE
  8
DETAIL
  6
CONTINUOUS
 62
     5
 10
-51.961524227070633
 20
82.999999999999545
 30
0.0
 40
0.8999999999999624
  0
CIRCLE
  8
DETAIL
  6
CONTINUOUS
 62
     5
 10
-58.889727457345998
 20
82.999999999999545
 30
0.0
 40
0.9000000000000351
  0
CIRCLE
  8
DETAIL
  6
CONTINUOUS
 62
     5
 10
-65.817930687621811
 20
82.999999999999545
 30
0.0
 40
0.8999999999999624
  0
CIRCLE
  8
DETAIL
  6
CONTINUOUS
 62
     5
 10
-72.746133917897623
 20
82.999999999999545
 30
0.0
 40
0.8999999999999624
  0
CIRCLE
  8
DETAIL
  6
CONTINUOUS
 62
     5
 10
-24.2487113059683
 20
82.999999999999545
 30
0.0
 40
0.8999999999999624
  0
CIRCLE
  8
DETAIL
  6
CONTINUOUS
 62
     5
 10
-17.320508075692491
 20
83.0
 30
0.0
 40
0.8999999999999624
  0
CIRCLE
  8
DETAIL
  6
CONTINUOUS
 62
     5
 10
-10.392304845417129
 20
83.0
 30
0.0
 40
0.8999999999999624
  0
CIRCLE
  8
DETAIL
  6
CONTINUOUS
 62
     5
 10
-3.4641016151413169
 20
83.0
 30
0.0
 40
0.9000000000000351
  0
CIRCLE
  8
DETAIL
  6
CONTINUOUS
 62
     5
 10
-79.674337148172995
 20
82.999999999999545
 30
0.0
 40
0.8999999999999624
  0
CIRCLE
  8
DETAIL
  6
CONTINUOUS
 62
     5
 10
-34.641016151378153
 20
85.0
 30
0.0
 40
0.8999999999999624
  0
CIRCLE
  8
DETAIL
  6
CONTINUOUS
 62
     5
 10
-41.569219381653973
 20
85.0
 30
0.0
 40
0.8999999999999624
  0
CIRCLE
  8
DETAIL
  6
CONTINUOUS
 62
     5
 10
-48.497422611929323
 20
85.0
 30
0.0
 40
0.8999999999999624
  0
CIRCLE
  8
DETAIL
  6
CONTINUOUS
 62
     5
 10
-55.425625842205143
 20
85.0
 30
0.0
 40
0.8999999999999624
  0
CIRCLE
  8
DETAIL
  6
CONTINUOUS
 62
     5
 10
-62.353829072480487
 20
85.0
 30
0.0
 40
0.8999999999999624
  0
CIRCLE
  8
DETAIL
  6
CONTINUOUS
 62
     5
 10
-69.282032302755852
 20
85.0
 30
0.0
 40
0.8999999999999624
  0
CIRCLE
  8
DETAIL
  6
CONTINUOUS
 62
     5
 10
-76.21023553303165
 20
84.999999999999545
 30
0.0
 40
0.9000000000000351
  0
CIRCLE
  8
DETAIL
  6
CONTINUOUS
 62
     5
 10
-27.712812921102799
 20
85.0
 30
0.0
 40
0.8999999999999624
  0
CIRCLE
  8
DETAIL
  6
CONTINUOUS
 62
     5
 10
-20.784609690826979
 20
85.0
 30
0.0
 40
0.9000000000000351
  0
CIRCLE
  8
DETAIL
  6
CONTINUOUS
 62
     5
 10
-13.85640646055117
 20
85.000000000000455
 30
0.0
 40
0.8999999999999624
  0
CIRCLE
  8
DETAIL
  6
CONTINUOUS
 62
     5
 10
-6.9282032302758134
 20
85.000000000000455
 30
0.0
 40
0.8999999999999624
  0
CIRCLE
  8
DETAIL
  6
CONTINUOUS
 62
     5
 10
-83.138438763307462
 20
84.999999999999545
 30
0.0
 40
0.8999999999999624
  0
CIRCLE
  8
DETAIL
  6
CONTINUOUS
 62
     5
 10
-83.138438763307462
 20
80.999999999999545
 30
0.0
 40
0.8999999999999624
  0
CIRCLE
  8
DETAIL
  6
CONTINUOUS
 62
     5
 10
-79.674337148169343
 20
78.999999999999545
 30
0.0
 40
1.1999999999999751
  0
CIRCLE
  8
DETAIL
  6
CONTINUOUS
 62
     5
 10
-83.138438763307462
 20
77.0
 30
0.0
 40
0.8999999999999624
  0
CIRCLE
  8
DETAIL
  6
CONTINUOUS
 62
     5
 10
-79.674337148169343
 20
74.999999999999545
 30
0.0
 40
1.1999999999999751
  0
CIRCLE
  8
DETAIL
  6
CONTINUOUS
 62
     5
 10
-83.138438763307462
 20
73.0
 30
0.0
 40
0.8999999999999624
  0
CIRCLE
  8
DETAIL
  6
CONTINUOUS
 62
     5
 10
-76.21023553303165
 20
77.0
 30
0.0
 40
1.5000000000000571
  0
CIRCLE
  8
DETAIL
  6
CONTINUOUS
 62
     5
 10
-79.674337148169343
 20
70.999999999999545
 30
0.0
 40
1.1999999999999751
  0
CIRCLE
  8
DETAIL
  6
CONTINUOUS
 62
     5
 10
-83.138438763307462
 20
68.999999999999545
 30
0.0
 40
0.8999999999999624
  0
CIRCLE
  8
DETAIL
  6
CONTINUOUS
 62
     5
 10
-76.21023553303165
 20
73.0
 30
0.0
 40
1.5000000000000571
  0
CIRCLE
  8
DETAIL
  6
CONTINUOUS
 62
     5
 10
-72.746133917893985
 20
75.0
 30
0.0
 40
1.4999999999999849
  0
CIRCLE
  8
DETAIL
  6
CONTINUOUS
 62
     5
 10
-69.282032302755852
 20
77.0
 30
0.0
 40
1.4999999999999849
  0
CIRCLE
  8
DETAIL
  6
CONTINUOUS
 62
     5
 10
-79.674337148169343
 20
67.0
 30
0.0
 40
1.1999999999999751
  0
CIRCLE
  8
DETAIL
  6
CONTINUOUS
 62
     5
 10
-83.138438763307462
 20
64.999999999999545
 30
0.0
 40
0.8999999999999624
  0
CIRCLE
  8
DETAIL
  6
CONTINUOUS
 62
     5
 10
-76.21023553303165
 20
68.999999999999545
 30
0.0
 40
1.5000000000000571
  0
CIRCLE
  8
DETAIL
  6
CONTINUOUS
 62
     5
 10
-72.746133917893985
 20
71.0
 30
0.0
 40
1.4999999999999849
  0
CIRCLE
  8
DETAIL
  6
CONTINUOUS
 62
     5
 10
-69.282032302755852
 20
73.0
 30
0.0
 40
1.4999999999999849
  0
CIRCLE
  8
DETAIL
  6
CONTINUOUS
 62
     5
 10
-65.817930687618173
 20
75.0
 30
0.0
 40
1.4999999999999849
  0
CIRCLE
  8
DETAIL
  6
CONTINUOUS
 62
     5
 10
-62.353829072480487
 20
77.0
 30
0.0
 40
1.4999999999999849
  0
CIRCLE
  8
DETAIL
  6
CONTINUOUS
 62
     5
 10
-79.674337148169343
 20
63.0
 30
0.0
 40
1.1999999999999751
  0
CIRCLE
  8
DETAIL
  6
CONTINUOUS
 62
     5
 10
-83.138438763307462
 20
60.999999999999552
 30
0.0
 40
0.8999999999999624
  0
CIRCLE
  8
DETAIL
  6
CONTINUOUS
 62
     5
 10
-76.21023553303165
 20
64.999999999999545
 30
0.0
 40
1.5000000000000571
  0
CIRCLE
  8
DETAIL
  6
CONTINUOUS
 62
     5
 10
-72.746133917893985
 20
67.0
 30
0.0
 40
1.4999999999999849
  0
CIRCLE
  8
DETAIL
  6
CONTINUOUS
 62
     5
 10
-69.282032302755852
 20
69.0
 30
0.0
 40
1.4999999999999849
  0
CIRCLE
  8
DETAIL
  6
CONTINUOUS
 62
     5
 10
-65.817930687618173
 20
71.0
 30
0.0
 40
1.4999999999999849
  0
CIRCLE
  8
DETAIL
  6
CONTINUOUS
 62
     5
 10
-62.353829072480487
 20
73.0
 30
0.0
 40
1.4999999999999849
  0
CIRCLE
  8
DETAIL
  6
CONTINUOUS
 62
     5
 10
-58.889727457342808
 20
75.0
 30
0.0
 40
1.5000000000000571
  0
CIRCLE
  8
DETAIL
  6
CONTINUOUS
 62
     5
 10
-55.425625842205143
 20
77.0
 30
0.0
 40
1.4999999999999849
  0
CIRCLE
  8
DETAIL
  6
CONTINUOUS
 62
     5
 10
-79.674337148169343
 20
58.999999999999552
 30
0.0
 40
1.1999999999999751
  0
CIRCLE
  8
DETAIL
  6
CONTINUOUS
 62
     5
 10
-83.138438763307462
 20
57.0
 30
0.0
 40
0.8999999999999624
  0
CIRCLE
  8
DETAIL
  6
CONTINUOUS
 62
     5
 10
-76.21023553303165
 20
60.999999999999552
 30
0.0
 40
1.5000000000000571
  0
CIRCLE
  8
DETAIL
  6
CONTINUOUS
 62
     5
 10
-72.746133917893985
 20
63.0
 30
0.0
 40
1.4999999999999849
  0
CIRCLE
  8
DETAIL
  6
CONTINUOUS
 62
     5
 10
-69.282032302755852
 20
65.0
 30
0.0
 40
1.4999999999999849
  0
CIRCLE
  8
DETAIL
  6
CONTINUOUS
 62
     5
 10
-65.817930687618173
 20
67.0
 30
0.0
 40
1.4999999999999849
  0
CIRCLE
  8
DETAIL
  6
CONTINUOUS
 62
     5
 10
-62.353829072480487
 20
69.0
 30
0.0
 40
1.4999999999999849
  0
CIRCLE
  8
DETAIL
  6
CONTINUOUS
 62
     5
 10
-58.889727457342808
 20
71.0
 30
0.0
 40
1.5000000000000571
  0
CIRCLE
  8
DETAIL
  6
CONTINUOUS
 62
     5
 10
-55.425625842205143
 20
73.0
 30
0.0
 40
1.4999999999999849
  0
CIRCLE
  8
DETAIL
  6
CONTINUOUS
 62
     5
 10
-51.961524227067002
 20
75.0
 30
0.0
 40
1.4999999999999849
  0
CIRCLE
  8
DETAIL
  6
CONTINUOUS
 62
     5
 10
-48.497422611929323
 20
77.0
 30
0.0
 40
1.4999999999999849
  0
CIRCLE
  8
DETAIL
  6
CONTINUOUS
 62
     5
 10
-79.674337148169343
 20
55.0
 30
0.0
 40
1.1999999999999751
  0
CIRCLE
  8
DETAIL
  6
CONTINUOUS
 62
     5
 10
-83.138438763307462
 20
52.999999999999552
 30
0.0
 40
0.8999999999999624
  0
CIRCLE
  8
DETAIL
  6
CONTINUOUS
 62
     5
 10
-76.21023553303165
 20
57.0
 30
0.0
 40
1.5000000000000571
  0
CIRCLE
  8
DETAIL
  6
CONTINUOUS
 62
     5
 10
-72.746133917893985
 20
58.999999999999552
 30
0.0
 40
1.4999999999999849
  0
CIRCLE
  8
DETAIL
  6
CONTINUOUS
 62
     5
 10
-69.282032302755852
 20
61.000000000000448
 30
0.0
 40
1.4999999999999849
  0
CIRCLE
  8
DETAIL
  6
CONTINUOUS
 62
     5
 10
-65.817930687618173
 20
63.0
 30
0.0
 40
1.4999999999999849
  0
CIRCLE
  8
DETAIL
  6
CONTINUOUS
 62
     5
 10
-62.353829072480487
 20
65.0
 30
0.0
 40
1.4999999999999849
  0
CIRCLE
  8
DETAIL
  6
CONTINUOUS
 62
     5
 10
-58.889727457342808
 20
67.0
 30
0.0
 40
1.5000000000000571
  0
CIRCLE
  8
DETAIL
  6
CONTINUOUS
 62
     5
 10
-55.425625842205143
 20
69.0
 30
0.0
 40
1.4999999999999849
  0
CIRCLE
  8
DETAIL
  6
CONTINUOUS
 62
     5
 10
-51.961524227067002
 20
71.0
 30
0.0
 40
1.4999999999999849
  0
CIRCLE
  8
DETAIL
  6
CONTINUOUS
 62
     5
 10
-48.497422611929323
 20
73.0
 30
0.0
 40
1.4999999999999849
  0
CIRCLE
  8
DETAIL
  6
CONTINUOUS
 62
     5
 10
-45.033320996791637
 20
75.0
 30
0.0
 40
1.4999999999999849
  0
CIRCLE
  8
DETAIL
  6
CONTINUOUS
 62
     5
 10
-41.569219381653973
 20
77.0
 30
0.0
 40
1.4999999999999849
  0
CIRCLE
  8
DETAIL
  6
CONTINUOUS
 62
     5
 10
-79.674337148169343
 20
50.999999999999552
 30
0.0
 40
1.1999999999999751
  0
CIRCLE
  8
DETAIL
  6
CONTINUOUS
 62
     5
 10
-83.138438763307462
 20
48.999999999999552
 30
0.0
 40
0.8999999999999624
  0
CIRCLE
  8
DETAIL
  6
CONTINUOUS
 62
     5
 10
-76.21023553303165
 20
52.999999999999552
 30
0.0
 40
1.5000000000000571
  0
CIRCLE
  8
DETAIL
  6
CONTINUOUS
 62
     5
 10
-72.746133917893985
 20
55.0
 30
0.0
 40
1.4999999999999849
  0
CIRCLE
  8
DETAIL
  6
CONTINUOUS
 62
     5
 10
-69.282032302755852
 20
57.0
 30
0.0
 40
1.4999999999999849
  0
CIRCLE
  8
DETAIL
  6
CONTINUOUS
 62
     5
 10
-65.817930687618173
 20
58.999999999999552
 30
0.0
 40
1.4999999999999849
  0
CIRCLE
  8
DETAIL
  6
CONTINUOUS
 62
     5
 10
-62.353829072480487
 20
61.000000000000448
 30
0.0
 40
1.4999999999999849
  0
CIRCLE
  8
DETAIL
  6
CONTINUOUS
 62
     5
 10
-58.889727457342808
 20
63.0
 30
0.0
 40
1.5000000000000571
  0
CIRCLE
  8
DETAIL
  6
CONTINUOUS
 62
     5
 10
-55.425625842205143
 20
65.0
 30
0.0
 40
1.4999999999999849
  0
CIRCLE
  8
DETAIL
  6
CONTINUOUS
 62
     5
 10
-51.961524227067002
 20
67.0
 30
0.0
 40
1.4999999999999849
  0
CIRCLE
  8
DETAIL
  6
CONTINUOUS
 62
     5
 10
-48.497422611929323
 20
69.0
 30
0.0
 40
1.4999999999999849
  0
CIRCLE
  8
DETAIL
  6
CONTINUOUS
 62
     5
 10
-45.033320996791637
 20
71.0
 30
0.0
 40
1.4999999999999849
  0
CIRCLE
  8
DETAIL
  6
CONTINUOUS
 62
     5
 10
-41.569219381653973
 20
73.0
 30
0.0
 40
1.4999999999999849
  0
CIRCLE
  8
DETAIL
  6
CONTINUOUS
 62
     5
 10
-38.105117766516287
 20
75.0
 30
0.0
 40
1.5000000000000571
  0
CIRCLE
  8
DETAIL
  6
CONTINUOUS
 62
     5
 10
-34.641016151378153
 20
77.0
 30
0.0
 40
1.4999999999999849
  0
CIRCLE
  8
DETAIL
  6
CONTINUOUS
 62
     5
 10
-27.712812921102799
 20
77.0
 30
0.0
 40
1.4999999999999849
  0
CIRCLE
  8
DETAIL
  6
CONTINUOUS
 62
     5
 10
-31.176914536240471
 20
75.0
 30
0.0
 40
1.4999999999999849
  0
CIRCLE
  8
DETAIL
  6
CONTINUOUS
 62
     5
 10
-79.674337148169343
 20
47.0
 30
0.0
 40
1.1999999999999751
  0
CIRCLE
  8
DETAIL
  6
CONTINUOUS
 62
     5
 10
-83.138438763307462
 20
45.0
 30
0.0
 40
0.8999999999999624
  0
CIRCLE
  8
DETAIL
  6
CONTINUOUS
 62
     5
 10
-76.21023553303165
 20
48.999999999999552
 30
0.0
 40
1.5000000000000571
  0
CIRCLE
  8
DETAIL
  6
CONTINUOUS
 62
     5
 10
-72.746133917893985
 20
51.000000000000448
 30
0.0
 40
1.4999999999999849
  0
CIRCLE
  8
DETAIL
  6
CONTINUOUS
 62
     5
 10
-69.282032302755852
 20
53.0
 30
0.0
 40
1.4999999999999849
  0
CIRCLE
  8
DETAIL
  6
CONTINUOUS
 62
     5
 10
-65.817930687618173
 20
55.0
 30
0.0
 40
1.4999999999999849
  0
CIRCLE
  8
DETAIL
  6
CONTINUOUS
 62
     5
 10
-62.353829072480487
 20
57.0
 30
0.0
 40
1.4999999999999849
  0
CIRCLE
  8
DETAIL
  6
CONTINUOUS
 62
     5
 10
-58.889727457342808
 20
58.999999999999552
 30
0.0
 40
1.5000000000000571
  0
CIRCLE
  8
DETAIL
  6
CONTINUOUS
 62
     5
 10
-55.425625842205143
 20
61.000000000000448
 30
0.0
 40
1.4999999999999849
  0
CIRCLE
  8
DETAIL
  6
CONTINUOUS
 62
     5
 10
-51.961524227067002
 20
63.0
 30
0.0
 40
1.4999999999999849
  0
CIRCLE
  8
DETAIL
  6
CONTINUOUS
 62
     5
 10
-48.497422611929323
 20
65.0
 30
0.0
 40
1.4999999999999849
  0
CIRCLE
  8
DETAIL
  6
CONTINUOUS
 62
     5
 10
-45.033320996791637
 20
67.0
 30
0.0
 40
1.4999999999999849
  0
CIRCLE
  8
DETAIL
  6
CONTINUOUS
 62
     5
 10
-41.569219381653973
 20
69.0
 30
0.0
 40
1.4999999999999849
  0
CIRCLE
  8
DETAIL
  6
CONTINUOUS
 62
     5
 10
-38.105117766516287
 20
71.0
 30
0.0
 40
1.5000000000000571
  0
CIRCLE
  8
DETAIL
  6
CONTINUOUS
 62
     5
 10
-34.641016151378153
 20
73.0
 30
0.0
 40
1.4999999999999849
  0
CIRCLE
  8
DETAIL
  6
CONTINUOUS
 62
     5
 10
-24.248711305964669
 20
75.0
 30
0.0
 40
1.4999999999999849
  0
CIRCLE
  8
DETAIL
  6
CONTINUOUS
 62
     5
 10
-20.784609690826979
 20
77.0
 30
0.0
 40
1.5000000000000571
  0
CIRCLE
  8
DETAIL
  6
CONTINUOUS
 62
     5
 10
-27.712812921102799
 20
73.0
 30
0.0
 40
1.4999999999999849
  0
CIRCLE
  8
DETAIL
  6
CONTINUOUS
 62
     5
 10
-31.176914536240471
 20
71.0
 30
0.0
 40
1.4999999999999849
  0
CIRCLE
  8
DETAIL
  6
CONTINUOUS
 62
     5
 10
-79.674337148169343
 20
42.999999999999552
 30
0.0
 40
1.1999999999999751
  0
CIRCLE
  8
DETAIL
  6
CONTINUOUS
 62
     5
 10
-83.138438763307462
 20
40.999999999999552
 30
0.0
 40
0.8999999999999624
  0
CIRCLE
  8
DETAIL
  6
CONTINUOUS
 62
     5
 10
-76.21023553303165
 20
45.0
 30
0.0
 40
1.5000000000000571
  0
CIRCLE
  8
DETAIL
  6
CONTINUOUS
 62
     5
 10
-72.746133917893985
 20
47.0
 30
0.0
 40
1.4999999999999849
  0
CIRCLE
  8
DETAIL
  6
CONTINUOUS
 62
     5
 10
-69.282032302755852
 20
48.999999999999552
 30
0.0
 40
1.4999999999999849
  0
CIRCLE
  8
DETAIL
  6
CONTINUOUS
 62
     5
 10
-65.817930687618173
 20
51.000000000000448
 30
0.0
 40
1.4999999999999849
  0
CIRCLE
  8
DETAIL
  6
CONTINUOUS
 62
     5
 10
-62.353829072480487
 20
53.0
 30
0.0
 40
1.4999999999999849
  0
CIRCLE
  8
DETAIL
  6
CONTINUOUS
 62
     5
 10
-58.889727457342808
 20
55.0
 30
0.0
 40
1.5000000000000571
  0
CIRCLE
  8
DETAIL
  6
CONTINUOUS
 62
     5
 10
-55.425625842205143
 20
57.0
 30
0.0
 40
1.4999999999999849
  0
CIRCLE
  8
DETAIL
  6
CONTINUOUS
 62
     5
 10
-51.961524227067002
 20
58.999999999999552
 30
0.0
 40
1.4999999999999849
  0
CIRCLE
  8
DETAIL
  6
CONTINUOUS
 62
     5
 10
-48.497422611929323
 20
61.000000000000448
 30
0.0
 40
1.4999999999999849
  0
CIRCLE
  8
DETAIL
  6
CONTINUOUS
 62
     5
 10
-45.033320996791637
 20
63.0
 30
0.0
 40
1.4999999999999849
  0
CIRCLE
  8
DETAIL
  6
CONTINUOUS
 62
     5
 10
-41.569219381653973
 20
65.0
 30
0.0
 40
1.4999999999999849
  0
CIRCLE
  8
DETAIL
  6
CONTINUOUS
 62
     5
 10
-38.105117766516287
 20
67.0
 30
0.0
 40
1.5000000000000571
  0
CIRCLE
  8
DETAIL
  6
CONTINUOUS
 62
     5
 10
-34.641016151378153
 20
69.0
 30
0.0
 40
1.4999999999999849
  0
CIRCLE
  8
DETAIL
  6
CONTINUOUS
 62
     5
 10
-13.85640646055117
 20
77.0
 30
0.0
 40
1.4999999999999849
  0
CIRCLE
  8
DETAIL
  6
CONTINUOUS
 62
     5
 10
-24.248711305964669
 20
71.0
 30
0.0
 40
1.4999999999999849
  0
CIRCLE
  8
DETAIL
  6
CONTINUOUS
 62
     5
 10
-20.784609690826979
 20
73.0
 30
0.0
 40
1.5000000000000571
  0
CIRCLE
  8
DETAIL
  6
CONTINUOUS
 62
     5
 10
-17.3205080756893
 20
75.0
 30
0.0
 40
1.4999999999999849
  0
CIRCLE
  8
DETAIL
  6
CONTINUOUS
 62
     5
 10
-27.712812921102799
 20
69.0
 30
0.0
 40
1.4999999999999849
  0
CIRCLE
  8
DETAIL
  6
CONTINUOUS
 62
     5
 10
-31.176914536240471
 20
67.0
 30
0.0
 40
1.4999999999999849
  0
CIRCLE
  8
DETAIL
  6
CONTINUOUS
 62
     5
 10
-79.674337148169343
 20
38.999999999999552
 30
0.0
 40
1.1999999999999751
  0
CIRCLE
  8
DETAIL
  6
CONTINUOUS
 62
     5
 10
-83.138438763307462
 20
37.0
 30
0.0
 40
0.8999999999999624
  0
CIRCLE
  8
DETAIL
  6
CONTINUOUS
 62
     5
 10
-76.21023553303165
 20
40.999999999999552
 30
0.0
 40
1.5000000000000571
  0
CIRCLE
  8
DETAIL
  6
CONTINUOUS
 62
     5
 10
-72.746133917893985
 20
43.0
 30
0.0
 40
1.4999999999999849
  0
CIRCLE
  8
DETAIL
  6
CONTINUOUS
 62
     5
 10
-69.282032302755852
 20
45.0
 30
0.0
 40
1.4999999999999849
  0
CIRCLE
  8
DETAIL
  6
CONTINUOUS
 62
     5
 10
-65.817930687618173
 20
47.0
 30
0.0
 40
1.4999999999999849
  0
CIRCLE
  8
DETAIL
  6
CONTINUOUS
 62
     5
 10
-62.353829072480487
 20
48.999999999999552
 30
0.0
 40
1.4999999999999849
  0
CIRCLE
  8
DETAIL
  6
CONTINUOUS
 62
     5
 10
-58.889727457342808
 20
51.000000000000448
 30
0.0
 40
1.5000000000000571
  0
CIRCLE
  8
DETAIL
  6
CONTINUOUS
 62
     5
 10
-55.425625842205143
 20
53.0
 30
0.0
 40
1.4999999999999849
  0
CIRCLE
  8
DETAIL
  6
CONTINUOUS
 62
     5
 10
-51.961524227067002
 20
55.0
 30
0.0
 40
1.4999999999999849
  0
CIRCLE
  8
DETAIL
  6
CONTINUOUS
 62
     5
 10
-48.497422611929323
 20
57.0
 30
0.0
 40
1.4999999999999849
  0
CIRCLE
  8
DETAIL
  6
CONTINUOUS
 62
     5
 10
-45.033320996791637
 20
58.999999999999552
 30
0.0
 40
1.4999999999999849
  0
CIRCLE
  8
DETAIL
  6
CONTINUOUS
 62
     5
 10
-41.569219381653973
 20
61.000000000000448
 30
0.0
 40
1.4999999999999849
  0
CIRCLE
  8
DETAIL
  6
CONTINUOUS
 62
     5
 10
-38.105117766516287
 20
63.0
 30
0.0
 40
1.5000000000000571
  0
CIRCLE
  8
DETAIL
  6
CONTINUOUS
 62
     5
 10
-34.641016151378153
 20
65.0
 30
0.0
 40
1.4999999999999849
  0
CIRCLE
  8
DETAIL
  6
CONTINUOUS
 62
     5
 10
-6.9282032302758134
 20
77.0
 30
0.0
 40
1.4999999999999849
  0
CIRCLE
  8
DETAIL
  6
CONTINUOUS
 62
     5
 10
-10.39230484541349
 20
75.000000000000455
 30
0.0
 40
1.4999999999999849
  0
CIRCLE
  8
DETAIL
  6
CONTINUOUS
 62
     5
 10
-13.85640646055117
 20
73.0
 30
0.0
 40
1.4999999999999849
  0
CIRCLE
  8
DETAIL
  6
CONTINUOUS
 62
     5
 10
-24.248711305964669
 20
67.0
 30
0.0
 40
1.4999999999999849
  0
CIRCLE
  8
DETAIL
  6
CONTINUOUS
 62
     5
 10
-20.784609690826979
 20
69.0
 30
0.0
 40
1.5000000000000571
  0
CIRCLE
  8
DETAIL
  6
CONTINUOUS
 62
     5
 10
-17.3205080756893
 20
71.0
 30
0.0
 40
1.4999999999999849
  0
CIRCLE
  8
DETAIL
  6
CONTINUOUS
 62
     5
 10
-27.712812921102799
 20
65.0
 30
0.0
 40
1.4999999999999849
  0
CIRCLE
  8
DETAIL
  6
CONTINUOUS
 62
     5
 10
-31.176914536240471
 20
63.0
 30
0.0
 40
1.4999999999999849
  0
CIRCLE
  8
DETAIL
  6
CONTINUOUS
 62
     5
 10
-79.674337148169343
 20
35.0
 30
0.0
 40
1.1999999999999751
  0
CIRCLE
  8
DETAIL
  6
CONTINUOUS
 62
     5
 10
-83.138438763307462
 20
32.999999999999552
 30
0.0
 40
0.8999999999999624
  0
CIRCLE
  8
DETAIL
  6
CONTINUOUS
 62
     5
 10
-76.21023553303165
 20
37.0
 30
0.0
 40
1.5000000000000571
  0
CIRCLE
  8
DETAIL
  6
CONTINUOUS
 62
     5
 10
-72.746133917893985
 20
38.999999999999552
 30
0.0
 40
1.4999999999999849
  0
CIRCLE
  8
DETAIL
  6
CONTINUOUS
 62
     5
 10
-69.282032302755852
 20
41.000000000000448
 30
0.0
 40
1.4999999999999849
  0
CIRCLE
  8
DETAIL
  6
CONTINUOUS
 62
     5
 10
-65.817930687618173
 20
43.0
 30
0.0
 40
1.4999999999999849
  0
CIRCLE
  8
DETAIL
  6
CONTINUOUS
 62
     5
 10
-62.353829072480487
 20
45.0
 30
0.0
 40
1.4999999999999849
  0
CIRCLE
  8
DETAIL
  6
CONTINUOUS
 62
     5
 10
-58.889727457342808
 20
47.0
 30
0.0
 40
1.5000000000000571
  0
CIRCLE
  8
DETAIL
  6
CONTINUOUS
 62
     5
 10
-55.425625842205143
 20
48.999999999999552
 30
0.0
 40
1.4999999999999849
  0
CIRCLE
  8
DETAIL
  6
CONTINUOUS
 62
     5
 10
-51.961524227067002
 20
51.000000000000448
 30
0.0
 40
1.4999999999999849
  0
CIRCLE
  8
DETAIL
  6
CONTINUOUS
 62
     5
 10
-48.497422611929323
 20
53.0
 30
0.0
 40
1.4999999999999849
  0
CIRCLE
  8
DETAIL
  6
CONTINUOUS
 62
     5
 10
-45.033320996791637
 20
55.0
 30
0.0
 40
1.4999999999999849
  0
CIRCLE
  8
DETAIL
  6
CONTINUOUS
 62
     5
 10
-41.569219381653973
 20
57.0
 30
0.0
 40
1.4999999999999849
  0
CIRCLE
  8
DETAIL
  6
CONTINUOUS
 62
     5
 10
-38.105117766516287
 20
58.999999999999552
 30
0.0
 40
1.5000000000000571
  0
CIRCLE
  8
DETAIL
  6
CONTINUOUS
 62
     5
 10
-34.641016151378153
 20
61.000000000000448
 30
0.0
 40
1.4999999999999849
  0
CIRCLE
  8
DETAIL
  6
CONTINUOUS
 62
     5
 10
-3.4641016151381341
 20
75.000000000000455
 30
0.0
 40
1.5000000000000571
  0
CIRCLE
  8
DETAIL
  6
CONTINUOUS
 62
     5
 10
-6.9282032302758134
 20
73.0
 30
0.0
 40
1.4999999999999849
  0
CIRCLE
  8
DETAIL
  6
CONTINUOUS
 62
     5
 10
-10.39230484541349
 20
71.000000000000455
 30
0.0
 40
1.4999999999999849
  0
CIRCLE
  8
DETAIL
  6
CONTINUOUS
 62
     5
 10
-13.85640646055117
 20
69.000000000000455
 30
0.0
 40
1.4999999999999849
  0
CIRCLE
  8
DETAIL
  6
CONTINUOUS
 62
     5
 10
-24.248711305964669
 20
63.0
 30
0.0
 40
1.4999999999999849
  0
CIRCLE
  8
DETAIL
  6
CONTINUOUS
 62
     5
 10
-20.784609690826979
 20
65.0
 30
0.0
 40
1.5000000000000571
  0
CIRCLE
  8
DETAIL
  6
CONTINUOUS
 62
     5
 10
-17.3205080756893
 20
67.0
 30
0.0
 40
1.4999999999999849
  0
CIRCLE
  8
DETAIL
  6
CONTINUOUS
 62
     5
 10
-27.712812921102799
 20
61.000000000000448
 30
0.0
 40
1.4999999999999849
  0
CIRCLE
  8
DETAIL
  6
CONTINUOUS
 62
     5
 10
-31.176914536240471
 20
58.999999999999552
 30
0.0
 40
1.4999999999999849
  0
CIRCLE
  8
DETAIL
  6
CONTINUOUS
 62
     5
 10
-79.674337148169343
 20
30.999999999999549
 30
0.0
 40
1.1999999999999751
  0
CIRCLE
  8
DETAIL
  6
CONTINUOUS
 62
     5
 10
-83.138438763307462
 20
28.999999999999549
 30
0.0
 40
0.8999999999999624
  0
CIRCLE
  8
DETAIL
  6
CONTINUOUS
 62
     5
 10
-76.21023553303165
 20
32.999999999999552
 30
0.0
 40
1.5000000000000571
  0
CIRCLE
  8
DETAIL
  6
CONTINUOUS
 62
     5
 10
-72.746133917893985
 20
35.0
 30
0.0
 40
1.4999999999999849
  0
CIRCLE
  8
DETAIL
  6
CONTINUOUS
 62
     5
 10
-69.282032302755852
 20
37.0
 30
0.0
 40
1.4999999999999849
  0
CIRCLE
  8
DETAIL
  6
CONTINUOUS
 62
     5
 10
-65.817930687618173
 20
38.999999999999552
 30
0.0
 40
1.4999999999999849
  0
CIRCLE
  8
DETAIL
  6
CONTINUOUS
 62
     5
 10
-62.353829072480487
 20
41.000000000000448
 30
0.0
 40
1.4999999999999849
  0
CIRCLE
  8
DETAIL
  6
CONTINUOUS
 62
     5
 10
-58.889727457342808
 20
43.0
 30
0.0
 40
1.5000000000000571
  0
CIRCLE
  8
DETAIL
  6
CONTINUOUS
 62
     5
 10
-55.425625842205143
 20
45.0
 30
0.0
 40
1.4999999999999849
  0
CIRCLE
  8
DETAIL
  6
CONTINUOUS
 62
     5
 10
-51.961524227067002
 20
47.0
 30
0.0
 40
1.4999999999999849
  0
CIRCLE
  8
DETAIL
  6
CONTINUOUS
 62
     5
 10
-48.497422611929323
 20
48.999999999999552
 30
0.0
 40
1.4999999999999849
  0
CIRCLE
  8
DETAIL
  6
CONTINUOUS
 62
     5
 10
-45.033320996791637
 20
51.000000000000448
 30
0.0
 40
1.4999999999999849
  0
CIRCLE
  8
DETAIL
  6
CONTINUOUS
 62
     5
 10
-41.569219381653973
 20
53.0
 30
0.0
 40
1.4999999999999849
  0
CIRCLE
  8
DETAIL
  6
CONTINUOUS
 62
     5
 10
-38.105117766516287
 20
55.0
 30
0.0
 40
1.5000000000000571
  0
CIRCLE
  8
DETAIL
  6
CONTINUOUS
 62
     5
 10
-34.641016151378153
 20
57.0
 30
0.0
 40
1.4999999999999849
  0
CIRCLE
  8
DETAIL
  6
CONTINUOUS
 62
     5
 10
-3.4641016151381341
 20
71.000000000000455
 30
0.0
 40
1.5000000000000571
  0
CIRCLE
  8
DETAIL
  6
CONTINUOUS
 62
     5
 10
-6.9282032302758134
 20
69.000000000000455
 30
0.0
 40
1.4999999999999849
  0
CIRCLE
  8
DETAIL
  6
CONTINUOUS
 62
     5
 10
-10.39230484541349
 20
67.0
 30
0.0
 40
1.4999999999999849
  0
CIRCLE
  8
DETAIL
  6
CONTINUOUS
 62
     5
 10
-13.85640646055117
 20
65.000000000000455
 30
0.0
 40
1.4999999999999849
  0
CIRCLE
  8
DETAIL
  6
CONTINUOUS
 62
     5
 10
-24.248711305964669
 20
58.999999999999552
 30
0.0
 40
1.4999999999999849
  0
CIRCLE
  8
DETAIL
  6
CONTINUOUS
 62
     5
 10
-20.784609690826979
 20
61.000000000000448
 30
0.0
 40
1.5000000000000571
  0
CIRCLE
  8
DETAIL
  6
CONTINUOUS
 62
     5
 10
-17.3205080756893
 20
63.0
 30
0.0
 40
1.4999999999999849
  0
CIRCLE
  8
DETAIL
  6
CONTINUOUS
 62
     5
 10
-27.712812921102799
 20
57.0
 30
0.0
 40
1.4999999999999849
  0
CIRCLE
  8
DETAIL
  6
CONTINUOUS
 62
     5
 10
-31.176914536240471
 20
55.0
 30
0.0
 40
1.4999999999999849
  0
CIRCLE
  8
DETAIL
  6
CONTINUOUS
 62
     5
 10
-79.674337148169343
 20
27.0
 30
0.0
 40
1.1999999999999751
  0
CIRCLE
  8
DETAIL
  6
CONTINUOUS
 62
     5
 10
-83.138438763307462
 20
25.0
 30
0.0
 40
0.8999999999999624
  0
CIRCLE
  8
DETAIL
  6
CONTINUOUS
 62
     5
 10
-76.21023553303165
 20
28.999999999999549
 30
0.0
 40
1.5000000000000571
  0
CIRCLE
  8
DETAIL
  6
CONTINUOUS
 62
     5
 10
-72.746133917893985
 20
31.000000000000451
 30
0.0
 40
1.4999999999999849
  0
CIRCLE
  8
DETAIL
  6
CONTINUOUS
 62
     5
 10
-69.282032302755852
 20
33.0
 30
0.0
 40
1.4999999999999849
  0
CIRCLE
  8
DETAIL
  6
CONTINUOUS
 62
     5
 10
-65.817930687618173
 20
35.0
 30
0.0
 40
1.4999999999999849
  0
CIRCLE
  8
DETAIL
  6
CONTINUOUS
 62
     5
 10
-62.353829072480487
 20
37.0
 30
0.0
 40
1.4999999999999849
  0
CIRCLE
  8
DETAIL
  6
CONTINUOUS
 62
     5
 10
-58.889727457342808
 20
38.999999999999552
 30
0.0
 40
1.5000000000000571
  0
CIRCLE
  8
DETAIL
  6
CONTINUOUS
 62
     5
 10
-55.425625842205143
 20
41.000000000000448
 30
0.0
 40
1.4999999999999849
  0
CIRCLE
  8
DETAIL
  6
CONTINUOUS
 62
     5
 10
-51.961524227067002
 20
43.0
 30
0.0
 40
1.4999999999999849
  0
CIRCLE
  8
DETAIL
  6
CONTINUOUS
 62
     5
 10
-48.497422611929323
 20
45.0
 30
0.0
 40
1.4999999999999849
  0
CIRCLE
  8
DETAIL
  6
CONTINUOUS
 62
     5
 10
-45.033320996791637
 20
47.0
 30
0.0
 40
1.4999999999999849
  0
CIRCLE
  8
DETAIL
  6
CONTINUOUS
 62
     5
 10
-41.569219381653973
 20
48.999999999999552
 30
0.0
 40
1.4999999999999849
  0
CIRCLE
  8
DETAIL
  6
CONTINUOUS
 62
     5
 10
-38.105117766516287
 20
51.000000000000448
 30
0.0
 40
1.5000000000000571
  0
CIRCLE
  8
DETAIL
  6
CONTINUOUS
 62
     5
 10
-34.641016151378153
 20
53.0
 30
0.0
 40
1.4999999999999849
  0
CIRCLE
  8
DETAIL
  6
CONTINUOUS
 62
     5
 10
-3.4641016151381341
 20
67.0
 30
0.0
 40
1.5000000000000571
  0
CIRCLE
  8
DETAIL
  6
CONTINUOUS
 62
     5
 10
-6.9282032302758134
 20
65.000000000000455
 30
0.0
 40
1.4999999999999849
  0
CIRCLE
  8
DETAIL
  6
CONTINUOUS
 62
     5
 10
-10.39230484541349
 20
63.0
 30
0.0
 40
1.4999999999999849
  0
CIRCLE
  8
DETAIL
  6
CONTINUOUS
 62
     5
 10
-13.85640646055117
 20
61.000000000000448
 30
0.0
 40
1.4999999999999849
  0
CIRCLE
  8
DETAIL
  6
CONTINUOUS
 62
     5
 10
-24.248711305964669
 20
55.0
 30
0.0
 40
1.4999999999999849
  0
CIRCLE
  8
DETAIL
  6
CONTINUOUS
 62
     5
 10
-20.784609690826979
 20
57.0
 30
0.0
 40
1.5000000000000571
  0
CIRCLE
  8
DETAIL
  6
CONTINUOUS
 62
     5
 10
-17.3205080756893
 20
58.999999999999552
 30
0.0
 40
1.4999999999999849
  0
CIRCLE
  8
DETAIL
  6
CONTINUOUS
 62
     5
 10
-27.712812921102799
 20
53.0
 30
0.0
 40
1.4999999999999849
  0
CIRCLE
  8
DETAIL
  6
CONTINUOUS
 62
     5
 10
-31.176914536240471
 20
51.000000000000448
 30
0.0
 40
1.4999999999999849
  0
CIRCLE
  8
DETAIL
  6
CONTINUOUS
 62
     5
 10
-79.674337148169343
 20
22.999999999999549
 30
0.0
 40
1.1999999999999751
  0
CIRCLE
  8
DETAIL
  6
CONTINUOUS
 62
     5
 10
-83.138438763307462
 20
20.999999999999549
 30
0.0
 40
0.8999999999999624
  0
CIRCLE
  8
DETAIL
  6
CONTINUOUS
 62
     5
 10
-76.21023553303165
 20
25.0
 30
0.0
 40
1.5000000000000571
  0
CIRCLE
  8
DETAIL
  6
CONTINUOUS
 62
     5
 10
-72.746133917893985
 20
27.0
 30
0.0
 40
1.4999999999999849
  0
CIRCLE
  8
DETAIL
  6
CONTINUOUS
 62
     5
 10
-69.282032302755852
 20
28.999999999999549
 30
0.0
 40
1.4999999999999849
  0
CIRCLE
  8
DETAIL
  6
CONTINUOUS
 62
     5
 10
-65.817930687618173
 20
31.000000000000451
 30
0.0
 40
1.4999999999999849
  0
CIRCLE
  8
DETAIL
  6
CONTINUOUS
 62
     5
 10
-62.353829072480487
 20
33.0
 30
0.0
 40
1.4999999999999849
  0
CIRCLE
  8
DETAIL
  6
CONTINUOUS
 62
     5
 10
-58.889727457342808
 20
35.0
 30
0.0
 40
1.5000000000000571
  0
CIRCLE
  8
DETAIL
  6
CONTINUOUS
 62
     5
 10
-55.425625842205143
 20
37.0
 30
0.0
 40
1.4999999999999849
  0
CIRCLE
  8
DETAIL
  6
CONTINUOUS
 62
     5
 10
-51.961524227067002
 20
38.999999999999552
 30
0.0
 40
1.4999999999999849
  0
CIRCLE
  8
DETAIL
  6
CONTINUOUS
 62
     5
 10
-48.497422611929323
 20
41.000000000000448
 30
0.0
 40
1.4999999999999849
  0
CIRCLE
  8
DETAIL
  6
CONTINUOUS
 62
     5
 10
-45.033320996791637
 20
43.0
 30
0.0
 40
1.4999999999999849
  0
CIRCLE
  8
DETAIL
  6
CONTINUOUS
 62
     5
 10
-41.569219381653973
 20
45.0
 30
0.0
 40
1.4999999999999849
  0
CIRCLE
  8
DETAIL
  6
CONTINUOUS
 62
     5
 10
-38.105117766516287
 20
47.0
 30
0.0
 40
1.5000000000000571
  0
CIRCLE
  8
DETAIL
  6
CONTINUOUS
 62
     5
 10
-34.641016151378153
 20
48.999999999999552
 30
0.0
 40
1.4999999999999849
  0
CIRCLE
  8
DETAIL
  6
CONTINUOUS
 62
     5
 10
-3.4641016151381341
 20
63.0
 30
0.0
 40
1.5000000000000571
  0
CIRCLE
  8
DETAIL
  6
CONTINUOUS
 62
     5
 10
-6.9282032302758134
 20
61.000000000000448
 30
0.0
 40
1.4999999999999849
  0
CIRCLE
  8
DETAIL
  6
CONTINUOUS
 62
     5
 10
-10.39230484541349
 20
59.000000000000448
 30
0.0
 40
1.4999999999999849
  0
CIRCLE
  8
DETAIL
  6
CONTINUOUS
 62
     5
 10
-13.85640646055117
 20
57.000000000000448
 30
0.0
 40
1.4999999999999849
  0
CIRCLE
  8
DETAIL
  6
CONTINUOUS
 62
     5
 10
-24.248711305964669
 20
51.000000000000448
 30
0.0
 40
1.4999999999999849
  0
CIRCLE
  8
DETAIL
  6
CONTINUOUS
 62
     5
 10
-20.784609690826979
 20
53.0
 30
0.0
 40
1.5000000000000571
  0
CIRCLE
  8
DETAIL
  6
CONTINUOUS
 62
     5
 10
-17.3205080756893
 20
55.0
 30
0.0
 40
1.4999999999999849
  0
CIRCLE
  8
DETAIL
  6
CONTINUOUS
 62
     5
 10
-27.712812921102799
 20
48.999999999999552
 30
0.0
 40
1.4999999999999849
  0
CIRCLE
  8
DETAIL
  6
CONTINUOUS
 62
     5
 10
-31.176914536240471
 20
47.0
 30
0.0
 40
1.4999999999999849
  0
CIRCLE
  8
DETAIL
  6
CONTINUOUS
 62
     5
 10
-79.674337148169343
 20
18.999999999999549
 30
0.0
 40
1.1999999999999751
  0
CIRCLE
  8
DETAIL
  6
CONTINUOUS
 62
     5
 10
-83.138438763307462
 20
17.0
 30
0.0
 40
0.8999999999999624
  0
CIRCLE
  8
DETAIL
  6
CONTINUOUS
 62
     5
 10
-76.21023553303165
 20
20.999999999999549
 30
0.0
 40
1.5000000000000571
  0
CIRCLE
  8
DETAIL
  6
CONTINUOUS
 62
     5
 10
-72.746133917893985
 20
23.0
 30
0.0
 40
1.4999999999999849
  0
CIRCLE
  8
DETAIL
  6
CONTINUOUS
 62
     5
 10
-69.282032302755852
 20
25.0
 30
0.0
 40
1.4999999999999849
  0
CIRCLE
  8
DETAIL
  6
CONTINUOUS
 62
     5
 10
-65.817930687618173
 20
27.0
 30
0.0
 40
1.4999999999999849
  0
CIRCLE
  8
DETAIL
  6
CONTINUOUS
 62
     5
 10
-62.353829072480487
 20
28.999999999999549
 30
0.0
 40
1.4999999999999849
  0
CIRCLE
  8
DETAIL
  6
CONTINUOUS
 62
     5
 10
-58.889727457342808
 20
31.000000000000451
 30
0.0
 40
1.5000000000000571
  0
CIRCLE
  8
DETAIL
  6
CONTINUOUS
 62
     5
 10
-55.425625842205143
 20
33.0
 30
0.0
 40
1.4999999999999849
  0
CIRCLE
  8
DETAIL
  6
CONTINUOUS
 62
     5
 10
-51.961524227067002
 20
35.0
 30
0.0
 40
1.4999999999999849
  0
CIRCLE
  8
DETAIL
  6
CONTINUOUS
 62
     5
 10
-48.497422611929323
 20
37.0
 30
0.0
 40
1.4999999999999849
  0
CIRCLE
  8
DETAIL
  6
CONTINUOUS
 62
     5
 10
-45.033320996791637
 20
38.999999999999552
 30
0.0
 40
1.4999999999999849
  0
CIRCLE
  8
DETAIL
  6
CONTINUOUS
 62
     5
 10
-41.569219381653973
 20
41.000000000000448
 30
0.0
 40
1.4999999999999849
  0
CIRCLE
  8
DETAIL
  6
CONTINUOUS
 62
     5
 10
-38.105117766516287
 20
43.0
 30
0.0
 40
1.5000000000000571
  0
CIRCLE
  8
DETAIL
  6
CONTINUOUS
 62
     5
 10
-34.641016151378153
 20
45.0
 30
0.0
 40
1.4999999999999849
  0
CIRCLE
  8
DETAIL
  6
CONTINUOUS
 62
     5
 10
-3.4641016151381341
 20
59.000000000000448
 30
0.0
 40
1.5000000000000571
  0
CIRCLE
  8
DETAIL
  6
CONTINUOUS
 62
     5
 10
-6.9282032302758134
 20
57.000000000000448
 30
0.0
 40
1.4999999999999849
  0
CIRCLE
  8
DETAIL
  6
CONTINUOUS
 62
     5
 10
-10.39230484541349
 20
55.0
 30
0.0
 40
1.4999999999999849
  0
CIRCLE
  8
DETAIL
  6
CONTINUOUS
 62
     5
 10
-13.85640646055117
 20
53.0
 30
0.0
 40
1.4999999999999849
  0
CIRCLE
  8
DETAIL
  6
CONTINUOUS
 62
     5
 10
-24.248711305964669
 20
47.0
 30
0.0
 40
1.4999999999999849
  0
CIRCLE
  8
DETAIL
  6
CONTINUOUS
 62
     5
 10
-20.784609690826979
 20
48.999999999999552
 30
0.0
 40
1.5000000000000571
  0
CIRCLE
  8
DETAIL
  6
CONTINUOUS
 62
     5
 10
-17.3205080756893
 20
51.000000000000448
 30
0.0
 40
1.4999999999999849
  0
CIRCLE
  8
DETAIL
  6
CONTINUOUS
 62
     5
 10
-27.712812921102799
 20
45.0
 30
0.0
 40
1.4999999999999849
  0
CIRCLE
  8
DETAIL
  6
CONTINUOUS
 62
     5
 10
-31.176914536240471
 20
43.0
 30
0.0
 40
1.4999999999999849
  0
CIRCLE
  8
DETAIL
  6
CONTINUOUS
 62
     5
 10
-79.674337148169343
 20
15.0
 30
0.0
 40
1.1999999999999751
  0
CIRCLE
  8
DETAIL
  6
CONTINUOUS
 62
     5
 10
-83.138438763307462
 20
12.999999999999551
 30
0.0
 40
0.8999999999999624
  0
CIRCLE
  8
DETAIL
  6
CONTINUOUS
 62
     5
 10
-76.21023553303165
 20
17.0
 30
0.0
 40
1.5000000000000571
  0
CIRCLE
  8
DETAIL
  6
CONTINUOUS
 62
     5
 10
-72.746133917893985
 20
18.999999999999549
 30
0.0
 40
1.4999999999999849
  0
CIRCLE
  8
DETAIL
  6
CONTINUOUS
 62
     5
 10
-69.282032302755852
 20
21.000000000000451
 30
0.0
 40
1.4999999999999849
  0
CIRCLE
  8
DETAIL
  6
CONTINUOUS
 62
     5
 10
-65.817930687618173
 20
23.0
 30
0.0
 40
1.4999999999999849
  0
CIRCLE
  8
DETAIL
  6
CONTINUOUS
 62
     5
 10
-62.353829072480487
 20
25.0
 30
0.0
 40
1.4999999999999849
  0
CIRCLE
  8
DETAIL
  6
CONTINUOUS
 62
     5
 10
-58.889727457342808
 20
27.0
 30
0.0
 40
1.5000000000000571
  0
CIRCLE
  8
DETAIL
  6
CONTINUOUS
 62
     5
 10
-55.425625842205143
 20
28.999999999999549
 30
0.0
 40
1.4999999999999849
  0
CIRCLE
  8
DETAIL
  6
CONTINUOUS
 62
     5
 10
-51.961524227067002
 20
31.000000000000451
 30
0.0
 40
1.4999999999999849
  0
CIRCLE
  8
DETAIL
  6
CONTINUOUS
 62
     5
 10
-48.497422611929323
 20
33.0
 30
0.0
 40
1.4999999999999849
  0
CIRCLE
  8
DETAIL
  6
CONTINUOUS
 62
     5
 10
-45.033320996791637
 20
35.0
 30
0.0
 40
1.4999999999999849
  0
CIRCLE
  8
DETAIL
  6
CONTINUOUS
 62
     5
 10
-41.569219381653973
 20
37.0
 30
0.0
 40
1.4999999999999849
  0
CIRCLE
  8
DETAIL
  6
CONTINUOUS
 62
     5
 10
-38.105117766516287
 20
38.999999999999552
 30
0.0
 40
1.5000000000000571
  0
CIRCLE
  8
DETAIL
  6
CONTINUOUS
 62
     5
 10
-34.641016151378153
 20
41.000000000000448
 30
0.0
 40
1.4999999999999849
  0
CIRCLE
  8
DETAIL
  6
CONTINUOUS
 62
     5
 10
-3.4641016151381341
 20
55.0
 30
0.0
 40
1.5000000000000571
  0
CIRCLE
  8
DETAIL
  6
CONTINUOUS
 62
     5
 10
-6.9282032302758134
 20
53.0
 30
0.0
 40
1.4999999999999849
  0
CIRCLE
  8
DETAIL
  6
CONTINUOUS
 62
     5
 10
-10.39230484541349
 20
51.000000000000448
 30
0.0
 40
1.4999999999999849
  0
CIRCLE
  8
DETAIL
  6
CONTINUOUS
 62
     5
 10
-13.85640646055117
 20
49.000000000000448
 30
0.0
 40
1.4999999999999849
  0
CIRCLE
  8
DETAIL
  6
CONTINUOUS
 62
     5
 10
-24.248711305964669
 20
43.0
 30
0.0
 40
1.4999999999999849
  0
CIRCLE
  8
DETAIL
  6
CONTINUOUS
 62
     5
 10
-20.784609690826979
 20
45.0
 30
0.0
 40
1.5000000000000571
  0
CIRCLE
  8
DETAIL
  6
CONTINUOUS
 62
     5
 10
-17.3205080756893
 20
47.0
 30
0.0
 40
1.4999999999999849
  0
CIRCLE
  8
DETAIL
  6
CONTINUOUS
 62
     5
 10
-27.712812921102799
 20
41.000000000000448
 30
0.0
 40
1.4999999999999849
  0
CIRCLE
  8
DETAIL
  6
CONTINUOUS
 62
     5
 10
-31.176914536240471
 20
38.999999999999552
 30
0.0
 40
1.4999999999999849
  0
CIRCLE
  8
DETAIL
  6
CONTINUOUS
 62
     5
 10
-76.21023553303165
 20
12.999999999999551
 30
0.0
 40
1.5000000000000571
  0
CIRCLE
  8
DETAIL
  6
CONTINUOUS
 62
     5
 10
-72.746133917893985
 20
15.0
 30
0.0
 40
1.4999999999999849
  0
CIRCLE
  8
DETAIL
  6
CONTINUOUS
 62
     5
 10
-69.282032302755852
 20
17.0
 30
0.0
 40
1.4999999999999849
  0
CIRCLE
  8
DETAIL
  6
CONTINUOUS
 62
     5
 10
-65.817930687618173
 20
18.999999999999549
 30
0.0
 40
1.4999999999999849
  0
CIRCLE
  8
DETAIL
  6
CONTINUOUS
 62
     5
 10
-62.353829072480487
 20
21.000000000000451
 30
0.0
 40
1.4999999999999849
  0
CIRCLE
  8
DETAIL
  6
CONTINUOUS
 62
     5
 10
-58.889727457342808
 20
23.0
 30
0.0
 40
1.5000000000000571
  0
CIRCLE
  8
DETAIL
  6
CONTINUOUS
 62
     5
 10
-55.425625842205143
 20
25.0
 30
0.0
 40
1.4999999999999849
  0
CIRCLE
  8
DETAIL
  6
CONTINUOUS
 62
     5
 10
-51.961524227067002
 20
27.0
 30
0.0
 40
1.4999999999999849
  0
CIRCLE
  8
DETAIL
  6
CONTINUOUS
 62
     5
 10
-48.497422611929323
 20
28.999999999999549
 30
0.0
 40
1.4999999999999849
  0
CIRCLE
  8
DETAIL
  6
CONTINUOUS
 62
     5
 10
-45.033320996791637
 20
31.000000000000451
 30
0.0
 40
1.4999999999999849
  0
CIRCLE
  8
DETAIL
  6
CONTINUOUS
 62
     5
 10
-41.569219381653973
 20
33.0
 30
0.0
 40
1.4999999999999849
  0
CIRCLE
  8
DETAIL
  6
CONTINUOUS
 62
     5
 10
-38.105117766516287
 20
35.0
 30
0.0
 40
1.5000000000000571
  0
CIRCLE
  8
DETAIL
  6
CONTINUOUS
 62
     5
 10
-34.641016151378153
 20
37.0
 30
0.0
 40
1.4999999999999849
  0
CIRCLE
  8
DETAIL
  6
CONTINUOUS
 62
     5
 10
-3.4641016151381341
 20
51.000000000000448
 30
0.0
 40
1.5000000000000571
  0
CIRCLE
  8
DETAIL
  6
CONTINUOUS
 62
     5
 10
-6.9282032302758134
 20
49.000000000000448
 30
0.0
 40
1.4999999999999849
  0
CIRCLE
  8
DETAIL
  6
CONTINUOUS
 62
     5
 10
-10.39230484541349
 20
47.000000000000448
 30
0.0
 40
1.4999999999999849
  0
CIRCLE
  8
DETAIL
  6
CONTINUOUS
 62
     5
 10
-13.85640646055117
 20
45.0
 30
0.0
 40
1.4999999999999849
  0
CIRCLE
  8
DETAIL
  6
CONTINUOUS
 62
     5
 10
-24.248711305964669
 20
38.999999999999552
 30
0.0
 40
1.4999999999999849
  0
CIRCLE
  8
DETAIL
  6
CONTINUOUS
 62
     5
 10
-20.784609690826979
 20
41.000000000000448
 30
0.0
 40
1.5000000000000571
  0
CIRCLE
  8
DETAIL
  6
CONTINUOUS
 62
     5
 10
-17.3205080756893
 20
43.0
 30
0.0
 40
1.4999999999999849
  0
CIRCLE
  8
DETAIL
  6
CONTINUOUS
 62
     5
 10
-27.712812921102799
 20
37.0
 30
0.0
 40
1.4999999999999849
  0
CIRCLE
  8
DETAIL
  6
CONTINUOUS
 62
     5
 10
-31.176914536240471
 20
35.0
 30
0.0
 40
1.4999999999999849
  0
CIRCLE
  8
DETAIL
  6
CONTINUOUS
 62
     5
 10
-69.282032302755852
 20
13.0
 30
0.0
 40
1.4999999999999849
  0
CIRCLE
  8
DETAIL
  6
CONTINUOUS
 62
     5
 10
-65.817930687618173
 20
15.0
 30
0.0
 40
1.4999999999999849
  0
CIRCLE
  8
DETAIL
  6
CONTINUOUS
 62
     5
 10
-62.353829072480487
 20
17.0
 30
0.0
 40
1.4999999999999849
  0
CIRCLE
  8
DETAIL
  6
CONTINUOUS
 62
     5
 10
-58.889727457342808
 20
18.999999999999549
 30
0.0
 40
1.5000000000000571
  0
CIRCLE
  8
DETAIL
  6
CONTINUOUS
 62
     5
 10
-55.425625842205143
 20
21.000000000000451
 30
0.0
 40
1.4999999999999849
  0
CIRCLE
  8
DETAIL
  6
CONTINUOUS
 62
     5
 10
-51.961524227067002
 20
23.0
 30
0.0
 40
1.4999999999999849
  0
CIRCLE
  8
DETAIL
  6
CONTINUOUS
 62
     5
 10
-48.497422611929323
 20
25.0
 30
0.0
 40
1.4999999999999849
  0
CIRCLE
  8
DETAIL
  6
CONTINUOUS
 62
     5
 10
-45.033320996791637
 20
27.0
 30
0.0
 40
1.4999999999999849
  0
CIRCLE
  8
DETAIL
  6
CONTINUOUS
 62
     5
 10
-41.569219381653973
 20
28.999999999999549
 30
0.0
 40
1.4999999999999849
  0
CIRCLE
  8
DETAIL
  6
CONTINUOUS
 62
     5
 10
-38.105117766516287
 20
31.000000000000451
 30
0.0
 40
1.5000000000000571
  0
CIRCLE
  8
DETAIL
  6
CONTINUOUS
 62
     5
 10
-34.641016151378153
 20
33.0
 30
0.0
 40
1.4999999999999849
  0
CIRCLE
  8
DETAIL
  6
CONTINUOUS
 62
     5
 10
-3.4641016151381341
 20
47.000000000000448
 30
0.0
 40
1.5000000000000571
  0
CIRCLE
  8
DETAIL
  6
CONTINUOUS
 62
     5
 10
-6.9282032302758134
 20
45.0
 30
0.0
 40
1.4999999999999849
  0
CIRCLE
  8
DETAIL
  6
CONTINUOUS
 62
     5
 10
-10.39230484541349
 20
43.0
 30
0.0
 40
1.4999999999999849
  0
CIRCLE
  8
DETAIL
  6
CONTINUOUS
 62
     5
 10
-13.85640646055117
 20
41.000000000000448
 30
0.0
 40
1.4999999999999849
  0
CIRCLE
  8
DETAIL
  6
CONTINUOUS
 62
     5
 10
-24.248711305964669
 20
35.0
 30
0.0
 40
1.4999999999999849
  0
CIRCLE
  8
DETAIL
  6
CONTINUOUS
 62
     5
 10
-20.784609690826979
 20
37.0
 30
0.0
 40
1.5000000000000571
  0
CIRCLE
  8
DETAIL
  6
CONTINUOUS
 62
     5
 10
-17.3205080756893
 20
38.999999999999552
 30
0.0
 40
1.4999999999999849
  0
CIRCLE
  8
DETAIL
  6
CONTINUOUS
 62
     5
 10
-27.712812921102799
 20
33.0
 30
0.0
 40
1.4999999999999849
  0
CIRCLE
  8
DETAIL
  6
CONTINUOUS
 62
     5
 10
-31.176914536240471
 20
31.000000000000451
 30
0.0
 40
1.4999999999999849
  0
CIRCLE
  8
DETAIL
  6
CONTINUOUS
 62
     5
 10
-62.353829072480487
 20
13.0
 30
0.0
 40
1.4999999999999849
  0
CIRCLE
  8
DETAIL
  6
CONTINUOUS
 62
     5
 10
-58.889727457342808
 20
15.0
 30
0.0
 40
1.5000000000000571
  0
CIRCLE
  8
DETAIL
  6
CONTINUOUS
 62
     5
 10
-55.425625842205143
 20
17.0
 30
0.0
 40
1.4999999999999849
  0
CIRCLE
  8
DETAIL
  6
CONTINUOUS
 62
     5
 10
-51.961524227067002
 20
18.999999999999549
 30
0.0
 40
1.4999999999999849
  0
CIRCLE
  8
DETAIL
  6
CONTINUOUS
 62
     5
 10
-48.497422611929323
 20
21.000000000000451
 30
0.0
 40
1.4999999999999849
  0
CIRCLE
  8
DETAIL
  6
CONTINUOUS
 62
     5
 10
-45.033320996791637
 20
23.0
 30
0.0
 40
1.4999999999999849
  0
CIRCLE
  8
DETAIL
  6
CONTINUOUS
 62
     5
 10
-41.569219381653973
 20
25.0
 30
0.0
 40
1.4999999999999849
  0
CIRCLE
  8
DETAIL
  6
CONTINUOUS
 62
     5
 10
-38.105117766516287
 20
27.0
 30
0.0
 40
1.5000000000000571
  0
CIRCLE
  8
DETAIL
  6
CONTINUOUS
 62
     5
 10
-34.641016151378153
 20
28.999999999999549
 30
0.0
 40
1.4999999999999849
  0
CIRCLE
  8
DETAIL
  6
CONTINUOUS
 62
     5
 10
-3.4641016151381341
 20
43.0
 30
0.0
 40
1.5000000000000571
  0
CIRCLE
  8
DETAIL
  6
CONTINUOUS
 62
     5
 10
-6.9282032302758134
 20
41.000000000000448
 30
0.0
 40
1.4999999999999849
  0
CIRCLE
  8
DETAIL
  6
CONTINUOUS
 62
     5
 10
-10.39230484541349
 20
39.000000000000448
 30
0.0
 40
1.4999999999999849
  0
CIRCLE
  8
DETAIL
  6
CONTINUOUS
 62
     5
 10
-13.85640646055117
 20
37.000000000000448
 30
0.0
 40
1.4999999999999849
  0
CIRCLE
  8
DETAIL
  6
CONTINUOUS
 62
     5
 10
-24.248711305964669
 20
31.000000000000451
 30
0.0
 40
1.4999999999999849
  0
CIRCLE
  8
DETAIL
  6
CONTINUOUS
 62
     5
 10
-20.784609690826979
 20
33.0
 30
0.0
 40
1.5000000000000571
  0
CIRCLE
  8
DETAIL
  6
CONTINUOUS
 62
     5
 10
-17.3205080756893
 20
35.0
 30
0.0
 40
1.4999999999999849
  0
CIRCLE
  8
DETAIL
  6
CONTINUOUS
 62
     5
 10
-27.712812921102799
 20
28.999999999999549
 30
0.0
 40
1.4999999999999849
  0
CIRCLE
  8
DETAIL
  6
CONTINUOUS
 62
     5
 10
-31.176914536240471
 20
27.0
 30
0.0
 40
1.4999999999999849
  0
CIRCLE
  8
DETAIL
  6
CONTINUOUS
 62
     5
 10
-55.425625842205143
 20
13.0
 30
0.0
 40
1.4999999999999849
  0
CIRCLE
  8
DETAIL
  6
CONTINUOUS
 62
     5
 10
-51.961524227067002
 20
15.0
 30
0.0
 40
1.4999999999999849
  0
CIRCLE
  8
DETAIL
  6
CONTINUOUS
 62
     5
 10
-48.497422611929323
 20
17.0
 30
0.0
 40
1.4999999999999849
  0
CIRCLE
  8
DETAIL
  6
CONTINUOUS
 62
     5
 10
-45.033320996791637
 20
18.999999999999549
 30
0.0
 40
1.4999999999999849
  0
CIRCLE
  8
DETAIL
  6
CONTINUOUS
 62
     5
 10
-41.569219381653973
 20
21.000000000000451
 30
0.0
 40
1.4999999999999849
  0
CIRCLE
  8
DETAIL
  6
CONTINUOUS
 62
     5
 10
-38.105117766516287
 20
23.0
 30
0.0
 40
1.5000000000000571
  0
CIRCLE
  8
DETAIL
  6
CONTINUOUS
 62
     5
 10
-34.641016151378153
 20
25.0
 30
0.0
 40
1.4999999999999849
  0
CIRCLE
  8
DETAIL
  6
CONTINUOUS
 62
     5
 10
-3.4641016151381341
 20
39.000000000000448
 30
0.0
 40
1.5000000000000571
  0
CIRCLE
  8
DETAIL
  6
CONTINUOUS
 62
     5
 10
-6.9282032302758134
 20
37.000000000000448
 30
0.0
 40
1.4999999999999849
  0
CIRCLE
  8
DETAIL
  6
CONTINUOUS
 62
     5
 10
-10.39230484541349
 20
35.0
 30
0.0
 40
1.4999999999999849
  0
CIRCLE
  8
DETAIL
  6
CONTINUOUS
 62
     5
 10
-13.85640646055117
 20
33.0
 30
0.0
 40
1.4999999999999849
  0
CIRCLE
  8
DETAIL
  6
CONTINUOUS
 62
     5
 10
-24.248711305964669
 20
27.0
 30
0.0
 40
1.4999999999999849
  0
CIRCLE
  8
DETAIL
  6
CONTINUOUS
 62
     5
 10
-20.784609690826979
 20
28.999999999999549
 30
0.0
 40
1.5000000000000571
  0
CIRCLE
  8
DETAIL
  6
CONTINUOUS
 62
     5
 10
-17.3205080756893
 20
31.000000000000451
 30
0.0
 40
1.4999999999999849
  0
CIRCLE
  8
DETAIL
  6
CONTINUOUS
 62
     5
 10
-27.712812921102799
 20
25.0
 30
0.0
 40
1.4999999999999849
  0
CIRCLE
  8
DETAIL
  6
CONTINUOUS
 62
     5
 10
-31.176914536240471
 20
23.0
 30
0.0
 40
1.4999999999999849
  0
CIRCLE
  8
DETAIL
  6
CONTINUOUS
 62
     5
 10
-48.497422611929323
 20
13.0
 30
0.0
 40
1.4999999999999849
  0
CIRCLE
  8
DETAIL
  6
CONTINUOUS
 62
     5
 10
-45.033320996791637
 20
15.0
 30
0.0
 40
1.4999999999999849
  0
CIRCLE
  8
DETAIL
  6
CONTINUOUS
 62
     5
 10
-41.569219381653973
 20
17.0
 30
0.0
 40
1.4999999999999849
  0
CIRCLE
  8
DETAIL
  6
CONTINUOUS
 62
     5
 10
-38.105117766516287
 20
18.999999999999549
 30
0.0
 40
1.5000000000000571
  0
CIRCLE
  8
DETAIL
  6
CONTINUOUS
 62
     5
 10
-34.641016151378153
 20
21.000000000000451
 30
0.0
 40
1.4999999999999849
  0
CIRCLE
  8
DETAIL
  6
CONTINUOUS
 62
     5
 10
-3.4641016151381341
 20
35.0
 30
0.0
 40
1.5000000000000571
  0
CIRCLE
  8
DETAIL
  6
CONTINUOUS
 62
     5
 10
-6.9282032302758134
 20
33.0
 30
0.0
 40
1.4999999999999849
  0
CIRCLE
  8
DETAIL
  6
CONTINUOUS
 62
     5
 10
-10.39230484541349
 20
31.000000000000451
 30
0.0
 40
1.4999999999999849
  0
CIRCLE
  8
DETAIL
  6
CONTINUOUS
 62
     5
 10
-13.85640646055117
 20
29.000000000000451
 30
0.0
 40
1.4999999999999849
  0
CIRCLE
  8
DETAIL
  6
CONTINUOUS
 62
     5
 10
-24.248711305964669
 20
23.0
 30
0.0
 40
1.4999999999999849
  0
CIRCLE
  8
DETAIL
  6
CONTINUOUS
 62
     5
 10
-20.784609690826979
 20
25.0
 30
0.0
 40
1.5000000000000571
  0
CIRCLE
  8
DETAIL
  6
CONTINUOUS
 62
     5
 10
-17.3205080756893
 20
27.0
 30
0.0
 40
1.4999999999999849
  0
CIRCLE
  8
DETAIL
  6
CONTINUOUS
 62
     5
 10
-27.712812921102799
 20
21.000000000000451
 30
0.0
 40
1.4999999999999849
  0
CIRCLE
  8
DETAIL
  6
CONTINUOUS
 62
     5
 10
-31.176914536240471
 20
18.999999999999549
 30
0.0
 40
1.4999999999999849
  0
CIRCLE
  8
DETAIL
  6
CONTINUOUS
 62
     5
 10
-41.569219381653973
 20
13.0
 30
0.0
 40
1.4999999999999849
  0
CIRCLE
  8
DETAIL
  6
CONTINUOUS
 62
     5
 10
-38.105117766516287
 20
15.0
 30
0.0
 40
1.5000000000000571
  0
CIRCLE
  8
DETAIL
  6
CONTINUOUS
 62
     5
 10
-34.641016151378153
 20
17.0
 30
0.0
 40
1.4999999999999849
  0
CIRCLE
  8
DETAIL
  6
CONTINUOUS
 62
     5
 10
-3.4641016151381341
 20
31.000000000000451
 30
0.0
 40
1.5000000000000571
  0
CIRCLE
  8
DETAIL
  6
CONTINUOUS
 62
     5
 10
-6.9282032302758134
 20
29.000000000000451
 30
0.0
 40
1.4999999999999849
  0
CIRCLE
  8
DETAIL
  6
CONTINUOUS
 62
     5
 10
-10.39230484541349
 20
27.000000000000451
 30
0.0
 40
1.4999999999999849
  0
CIRCLE
  8
DETAIL
  6
CONTINUOUS
 62
     5
 10
-13.85640646055117
 20
25.0
 30
0.0
 40
1.4999999999999849
  0
CIRCLE
  8
DETAIL
  6
CONTINUOUS
 62
     5
 10
-24.248711305964669
 20
18.999999999999549
 30
0.0
 40
1.4999999999999849
  0
CIRCLE
  8
DETAIL
  6
CONTINUOUS
 62
     5
 10
-20.784609690826979
 20
21.000000000000451
 30
0.0
 40
1.5000000000000571
  0
CIRCLE
  8
DETAIL
  6
CONTINUOUS
 62
     5
 10
-17.3205080756893
 20
23.0
 30
0.0
 40
1.4999999999999849
  0
CIRCLE
  8
DETAIL
  6
CONTINUOUS
 62
     5
 10
-27.712812921102799
 20
17.0
 30
0.0
 40
1.4999999999999849
  0
CIRCLE
  8
DETAIL
  6
CONTINUOUS
 62
     5
 10
-31.176914536240471
 20
15.0
 30
0.0
 40
1.4999999999999849
  0
CIRCLE
  8
DETAIL
  6
CONTINUOUS
 62
     5
 10
-34.641016151378153
 20
13.0
 30
0.0
 40
1.4999999999999849
  0
CIRCLE
  8
DETAIL
  6
CONTINUOUS
 62
     5
 10
-3.4641016151381341
 20
27.000000000000451
 30
0.0
 40
1.5000000000000571
  0
CIRCLE
  8
DETAIL
  6
CONTINUOUS
 62
     5
 10
-6.9282032302758134
 20
25.0
 30
0.0
 40
1.4999999999999849
  0
CIRCLE
  8
DETAIL
  6
CONTINUOUS
 62
     5
 10
-10.39230484541349
 20
23.0
 30
0.0
 40
1.4999999999999849
  0
CIRCLE
  8
DETAIL
  6
CONTINUOUS
 62
     5
 10
-13.85640646055117
 20
21.000000000000451
 30
0.0
 40
1.4999999999999849
  0
CIRCLE
  8
DETAIL
  6
CONTINUOUS
 62
     5
 10
-24.248711305964669
 20
15.0
 30
0.0
 40
1.4999999999999849
  0
CIRCLE
  8
DETAIL
  6
CONTINUOUS
 62
     5
 10
-20.784609690826979
 20
17.0
 30
0.0
 40
1.5000000000000571
  0
CIRCLE
  8
DETAIL
  6
CONTINUOUS
 62
     5
 10
-17.3205080756893
 20
18.999999999999549
 30
0.0
 40
1.4999999999999849
  0
CIRCLE
  8
DETAIL
  6
CONTINUOUS
 62
     5
 10
-27.712812921102799
 20
13.0
 30
0.0
 40
1.4999999999999849
  0
CIRCLE
  8
DETAIL
  6
CONTINUOUS
 62
     5
 10
-3.4641016151381341
 20
23.0
 30
0.0
 40
1.5000000000000571
  0
CIRCLE
  8
DETAIL
  6
CONTINUOUS
 62
     5
 10
-6.9282032302758134
 20
21.000000000000451
 30
0.0
 40
1.4999999999999849
  0
CIRCLE
  8
DETAIL
  6
CONTINUOUS
 62
     5
 10
-10.39230484541349
 20
19.000000000000451
 30
0.0
 40
1.4999999999999849
  0
CIRCLE
  8
DETAIL
  6
CONTINUOUS
 62
     5
 10
-13.85640646055117
 20
17.000000000000451
 30
0.0
 40
1.4999999999999849
  0
CIRCLE
  8
DETAIL
  6
CONTINUOUS
 62
     5
 10
-20.784609690826979
 20
13.0
 30
0.0
 40
1.5000000000000571
  0
CIRCLE
  8
DETAIL
  6
CONTINUOUS
 62
     5
 10
-17.3205080756893
 20
15.0
 30
0.0
 40
1.4999999999999849
  0
CIRCLE
  8
DETAIL
  6
CONTINUOUS
 62
     5
 10
-3.4641016151381341
 20
19.000000000000451
 30
0.0
 40
1.5000000000000571
  0
CIRCLE
  8
DETAIL
  6
CONTINUOUS
 62
     5
 10
-6.9282032302758134
 20
17.000000000000451
 30
0.0
 40
1.4999999999999849
  0
CIRCLE
  8
DETAIL
  6
CONTINUOUS
 62
     5
 10
-10.39230484541349
 20
15.0
 30
0.0
 40
1.4999999999999849
  0
CIRCLE
  8
DETAIL
  6
CONTINUOUS
 62
     5
 10
-13.85640646055117
 20
13.0
 30
0.0
 40
1.4999999999999849
  0
CIRCLE
  8
DETAIL
  6
CONTINUOUS
 62
     5
 10
-6.9282032302758134
 20
13.0
 30
0.0
 40
1.4999999999999849
  0
CIRCLE
  8
DETAIL
  6
CONTINUOUS
 62
     5
 10
-3.4641016151381341
 20
15.0
 30
0.0
 40
1.5000000000000571
  0
CIRCLE
  8
DETAIL
  6
CONTINUOUS
 62
     5
 10
-72.746133917893985
 20
-52.999999999999552
 30
0.0
 40
1.1999999999999751
  0
CIRCLE
  8
DETAIL
  6
CONTINUOUS
 62
     5
 10
-65.817930687618173
 20
-52.999999999999552
 30
0.0
 40
1.1999999999999751
  0
CIRCLE
  8
DETAIL
  6
CONTINUOUS
 62
     5
 10
-58.889727457342808
 20
-52.999999999999552
 30
0.0
 40
1.1999999999999751
  0
CIRCLE
  8
DETAIL
  6
CONTINUOUS
 62
     5
 10
-51.961524227067457
 20
-52.999999999999552
 30
0.0
 40
1.200000000000045
  0
CIRCLE
  8
DETAIL
  6
CONTINUOUS
 62
     5
 10
-45.033320996791637
 20
-52.999999999999552
 30
0.0
 40
1.1999999999999751
  0
CIRCLE
  8
DETAIL
  6
CONTINUOUS
 62
     5
 10
-38.105117766516287
 20
-52.999999999999552
 30
0.0
 40
1.1999999999999751
  0
CIRCLE
  8
DETAIL
  6
CONTINUOUS
 62
     5
 10
-31.176914536240471
 20
-52.999999999999552
 30
0.0
 40
1.1999999999999751
  0
CIRCLE
  8
DETAIL
  6
CONTINUOUS
 62
     5
 10
-24.24871130596512
 20
-52.999999999999552
 30
0.0
 40
1.1999999999999751
  0
CIRCLE
  8
DETAIL
  6
CONTINUOUS
 62
     5
 10
-17.320508075689759
 20
-52.999999999999552
 30
0.0
 40
1.1999999999999751
  0
CIRCLE
  8
DETAIL
  6
CONTINUOUS
 62
     5
 10
-10.39230484541395
 20
-52.999999999999552
 30
0.0
 40
1.200000000000045
  0
CIRCLE
  8
DETAIL
  6
CONTINUOUS
 62
     5
 10
-3.4641016151385879
 20
-52.999999999999552
 30
0.0
 40
1.200000000000045
  0
CIRCLE
  8
DETAIL
  6
CONTINUOUS
 62
     5
 10
-20.784609690827441
 20
-55.0
 30
0.0
 40
1.1999999999999751
  0
CIRCLE
  8
DETAIL
  6
CONTINUOUS
 62
     5
 10
-6.9282032302762673
 20
-55.0
 30
0.0
 40
1.1999999999999751
  0
CIRCLE
  8
DETAIL
  6
CONTINUOUS
 62
     5
 10
-13.85640646055208
 20
-55.0
 30
0.0
 40
1.1999999999999751
  0
CIRCLE
  8
DETAIL
  6
CONTINUOUS
 62
     5
 10
-27.71281292110325
 20
-54.999999999999552
 30
0.0
 40
1.1999999999999751
  0
CIRCLE
  8
DETAIL
  6
CONTINUOUS
 62
     5
 10
-34.641016151378608
 20
-54.999999999999552
 30
0.0
 40
1.200000000000045
  0
CIRCLE
  8
DETAIL
  6
CONTINUOUS
 62
     5
 10
-41.569219381653973
 20
-54.999999999999552
 30
0.0
 40
1.200000000000045
  0
CIRCLE
  8
DETAIL
  6
CONTINUOUS
 62
     5
 10
-48.497422611929778
 20
-54.999999999999552
 30
0.0
 40
1.1999999999999751
  0
CIRCLE
  8
DETAIL
  6
CONTINUOUS
 62
     5
 10
-55.425625842205143
 20
-54.999999999999552
 30
0.0
 40
1.1999999999999751
  0
CIRCLE
  8
DETAIL
  6
CONTINUOUS
 62
     5
 10
-62.353829072480963
 20
-54.999999999999552
 30
0.0
 40
1.1999999999999751
  0
CIRCLE
  8
DETAIL
  6
CONTINUOUS
 62
     5
 10
-69.282032302755852
 20
-54.999999999999552
 30
0.0
 40
1.1999999999999751
  0
CIRCLE
  8
DETAIL
  6
CONTINUOUS
 62
     5
 10
-76.21023553303165
 20
-54.999999999999552
 30
0.0
 40
1.200000000000045
  0
CIRCLE
  8
DETAIL
  6
CONTINUOUS
 62
     5
 10
-31.176914536243661
 20
-56.999999999999552
 30
0.0
 40
0.8999999999999624
  0
CIRCLE
  8
DETAIL
  6
CONTINUOUS
 62
     5
 10
-38.10511776651947
 20
-56.999999999999552
 30
0.0
 40
0.9000000000000351
  0
CIRCLE
  8
DETAIL
  6
CONTINUOUS
 62
     5
 10
-45.033320996794828
 20
-56.999999999999552
 30
0.0
 40
0.8999999999999624
  0
CIRCLE
  8
DETAIL
  6
CONTINUOUS
 62
     5
 10
-51.961524227070633
 20
-56.999999999999552
 30
0.0
 40
0.8999999999999624
  0
CIRCLE
  8
DETAIL
  6
CONTINUOUS
 62
     5
 10
-58.889727457345998
 20
-56.999999999999552
 30
0.0
 40
0.9000000000000351
  0
CIRCLE
  8
DETAIL
  6
CONTINUOUS
 62
     5
 10
-65.817930687621811
 20
-56.999999999998643
 30
0.0
 40
0.8999999999999624
  0
CIRCLE
  8
DETAIL
  6
CONTINUOUS
 62
     5
 10
-72.746133917897623
 20
-56.999999999998643
 30
0.0
 40
0.8999999999999624
  0
CIRCLE
  8
DETAIL
  6
CONTINUOUS
 62
     5
 10
-24.2487113059683
 20
-56.999999999999552
 30
0.0
 40
0.8999999999999624
  0
CIRCLE
  8
DETAIL
  6
CONTINUOUS
 62
     5
 10
-17.320508075692491
 20
-56.999999999999552
 30
0.0
 40
0.8999999999999624
  0
CIRCLE
  8
DETAIL
  6
CONTINUOUS
 62
     5
 10
-10.392304845417129
 20
-56.999999999999552
 30
0.0
 40
0.8999999999999624
  0
CIRCLE
  8
DETAIL
  6
CONTINUOUS
 62
     5
 10
-3.4641016151413169
 20
-56.999999999999552
 30
0.0
 40
0.9000000000000351
  0
CIRCLE
  8
DETAIL
  6
CONTINUOUS
 62
     5
 10
-79.674337148172995
 20
-56.999999999998643
 30
0.0
 40
0.8999999999999624
  0
CIRCLE
  8
DETAIL
  6
CONTINUOUS
 62
     5
 10
-34.641016151378153
 20
-58.999999999999552
 30
0.0
 40
0.8999999999999624
  0
CIRCLE
  8
DETAIL
  6
CONTINUOUS
 62
     5
 10
-41.569219381653973
 20
-58.999999999999552
 30
0.0
 40
0.8999999999999624
  0
CIRCLE
  8
DETAIL
  6
CONTINUOUS
 62
     5
 10
-48.497422611929323
 20
-58.999999999999552
 30
0.0
 40
0.8999999999999624
  0
CIRCLE
  8
DETAIL
  6
CONTINUOUS
 62
     5
 10
-55.425625842205143
 20
-58.999999999999552
 30
0.0
 40
0.8999999999999624
  0
CIRCLE
  8
DETAIL
  6
CONTINUOUS
 62
     5
 10
-62.353829072480487
 20
-58.999999999999091
 30
0.0
 40
0.8999999999999624
  0
CIRCLE
  8
DETAIL
  6
CONTINUOUS
 62
     5
 10
-69.282032302755852
 20
-58.999999999999091
 30
0.0
 40
0.8999999999999624
  0
CIRCLE
  8
DETAIL
  6
CONTINUOUS
 62
     5
 10
-76.21023553303165
 20
-58.999999999999091
 30
0.0
 40
0.9000000000000351
  0
CIRCLE
  8
DETAIL
  6
CONTINUOUS
 62
     5
 10
-27.712812921102799
 20
-58.999999999999552
 30
0.0
 40
0.8999999999999624
  0
CIRCLE
  8
DETAIL
  6
CONTINUOUS
 62
     5
 10
-20.784609690826979
 20
-58.999999999999552
 30
0.0
 40
0.9000000000000351
  0
CIRCLE
  8
DETAIL
  6
CONTINUOUS
 62
     5
 10
-13.85640646055117
 20
-58.999999999999552
 30
0.0
 40
0.8999999999999624
  0
CIRCLE
  8
DETAIL
  6
CONTINUOUS
 62
     5
 10
-6.9282032302758134
 20
-58.999999999999552
 30
0.0
 40
0.8999999999999624
  0
CIRCLE
  8
DETAIL
  6
CONTINUOUS
 62
     5
 10
-83.138438763307462
 20
-58.999999999999091
 30
0.0
 40
0.8999999999999624
  0
CIRCLE
  8
DETAIL
  6
CONTINUOUS
 62
     5
 10
-83.138438763307462
 20
-54.999999999999552
 30
0.0
 40
0.8999999999999624
  0
CIRCLE
  8
DETAIL
  6
CONTINUOUS
 62
     5
 10
-79.674337148169343
 20
-52.999999999999552
 30
0.0
 40
1.1999999999999751
  0
CIRCLE
  8
DETAIL
  6
CONTINUOUS
 62
     5
 10
-83.138438763307462
 20
-50.999999999999091
 30
0.0
 40
0.8999999999999624
  0
CIRCLE
  8
DETAIL
  6
CONTINUOUS
 62
     5
 10
-79.674337148169343
 20
-48.999999999999091
 30
0.0
 40
1.1999999999999751
  0
CIRCLE
  8
DETAIL
  6
CONTINUOUS
 62
     5
 10
-83.138438763307462
 20
-46.999999999999552
 30
0.0
 40
0.8999999999999624
  0
CIRCLE
  8
DETAIL
  6
CONTINUOUS
 62
     5
 10
-76.21023553303165
 20
-50.999999999999552
 30
0.0
 40
1.5000000000000571
  0
CIRCLE
  8
DETAIL
  6
CONTINUOUS
 62
     5
 10
-79.674337148169343
 20
-44.999999999999552
 30
0.0
 40
1.1999999999999751
  0
CIRCLE
  8
DETAIL
  6
CONTINUOUS
 62
     5
 10
-83.138438763307462
 20
-42.999999999999552
 30
0.0
 40
0.8999999999999624
  0
CIRCLE
  8
DETAIL
  6
CONTINUOUS
 62
     5
 10
-76.21023553303165
 20
-46.999999999999552
 30
0.0
 40
1.5000000000000571
  0
CIRCLE
  8
DETAIL
  6
CONTINUOUS
 62
     5
 10
-72.746133917893985
 20
-48.999999999999091
 30
0.0
 40
1.4999999999999849
  0
CIRCLE
  8
DETAIL
  6
CONTINUOUS
 62
     5
 10
-69.282032302755852
 20
-50.999999999999552
 30
0.0
 40
1.4999999999999849
  0
CIRCLE
  8
DETAIL
  6
CONTINUOUS
 62
     5
 10
-79.674337148169343
 20
-40.999999999999091
 30
0.0
 40
1.1999999999999751
  0
CIRCLE
  8
DETAIL
  6
CONTINUOUS
 62
     5
 10
-83.138438763307462
 20
-38.999999999999091
 30
0.0
 40
0.8999999999999624
  0
CIRCLE
  8
DETAIL
  6
CONTINUOUS
 62
     5
 10
-76.21023553303165
 20
-42.999999999999552
 30
0.0
 40
1.5000000000000571
  0
CIRCLE
  8
DETAIL
  6
CONTINUOUS
 62
     5
 10
-72.746133917893985
 20
-44.999999999999552
 30
0.0
 40
1.4999999999999849
  0
CIRCLE
  8
DETAIL
  6
CONTINUOUS
 62
     5
 10
-69.282032302755852
 20
-46.999999999999552
 30
0.0
 40
1.4999999999999849
  0
CIRCLE
  8
DETAIL
  6
CONTINUOUS
 62
     5
 10
-65.817930687618173
 20
-48.999999999999091
 30
0.0
 40
1.4999999999999849
  0
CIRCLE
  8
DETAIL
  6
CONTINUOUS
 62
     5
 10
-62.353829072480487
 20
-50.999999999999552
 30
0.0
 40
1.4999999999999849
  0
CIRCLE
  8
DETAIL
  6
CONTINUOUS
 62
     5
 10
-79.674337148169343
 20
-36.999999999999552
 30
0.0
 40
1.1999999999999751
  0
CIRCLE
  8
DETAIL
  6
CONTINUOUS
 62
     5
 10
-83.138438763307462
 20
-34.999999999999552
 30
0.0
 40
0.8999999999999624
  0
CIRCLE
  8
DETAIL
  6
CONTINUOUS
 62
     5
 10
-76.21023553303165
 20
-38.999999999999091
 30
0.0
 40
1.5000000000000571
  0
CIRCLE
  8
DETAIL
  6
CONTINUOUS
 62
     5
 10
-72.746133917893985
 20
-40.999999999999552
 30
0.0
 40
1.4999999999999849
  0
CIRCLE
  8
DETAIL
  6
CONTINUOUS
 62
     5
 10
-69.282032302755852
 20
-42.999999999999552
 30
0.0
 40
1.4999999999999849
  0
CIRCLE
  8
DETAIL
  6
CONTINUOUS
 62
     5
 10
-65.817930687618173
 20
-44.999999999999552
 30
0.0
 40
1.4999999999999849
  0
CIRCLE
  8
DETAIL
  6
CONTINUOUS
 62
     5
 10
-62.353829072480487
 20
-46.999999999999552
 30
0.0
 40
1.4999999999999849
  0
CIRCLE
  8
DETAIL
  6
CONTINUOUS
 62
     5
 10
-58.889727457342808
 20
-48.999999999999091
 30
0.0
 40
1.5000000000000571
  0
CIRCLE
  8
DETAIL
  6
CONTINUOUS
 62
     5
 10
-55.425625842205143
 20
-50.999999999999552
 30
0.0
 40
1.4999999999999849
  0
CIRCLE
  8
DETAIL
  6
CONTINUOUS
 62
     5
 10
-79.674337148169343
 20
-32.999999999999552
 30
0.0
 40
1.1999999999999751
  0
CIRCLE
  8
DETAIL
  6
CONTINUOUS
 62
     5
 10
-83.138438763307462
 20
-30.999999999999091
 30
0.0
 40
0.8999999999999624
  0
CIRCLE
  8
DETAIL
  6
CONTINUOUS
 62
     5
 10
-76.21023553303165
 20
-34.999999999999552
 30
0.0
 40
1.5000000000000571
  0
CIRCLE
  8
DETAIL
  6
CONTINUOUS
 62
     5
 10
-72.746133917893985
 20
-36.999999999999552
 30
0.0
 40
1.4999999999999849
  0
CIRCLE
  8
DETAIL
  6
CONTINUOUS
 62
     5
 10
-69.282032302755852
 20
-38.999999999999091
 30
0.0
 40
1.4999999999999849
  0
CIRCLE
  8
DETAIL
  6
CONTINUOUS
 62
     5
 10
-65.817930687618173
 20
-40.999999999999552
 30
0.0
 40
1.4999999999999849
  0
CIRCLE
  8
DETAIL
  6
CONTINUOUS
 62
     5
 10
-62.353829072480487
 20
-42.999999999999552
 30
0.0
 40
1.4999999999999849
  0
CIRCLE
  8
DETAIL
  6
CONTINUOUS
 62
     5
 10
-58.889727457342808
 20
-44.999999999999552
 30
0.0
 40
1.5000000000000571
  0
CIRCLE
  8
DETAIL
  6
CONTINUOUS
 62
     5
 10
-55.425625842205143
 20
-46.999999999999552
 30
0.0
 40
1.4999999999999849
  0
CIRCLE
  8
DETAIL
  6
CONTINUOUS
 62
     5
 10
-51.961524227067002
 20
-48.999999999999552
 30
0.0
 40
1.4999999999999849
  0
CIRCLE
  8
DETAIL
  6
CONTINUOUS
 62
     5
 10
-48.497422611929323
 20
-50.999999999999552
 30
0.0
 40
1.4999999999999849
  0
CIRCLE
  8
DETAIL
  6
CONTINUOUS
 62
     5
 10
-79.674337148169343
 20
-28.999999999999091
 30
0.0
 40
1.1999999999999751
  0
CIRCLE
  8
DETAIL
  6
CONTINUOUS
 62
     5
 10
-83.138438763307462
 20
-26.999999999999549
 30
0.0
 40
0.8999999999999624
  0
CIRCLE
  8
DETAIL
  6
CONTINUOUS
 62
     5
 10
-76.21023553303165
 20
-30.999999999999549
 30
0.0
 40
1.5000000000000571
  0
CIRCLE
  8
DETAIL
  6
CONTINUOUS
 62
     5
 10
-72.746133917893985
 20
-32.999999999999552
 30
0.0
 40
1.4999999999999849
  0
CIRCLE
  8
DETAIL
  6
CONTINUOUS
 62
     5
 10
-69.282032302755852
 20
-34.999999999999552
 30
0.0
 40
1.4999999999999849
  0
CIRCLE
  8
DETAIL
  6
CONTINUOUS
 62
     5
 10
-65.817930687618173
 20
-36.999999999999552
 30
0.0
 40
1.4999999999999849
  0
CIRCLE
  8
DETAIL
  6
CONTINUOUS
 62
     5
 10
-62.353829072480487
 20
-38.999999999999091
 30
0.0
 40
1.4999999999999849
  0
CIRCLE
  8
DETAIL
  6
CONTINUOUS
 62
     5
 10
-58.889727457342808
 20
-40.999999999999552
 30
0.0
 40
1.5000000000000571
  0
CIRCLE
  8
DETAIL
  6
CONTINUOUS
 62
     5
 10
-55.425625842205143
 20
-42.999999999999552
 30
0.0
 40
1.4999999999999849
  0
CIRCLE
  8
DETAIL
  6
CONTINUOUS
 62
     5
 10
-51.961524227067002
 20
-44.999999999999552
 30
0.0
 40
1.4999999999999849
  0
CIRCLE
  8
DETAIL
  6
CONTINUOUS
 62
     5
 10
-48.497422611929323
 20
-46.999999999999552
 30
0.0
 40
1.4999999999999849
  0
CIRCLE
  8
DETAIL
  6
CONTINUOUS
 62
     5
 10
-45.033320996791637
 20
-48.999999999999552
 30
0.0
 40
1.4999999999999849
  0
CIRCLE
  8
DETAIL
  6
CONTINUOUS
 62
     5
 10
-41.569219381653973
 20
-50.999999999999552
 30
0.0
 40
1.4999999999999849
  0
CIRCLE
  8
DETAIL
  6
CONTINUOUS
 62
     5
 10
-79.674337148169343
 20
-24.999999999999549
 30
0.0
 40
1.1999999999999751
  0
CIRCLE
  8
DETAIL
  6
CONTINUOUS
 62
     5
 10
-83.138438763307462
 20
-22.999999999999549
 30
0.0
 40
0.8999999999999624
  0
CIRCLE
  8
DETAIL
  6
CONTINUOUS
 62
     5
 10
-76.21023553303165
 20
-26.999999999999549
 30
0.0
 40
1.5000000000000571
  0
CIRCLE
  8
DETAIL
  6
CONTINUOUS
 62
     5
 10
-72.746133917893985
 20
-28.999999999999091
 30
0.0
 40
1.4999999999999849
  0
CIRCLE
  8
DETAIL
  6
CONTINUOUS
 62
     5
 10
-69.282032302755852
 20
-30.999999999999549
 30
0.0
 40
1.4999999999999849
  0
CIRCLE
  8
DETAIL
  6
CONTINUOUS
 62
     5
 10
-65.817930687618173
 20
-32.999999999999552
 30
0.0
 40
1.4999999999999849
  0
CIRCLE
  8
DETAIL
  6
CONTINUOUS
 62
     5
 10
-62.353829072480487
 20
-34.999999999999552
 30
0.0
 40
1.4999999999999849
  0
CIRCLE
  8
DETAIL
  6
CONTINUOUS
 62
     5
 10
-58.889727457342808
 20
-36.999999999999552
 30
0.0
 40
1.5000000000000571
  0
CIRCLE
  8
DETAIL
  6
CONTINUOUS
 62
     5
 10
-55.425625842205143
 20
-38.999999999999552
 30
0.0
 40
1.4999999999999849
  0
CIRCLE
  8
DETAIL
  6
CONTINUOUS
 62
     5
 10
-51.961524227067002
 20
-40.999999999999552
 30
0.0
 40
1.4999999999999849
  0
CIRCLE
  8
DETAIL
  6
CONTINUOUS
 62
     5
 10
-48.497422611929323
 20
-42.999999999999552
 30
0.0
 40
1.4999999999999849
  0
CIRCLE
  8
DETAIL
  6
CONTINUOUS
 62
     5
 10
-45.033320996791637
 20
-44.999999999999552
 30
0.0
 40
1.4999999999999849
  0
CIRCLE
  8
DETAIL
  6
CONTINUOUS
 62
     5
 10
-41.569219381653973
 20
-46.999999999999552
 30
0.0
 40
1.4999999999999849
  0
CIRCLE
  8
DETAIL
  6
CONTINUOUS
 62
     5
 10
-38.105117766516287
 20
-48.999999999999552
 30
0.0
 40
1.5000000000000571
  0
CIRCLE
  8
DETAIL
  6
CONTINUOUS
 62
     5
 10
-34.641016151378153
 20
-50.999999999999552
 30
0.0
 40
1.4999999999999849
  0
CIRCLE
  8
DETAIL
  6
CONTINUOUS
 62
     5
 10
-27.712812921102799
 20
-50.999999999999552
 30
0.0
 40
1.4999999999999849
  0
CIRCLE
  8
DETAIL
  6
CONTINUOUS
 62
     5
 10
-31.176914536240471
 20
-48.999999999999552
 30
0.0
 40
1.4999999999999849
  0
CIRCLE
  8
DETAIL
  6
CONTINUOUS
 62
     5
 10
-79.674337148169343
 20
-20.999999999999091
 30
0.0
 40
1.1999999999999751
  0
CIRCLE
  8
DETAIL
  6
CONTINUOUS
 62
     5
 10
-83.138438763307462
 20
-18.999999999999091
 30
0.0
 40
0.8999999999999624
  0
CIRCLE
  8
DETAIL
  6
CONTINUOUS
 62
     5
 10
-76.21023553303165
 20
-22.999999999999549
 30
0.0
 40
1.5000000000000571
  0
CIRCLE
  8
DETAIL
  6
CONTINUOUS
 62
     5
 10
-72.746133917893985
 20
-24.999999999999549
 30
0.0
 40
1.4999999999999849
  0
CIRCLE
  8
DETAIL
  6
CONTINUOUS
 62
     5
 10
-69.282032302755852
 20
-26.999999999999549
 30
0.0
 40
1.4999999999999849
  0
CIRCLE
  8
DETAIL
  6
CONTINUOUS
 62
     5
 10
-65.817930687618173
 20
-28.999999999999091
 30
0.0
 40
1.4999999999999849
  0
CIRCLE
  8
DETAIL
  6
CONTINUOUS
 62
     5
 10
-62.353829072480487
 20
-30.999999999999549
 30
0.0
 40
1.4999999999999849
  0
CIRCLE
  8
DETAIL
  6
CONTINUOUS
 62
     5
 10
-58.889727457342808
 20
-32.999999999999552
 30
0.0
 40
1.5000000000000571
  0
CIRCLE
  8
DETAIL
  6
CONTINUOUS
 62
     5
 10
-55.425625842205143
 20
-34.999999999999552
 30
0.0
 40
1.4999999999999849
  0
CIRCLE
  8
DETAIL
  6
CONTINUOUS
 62
     5
 10
-51.961524227067002
 20
-36.999999999999552
 30
0.0
 40
1.4999999999999849
  0
CIRCLE
  8
DETAIL
  6
CONTINUOUS
 62
     5
 10
-48.497422611929323
 20
-38.999999999999552
 30
0.0
 40
1.4999999999999849
  0
CIRCLE
  8
DETAIL
  6
CONTINUOUS
 62
     5
 10
-45.033320996791637
 20
-40.999999999999552
 30
0.0
 40
1.4999999999999849
  0
CIRCLE
  8
DETAIL
  6
CONTINUOUS
 62
     5
 10
-41.569219381653973
 20
-42.999999999999552
 30
0.0
 40
1.4999999999999849
  0
CIRCLE
  8
DETAIL
  6
CONTINUOUS
 62
     5
 10
-38.105117766516287
 20
-44.999999999999552
 30
0.0
 40
1.5000000000000571
  0
CIRCLE
  8
DETAIL
  6
CONTINUOUS
 62
     5
 10
-34.641016151378153
 20
-46.999999999999552
 30
0.0
 40
1.4999999999999849
  0
CIRCLE
  8
DETAIL
  6
CONTINUOUS
 62
     5
 10
-24.248711305964669
 20
-48.999999999999552
 30
0.0
 40
1.4999999999999849
  0
CIRCLE
  8
DETAIL
  6
CONTINUOUS
 62
     5
 10
-20.784609690826979
 20
-50.999999999999552
 30
0.0
 40
1.5000000000000571
  0
CIRCLE
  8
DETAIL
  6
CONTINUOUS
 62
     5
 10
-27.712812921102799
 20
-47.0
 30
0.0
 40
1.4999999999999849
  0
CIRCLE
  8
DETAIL
  6
CONTINUOUS
 62
     5
 10
-31.176914536240471
 20
-44.999999999999552
 30
0.0
 40
1.4999999999999849
  0
CIRCLE
  8
DETAIL
  6
CONTINUOUS
 62
     5
 10
-79.674337148169343
 20
-16.999999999999549
 30
0.0
 40
1.1999999999999751
  0
CIRCLE
  8
DETAIL
  6
CONTINUOUS
 62
     5
 10
-83.138438763307462
 20
-14.999999999999551
 30
0.0
 40
0.8999999999999624
  0
CIRCLE
  8
DETAIL
  6
CONTINUOUS
 62
     5
 10
-76.21023553303165
 20
-18.999999999999091
 30
0.0
 40
1.5000000000000571
  0
CIRCLE
  8
DETAIL
  6
CONTINUOUS
 62
     5
 10
-72.746133917893985
 20
-20.999999999999549
 30
0.0
 40
1.4999999999999849
  0
CIRCLE
  8
DETAIL
  6
CONTINUOUS
 62
     5
 10
-69.282032302755852
 20
-22.999999999999549
 30
0.0
 40
1.4999999999999849
  0
CIRCLE
  8
DETAIL
  6
CONTINUOUS
 62
     5
 10
-65.817930687618173
 20
-24.999999999999549
 30
0.0
 40
1.4999999999999849
  0
CIRCLE
  8
DETAIL
  6
CONTINUOUS
 62
     5
 10
-62.353829072480487
 20
-26.999999999999549
 30
0.0
 40
1.4999999999999849
  0
CIRCLE
  8
DETAIL
  6
CONTINUOUS
 62
     5
 10
-58.889727457342808
 20
-28.999999999999091
 30
0.0
 40
1.5000000000000571
  0
CIRCLE
  8
DETAIL
  6
CONTINUOUS
 62
     5
 10
-55.425625842205143
 20
-30.999999999999549
 30
0.0
 40
1.4999999999999849
  0
CIRCLE
  8
DETAIL
  6
CONTINUOUS
 62
     5
 10
-51.961524227067002
 20
-32.999999999999552
 30
0.0
 40
1.4999999999999849
  0
CIRCLE
  8
DETAIL
  6
CONTINUOUS
 62
     5
 10
-48.497422611929323
 20
-34.999999999999552
 30
0.0
 40
1.4999999999999849
  0
CIRCLE
  8
DETAIL
  6
CONTINUOUS
 62
     5
 10
-45.033320996791637
 20
-36.999999999999552
 30
0.0
 40
1.4999999999999849
  0
CIRCLE
  8
DETAIL
  6
CONTINUOUS
 62
     5
 10
-41.569219381653973
 20
-38.999999999999552
 30
0.0
 40
1.4999999999999849
  0
CIRCLE
  8
DETAIL
  6
CONTINUOUS
 62
     5
 10
-38.105117766516287
 20
-40.999999999999552
 30
0.0
 40
1.5000000000000571
  0
CIRCLE
  8
DETAIL
  6
CONTINUOUS
 62
     5
 10
-34.641016151378153
 20
-42.999999999999552
 30
0.0
 40
1.4999999999999849
  0
CIRCLE
  8
DETAIL
  6
CONTINUOUS
 62
     5
 10
-13.85640646055117
 20
-50.999999999999552
 30
0.0
 40
1.4999999999999849
  0
CIRCLE
  8
DETAIL
  6
CONTINUOUS
 62
     5
 10
-24.248711305964669
 20
-44.999999999999552
 30
0.0
 40
1.4999999999999849
  0
CIRCLE
  8
DETAIL
  6
CONTINUOUS
 62
     5
 10
-20.784609690826979
 20
-47.0
 30
0.0
 40
1.5000000000000571
  0
CIRCLE
  8
DETAIL
  6
CONTINUOUS
 62
     5
 10
-17.3205080756893
 20
-48.999999999999552
 30
0.0
 40
1.4999999999999849
  0
CIRCLE
  8
DETAIL
  6
CONTINUOUS
 62
     5
 10
-27.712812921102799
 20
-42.999999999999552
 30
0.0
 40
1.4999999999999849
  0
CIRCLE
  8
DETAIL
  6
CONTINUOUS
 62
     5
 10
-31.176914536240471
 20
-40.999999999999552
 30
0.0
 40
1.4999999999999849
  0
CIRCLE
  8
DETAIL
  6
CONTINUOUS
 62
     5
 10
-79.674337148169343
 20
-12.999999999999551
 30
0.0
 40
1.1999999999999751
  0
CIRCLE
  8
DETAIL
  6
CONTINUOUS
 62
     5
 10
-83.138438763307462
 20
-10.999999999999091
 30
0.0
 40
0.8999999999999624
  0
CIRCLE
  8
DETAIL
  6
CONTINUOUS
 62
     5
 10
-76.21023553303165
 20
-14.999999999999551
 30
0.0
 40
1.5000000000000571
  0
CIRCLE
  8
DETAIL
  6
CONTINUOUS
 62
     5
 10
-72.746133917893985
 20
-16.999999999999549
 30
0.0
 40
1.4999999999999849
  0
CIRCLE
  8
DETAIL
  6
CONTINUOUS
 62
     5
 10
-69.282032302755852
 20
-18.999999999999091
 30
0.0
 40
1.4999999999999849
  0
CIRCLE
  8
DETAIL
  6
CONTINUOUS
 62
     5
 10
-65.817930687618173
 20
-20.999999999999549
 30
0.0
 40
1.4999999999999849
  0
CIRCLE
  8
DETAIL
  6
CONTINUOUS
 62
     5
 10
-62.353829072480487
 20
-22.999999999999549
 30
0.0
 40
1.4999999999999849
  0
CIRCLE
  8
DETAIL
  6
CONTINUOUS
 62
     5
 10
-58.889727457342808
 20
-24.999999999999549
 30
0.0
 40
1.5000000000000571
  0
CIRCLE
  8
DETAIL
  6
CONTINUOUS
 62
     5
 10
-55.425625842205143
 20
-26.999999999999549
 30
0.0
 40
1.4999999999999849
  0
CIRCLE
  8
DETAIL
  6
CONTINUOUS
 62
     5
 10
-51.961524227067002
 20
-28.999999999999549
 30
0.0
 40
1.4999999999999849
  0
CIRCLE
  8
DETAIL
  6
CONTINUOUS
 62
     5
 10
-48.497422611929323
 20
-30.999999999999549
 30
0.0
 40
1.4999999999999849
  0
CIRCLE
  8
DETAIL
  6
CONTINUOUS
 62
     5
 10
-45.033320996791637
 20
-32.999999999999552
 30
0.0
 40
1.4999999999999849
  0
CIRCLE
  8
DETAIL
  6
CONTINUOUS
 62
     5
 10
-41.569219381653973
 20
-34.999999999999552
 30
0.0
 40
1.4999999999999849
  0
CIRCLE
  8
DETAIL
  6
CONTINUOUS
 62
     5
 10
-38.105117766516287
 20
-36.999999999999552
 30
0.0
 40
1.5000000000000571
  0
CIRCLE
  8
DETAIL
  6
CONTINUOUS
 62
     5
 10
-34.641016151378153
 20
-38.999999999999552
 30
0.0
 40
1.4999999999999849
  0
CIRCLE
  8
DETAIL
  6
CONTINUOUS
 62
     5
 10
-6.9282032302758134
 20
-50.999999999999552
 30
0.0
 40
1.4999999999999849
  0
CIRCLE
  8
DETAIL
  6
CONTINUOUS
 62
     5
 10
-10.39230484541349
 20
-48.999999999999552
 30
0.0
 40
1.4999999999999849
  0
CIRCLE
  8
DETAIL
  6
CONTINUOUS
 62
     5
 10
-13.85640646055117
 20
-47.0
 30
0.0
 40
1.4999999999999849
  0
CIRCLE
  8
DETAIL
  6
CONTINUOUS
 62
     5
 10
-24.248711305964669
 20
-40.999999999999552
 30
0.0
 40
1.4999999999999849
  0
CIRCLE
  8
DETAIL
  6
CONTINUOUS
 62
     5
 10
-20.784609690826979
 20
-42.999999999999552
 30
0.0
 40
1.5000000000000571
  0
CIRCLE
  8
DETAIL
  6
CONTINUOUS
 62
     5
 10
-17.3205080756893
 20
-44.999999999999552
 30
0.0
 40
1.4999999999999849
  0
CIRCLE
  8
DETAIL
  6
CONTINUOUS
 62
     5
 10
-27.712812921102799
 20
-38.999999999999552
 30
0.0
 40
1.4999999999999849
  0
CIRCLE
  8
DETAIL
  6
CONTINUOUS
 62
     5
 10
-31.176914536240471
 20
-37.0
 30
0.0
 40
1.4999999999999849
  0
CIRCLE
  8
DETAIL
  6
CONTINUOUS
 62
     5
 10
-79.674337148169343
 20
-8.9999999999990887
 30
0.0
 40
1.1999999999999751
  0
CIRCLE
  8
DETAIL
  6
CONTINUOUS
 62
     5
 10
-83.138438763307462
 20
-6.9999999999995444
 30
0.0
 40
0.8999999999999624
  0
CIRCLE
  8
DETAIL
  6
CONTINUOUS
 62
     5
 10
-76.21023553303165
 20
-10.999999999999091
 30
0.0
 40
1.5000000000000571
  0
CIRCLE
  8
DETAIL
  6
CONTINUOUS
 62
     5
 10
-72.746133917893985
 20
-12.999999999999551
 30
0.0
 40
1.4999999999999849
  0
CIRCLE
  8
DETAIL
  6
CONTINUOUS
 62
     5
 10
-69.282032302755852
 20
-14.999999999999551
 30
0.0
 40
1.4999999999999849
  0
CIRCLE
  8
DETAIL
  6
CONTINUOUS
 62
     5
 10
-65.817930687618173
 20
-16.999999999999549
 30
0.0
 40
1.4999999999999849
  0
CIRCLE
  8
DETAIL
  6
CONTINUOUS
 62
     5
 10
-62.353829072480487
 20
-18.999999999999091
 30
0.0
 40
1.4999999999999849
  0
CIRCLE
  8
DETAIL
  6
CONTINUOUS
 62
     5
 10
-58.889727457342808
 20
-20.999999999999549
 30
0.0
 40
1.5000000000000571
  0
CIRCLE
  8
DETAIL
  6
CONTINUOUS
 62
     5
 10
-55.425625842205143
 20
-22.999999999999549
 30
0.0
 40
1.4999999999999849
  0
CIRCLE
  8
DETAIL
  6
CONTINUOUS
 62
     5
 10
-51.961524227067002
 20
-24.999999999999549
 30
0.0
 40
1.4999999999999849
  0
CIRCLE
  8
DETAIL
  6
CONTINUOUS
 62
     5
 10
-48.497422611929323
 20
-26.999999999999549
 30
0.0
 40
1.4999999999999849
  0
CIRCLE
  8
DETAIL
  6
CONTINUOUS
 62
     5
 10
-45.033320996791637
 20
-28.999999999999549
 30
0.0
 40
1.4999999999999849
  0
CIRCLE
  8
DETAIL
  6
CONTINUOUS
 62
     5
 10
-41.569219381653973
 20
-30.999999999999549
 30
0.0
 40
1.4999999999999849
  0
CIRCLE
  8
DETAIL
  6
CONTINUOUS
 62
     5
 10
-38.105117766516287
 20
-32.999999999999552
 30
0.0
 40
1.5000000000000571
  0
CIRCLE
  8
DETAIL
  6
CONTINUOUS
 62
     5
 10
-34.641016151378153
 20
-34.999999999999552
 30
0.0
 40
1.4999999999999849
  0
CIRCLE
  8
DETAIL
  6
CONTINUOUS
 62
     5
 10
-3.4641016151381341
 20
-48.999999999999552
 30
0.0
 40
1.5000000000000571
  0
CIRCLE
  8
DETAIL
  6
CONTINUOUS
 62
     5
 10
-6.9282032302758134
 20
-47.0
 30
0.0
 40
1.4999999999999849
  0
CIRCLE
  8
DETAIL
  6
CONTINUOUS
 62
     5
 10
-10.39230484541349
 20
-45.0
 30
0.0
 40
1.4999999999999849
  0
CIRCLE
  8
DETAIL
  6
CONTINUOUS
 62
     5
 10
-13.85640646055117
 20
-42.999999999999552
 30
0.0
 40
1.4999999999999849
  0
CIRCLE
  8
DETAIL
  6
CONTINUOUS
 62
     5
 10
-24.248711305964669
 20
-37.0
 30
0.0
 40
1.4999999999999849
  0
CIRCLE
  8
DETAIL
  6
CONTINUOUS
 62
     5
 10
-20.784609690826979
 20
-38.999999999999552
 30
0.0
 40
1.5000000000000571
  0
CIRCLE
  8
DETAIL
  6
CONTINUOUS
 62
     5
 10
-17.3205080756893
 20
-40.999999999999552
 30
0.0
 40
1.4999999999999849
  0
CIRCLE
  8
DETAIL
  6
CONTINUOUS
 62
     5
 10
-27.712812921102799
 20
-34.999999999999552
 30
0.0
 40
1.4999999999999849
  0
CIRCLE
  8
DETAIL
  6
CONTINUOUS
 62
     5
 10
-31.176914536240471
 20
-32.999999999999552
 30
0.0
 40
1.4999999999999849
  0
CIRCLE
  8
DETAIL
  6
CONTINUOUS
 62
     5
 10
-79.674337148169343
 20
-4.9999999999995444
 30
0.0
 40
1.1999999999999751
  0
CIRCLE
  8
DETAIL
  6
CONTINUOUS
 62
     5
 10
-83.138438763307462
 20
-2.9999999999995448
 30
0.0
 40
0.8999999999999624
  0
CIRCLE
  8
DETAIL
  6
CONTINUOUS
 62
     5
 10
-76.21023553303165
 20
-6.9999999999995444
 30
0.0
 40
1.5000000000000571
  0
CIRCLE
  8
DETAIL
  6
CONTINUOUS
 62
     5
 10
-72.746133917893985
 20
-8.9999999999990887
 30
0.0
 40
1.4999999999999849
  0
CIRCLE
  8
DETAIL
  6
CONTINUOUS
 62
     5
 10
-69.282032302755852
 20
-10.999999999999551
 30
0.0
 40
1.4999999999999849
  0
CIRCLE
  8
DETAIL
  6
CONTINUOUS
 62
     5
 10
-65.817930687618173
 20
-12.999999999999551
 30
0.0
 40
1.4999999999999849
  0
CIRCLE
  8
DETAIL
  6
CONTINUOUS
 62
     5
 10
-62.353829072480487
 20
-14.999999999999551
 30
0.0
 40
1.4999999999999849
  0
CIRCLE
  8
DETAIL
  6
CONTINUOUS
 62
     5
 10
-58.889727457342808
 20
-16.999999999999549
 30
0.0
 40
1.5000000000000571
  0
CIRCLE
  8
DETAIL
  6
CONTINUOUS
 62
     5
 10
-55.425625842205143
 20
-18.999999999999549
 30
0.0
 40
1.4999999999999849
  0
CIRCLE
  8
DETAIL
  6
CONTINUOUS
 62
     5
 10
-51.961524227067002
 20
-20.999999999999549
 30
0.0
 40
1.4999999999999849
  0
CIRCLE
  8
DETAIL
  6
CONTINUOUS
 62
     5
 10
-48.497422611929323
 20
-22.999999999999549
 30
0.0
 40
1.4999999999999849
  0
CIRCLE
  8
DETAIL
  6
CONTINUOUS
 62
     5
 10
-45.033320996791637
 20
-24.999999999999549
 30
0.0
 40
1.4999999999999849
  0
CIRCLE
  8
DETAIL
  6
CONTINUOUS
 62
     5
 10
-41.569219381653973
 20
-26.999999999999549
 30
0.0
 40
1.4999999999999849
  0
CIRCLE
  8
DETAIL
  6
CONTINUOUS
 62
     5
 10
-38.105117766516287
 20
-28.999999999999549
 30
0.0
 40
1.5000000000000571
  0
CIRCLE
  8
DETAIL
  6
CONTINUOUS
 62
     5
 10
-34.641016151378153
 20
-30.999999999999549
 30
0.0
 40
1.4999999999999849
  0
CIRCLE
  8
DETAIL
  6
CONTINUOUS
 62
     5
 10
-3.4641016151381341
 20
-45.0
 30
0.0
 40
1.5000000000000571
  0
CIRCLE
  8
DETAIL
  6
CONTINUOUS
 62
     5
 10
-6.9282032302758134
 20
-42.999999999999552
 30
0.0
 40
1.4999999999999849
  0
CIRCLE
  8
DETAIL
  6
CONTINUOUS
 62
     5
 10
-10.39230484541349
 20
-40.999999999999552
 30
0.0
 40
1.4999999999999849
  0
CIRCLE
  8
DETAIL
  6
CONTINUOUS
 62
     5
 10
-13.85640646055117
 20
-38.999999999999552
 30
0.0
 40
1.4999999999999849
  0
CIRCLE
  8
DETAIL
  6
CONTINUOUS
 62
     5
 10
-24.248711305964669
 20
-32.999999999999552
 30
0.0
 40
1.4999999999999849
  0
CIRCLE
  8
DETAIL
  6
CONTINUOUS
 62
     5
 10
-20.784609690826979
 20
-34.999999999999552
 30
0.0
 40
1.5000000000000571
  0
CIRCLE
  8
DETAIL
  6
CONTINUOUS
 62
     5
 10
-17.3205080756893
 20
-37.0
 30
0.0
 40
1.4999999999999849
  0
CIRCLE
  8
DETAIL
  6
CONTINUOUS
 62
     5
 10
-27.712812921102799
 20
-30.999999999999549
 30
0.0
 40
1.4999999999999849
  0
CIRCLE
  8
DETAIL
  6
CONTINUOUS
 62
     5
 10
-31.176914536240471
 20
-28.999999999999549
 30
0.0
 40
1.4999999999999849
  0
CIRCLE
  8
DETAIL
  6
CONTINUOUS
 62
     5
 10
-79.674337148169343
 20
-0.9999999999990904
 30
0.0
 40
1.1999999999999751
  0
CIRCLE
  8
DETAIL
  6
CONTINUOUS
 62
     5
 10
-83.138438763307462
 20
1.0000000000009091
 30
0.0
 40
0.8999999999999624
  0
CIRCLE
  8
DETAIL
  6
CONTINUOUS
 62
     5
 10
-76.21023553303165
 20
-2.9999999999995448
 30
0.0
 40
1.5000000000000571
  0
CIRCLE
  8
DETAIL
  6
CONTINUOUS
 62
     5
 10
-72.746133917893985
 20
-4.9999999999995444
 30
0.0
 40
1.4999999999999849
  0
CIRCLE
  8
DETAIL
  6
CONTINUOUS
 62
     5
 10
-69.282032302755852
 20
-6.9999999999995444
 30
0.0
 40
1.4999999999999849
  0
CIRCLE
  8
DETAIL
  6
CONTINUOUS
 62
     5
 10
-65.817930687618173
 20
-8.9999999999990887
 30
0.0
 40
1.4999999999999849
  0
CIRCLE
  8
DETAIL
  6
CONTINUOUS
 62
     5
 10
-62.353829072480487
 20
-10.999999999999551
 30
0.0
 40
1.4999999999999849
  0
CIRCLE
  8
DETAIL
  6
CONTINUOUS
 62
     5
 10
-58.889727457342808
 20
-12.999999999999551
 30
0.0
 40
1.5000000000000571
  0
CIRCLE
  8
DETAIL
  6
CONTINUOUS
 62
     5
 10
-55.425625842205143
 20
-14.999999999999551
 30
0.0
 40
1.4999999999999849
  0
CIRCLE
  8
DETAIL
  6
CONTINUOUS
 62
     5
 10
-51.961524227067002
 20
-16.999999999999549
 30
0.0
 40
1.4999999999999849
  0
CIRCLE
  8
DETAIL
  6
CONTINUOUS
 62
     5
 10
-48.497422611929323
 20
-18.999999999999549
 30
0.0
 40
1.4999999999999849
  0
CIRCLE
  8
DETAIL
  6
CONTINUOUS
 62
     5
 10
-45.033320996791637
 20
-20.999999999999549
 30
0.0
 40
1.4999999999999849
  0
CIRCLE
  8
DETAIL
  6
CONTINUOUS
 62
     5
 10
-41.569219381653973
 20
-22.999999999999549
 30
0.0
 40
1.4999999999999849
  0
CIRCLE
  8
DETAIL
  6
CONTINUOUS
 62
     5
 10
-38.105117766516287
 20
-24.999999999999549
 30
0.0
 40
1.5000000000000571
  0
CIRCLE
  8
DETAIL
  6
CONTINUOUS
 62
     5
 10
-34.641016151378153
 20
-26.999999999999549
 30
0.0
 40
1.4999999999999849
  0
CIRCLE
  8
DETAIL
  6
CONTINUOUS
 62
     5
 10
-3.4641016151381341
 20
-40.999999999999552
 30
0.0
 40
1.5000000000000571
  0
CIRCLE
  8
DETAIL
  6
CONTINUOUS
 62
     5
 10
-6.9282032302758134
 20
-38.999999999999552
 30
0.0
 40
1.4999999999999849
  0
CIRCLE
  8
DETAIL
  6
CONTINUOUS
 62
     5
 10
-10.39230484541349
 20
-37.0
 30
0.0
 40
1.4999999999999849
  0
CIRCLE
  8
DETAIL
  6
CONTINUOUS
 62
     5
 10
-13.85640646055117
 20
-34.999999999999552
 30
0.0
 40
1.4999999999999849
  0
CIRCLE
  8
DETAIL
  6
CONTINUOUS
 62
     5
 10
-24.248711305964669
 20
-28.999999999999549
 30
0.0
 40
1.4999999999999849
  0
CIRCLE
  8
DETAIL
  6
CONTINUOUS
 62
     5
 10
-20.784609690826979
 20
-30.999999999999549
 30
0.0
 40
1.5000000000000571
  0
CIRCLE
  8
DETAIL
  6
CONTINUOUS
 62
     5
 10
-17.3205080756893
 20
-32.999999999999552
 30
0.0
 40
1.4999999999999849
  0
CIRCLE
  8
DETAIL
  6
CONTINUOUS
 62
     5
 10
-27.712812921102799
 20
-27.0
 30
0.0
 40
1.4999999999999849
  0
CIRCLE
  8
DETAIL
  6
CONTINUOUS
 62
     5
 10
-31.176914536240471
 20
-24.999999999999549
 30
0.0
 40
1.4999999999999849
  0
CIRCLE
  8
DETAIL
  6
CONTINUOUS
 62
     5
 10
-79.674337148169343
 20
3.0000000000004552
 30
0.0
 40
1.1999999999999751
  0
CIRCLE
  8
DETAIL
  6
CONTINUOUS
 62
     5
 10
-83.138438763307462
 20
5.0000000000004556
 30
0.0
 40
0.8999999999999624
  0
CIRCLE
  8
DETAIL
  6
CONTINUOUS
 62
     5
 10
-76.21023553303165
 20
1.0000000000009091
 30
0.0
 40
1.5000000000000571
  0
CIRCLE
  8
DETAIL
  6
CONTINUOUS
 62
     5
 10
-72.746133917893985
 20
-0.9999999999995453
 30
0.0
 40
1.4999999999999849
  0
CIRCLE
  8
DETAIL
  6
CONTINUOUS
 62
     5
 10
-69.282032302755852
 20
-2.9999999999995448
 30
0.0
 40
1.4999999999999849
  0
CIRCLE
  8
DETAIL
  6
CONTINUOUS
 62
     5
 10
-65.817930687618173
 20
-4.9999999999995444
 30
0.0
 40
1.4999999999999849
  0
CIRCLE
  8
DETAIL
  6
CONTINUOUS
 62
     5
 10
-62.353829072480487
 20
-6.9999999999995444
 30
0.0
 40
1.4999999999999849
  0
CIRCLE
  8
DETAIL
  6
CONTINUOUS
 62
     5
 10
-58.889727457342808
 20
-8.9999999999995453
 30
0.0
 40
1.5000000000000571
  0
CIRCLE
  8
DETAIL
  6
CONTINUOUS
 62
     5
 10
-55.425625842205143
 20
-10.999999999999551
 30
0.0
 40
1.4999999999999849
  0
CIRCLE
  8
DETAIL
  6
CONTINUOUS
 62
     5
 10
-51.961524227067002
 20
-12.999999999999551
 30
0.0
 40
1.4999999999999849
  0
CIRCLE
  8
DETAIL
  6
CONTINUOUS
 62
     5
 10
-48.497422611929323
 20
-14.999999999999551
 30
0.0
 40
1.4999999999999849
  0
CIRCLE
  8
DETAIL
  6
CONTINUOUS
 62
     5
 10
-45.033320996791637
 20
-16.999999999999549
 30
0.0
 40
1.4999999999999849
  0
CIRCLE
  8
DETAIL
  6
CONTINUOUS
 62
     5
 10
-41.569219381653973
 20
-18.999999999999549
 30
0.0
 40
1.4999999999999849
  0
CIRCLE
  8
DETAIL
  6
CONTINUOUS
 62
     5
 10
-38.105117766516287
 20
-20.999999999999549
 30
0.0
 40
1.5000000000000571
  0
CIRCLE
  8
DETAIL
  6
CONTINUOUS
 62
     5
 10
-34.641016151378153
 20
-22.999999999999549
 30
0.0
 40
1.4999999999999849
  0
CIRCLE
  8
DETAIL
  6
CONTINUOUS
 62
     5
 10
-3.4641016151381341
 20
-37.0
 30
0.0
 40
1.5000000000000571
  0
CIRCLE
  8
DETAIL
  6
CONTINUOUS
 62
     5
 10
-6.9282032302758134
 20
-35.0
 30
0.0
 40
1.4999999999999849
  0
CIRCLE
  8
DETAIL
  6
CONTINUOUS
 62
     5
 10
-10.39230484541349
 20
-32.999999999999552
 30
0.0
 40
1.4999999999999849
  0
CIRCLE
  8
DETAIL
  6
CONTINUOUS
 62
     5
 10
-13.85640646055117
 20
-30.999999999999549
 30
0.0
 40
1.4999999999999849
  0
CIRCLE
  8
DETAIL
  6
CONTINUOUS
 62
     5
 10
-24.248711305964669
 20
-24.999999999999549
 30
0.0
 40
1.4999999999999849
  0
CIRCLE
  8
DETAIL
  6
CONTINUOUS
 62
     5
 10
-20.784609690826979
 20
-27.0
 30
0.0
 40
1.5000000000000571
  0
CIRCLE
  8
DETAIL
  6
CONTINUOUS
 62
     5
 10
-17.3205080756893
 20
-28.999999999999549
 30
0.0
 40
1.4999999999999849
  0
CIRCLE
  8
DETAIL
  6
CONTINUOUS
 62
     5
 10
-27.712812921102799
 20
-22.999999999999549
 30
0.0
 40
1.4999999999999849
  0
CIRCLE
  8
DETAIL
  6
CONTINUOUS
 62
     5
 10
-31.176914536240471
 20
-20.999999999999549
 30
0.0
 40
1.4999999999999849
  0
CIRCLE
  8
DETAIL
  6
CONTINUOUS
 62
     5
 10
-79.674337148169343
 20
7.0000000000004556
 30
0.0
 40
1.1999999999999751
  0
CIRCLE
  8
DETAIL
  6
CONTINUOUS
 62
     5
 10
-83.138438763307462
 20
9.0000000000009095
 30
0.0
 40
0.8999999999999624
  0
CIRCLE
  8
DETAIL
  6
CONTINUOUS
 62
     5
 10
-76.21023553303165
 20
5.0000000000004556
 30
0.0
 40
1.5000000000000571
  0
CIRCLE
  8
DETAIL
  6
CONTINUOUS
 62
     5
 10
-72.746133917893985
 20
3.0000000000004552
 30
0.0
 40
1.4999999999999849
  0
CIRCLE
  8
DETAIL
  6
CONTINUOUS
 62
     5
 10
-69.282032302755852
 20
1.0000000000009091
 30
0.0
 40
1.4999999999999849
  0
CIRCLE
  8
DETAIL
  6
CONTINUOUS
 62
     5
 10
-65.817930687618173
 20
-0.9999999999995453
 30
0.0
 40
1.4999999999999849
  0
CIRCLE
  8
DETAIL
  6
CONTINUOUS
 62
     5
 10
-62.353829072480487
 20
-2.9999999999995448
 30
0.0
 40
1.4999999999999849
  0
CIRCLE
  8
DETAIL
  6
CONTINUOUS
 62
     5
 10
-58.889727457342808
 20
-4.9999999999995444
 30
0.0
 40
1.5000000000000571
  0
CIRCLE
  8
DETAIL
  6
CONTINUOUS
 62
     5
 10
-55.425625842205143
 20
-6.9999999999995444
 30
0.0
 40
1.4999999999999849
  0
CIRCLE
  8
DETAIL
  6
CONTINUOUS
 62
     5
 10
-51.961524227067002
 20
-8.9999999999995453
 30
0.0
 40
1.4999999999999849
  0
CIRCLE
  8
DETAIL
  6
CONTINUOUS
 62
     5
 10
-48.497422611929323
 20
-10.999999999999551
 30
0.0
 40
1.4999999999999849
  0
CIRCLE
  8
DETAIL
  6
CONTINUOUS
 62
     5
 10
-45.033320996791637
 20
-12.999999999999551
 30
0.0
 40
1.4999999999999849
  0
CIRCLE
  8
DETAIL
  6
CONTINUOUS
 62
     5
 10
-41.569219381653973
 20
-14.999999999999551
 30
0.0
 40
1.4999999999999849
  0
CIRCLE
  8
DETAIL
  6
CONTINUOUS
 62
     5
 10
-38.105117766516287
 20
-16.999999999999549
 30
0.0
 40
1.5000000000000571
  0
CIRCLE
  8
DETAIL
  6
CONTINUOUS
 62
     5
 10
-34.641016151378153
 20
-18.999999999999549
 30
0.0
 40
1.4999999999999849
  0
CIRCLE
  8
DETAIL
  6
CONTINUOUS
 62
     5
 10
-3.4641016151381341
 20
-32.999999999999552
 30
0.0
 40
1.5000000000000571
  0
CIRCLE
  8
DETAIL
  6
CONTINUOUS
 62
     5
 10
-6.9282032302758134
 20
-30.999999999999549
 30
0.0
 40
1.4999999999999849
  0
CIRCLE
  8
DETAIL
  6
CONTINUOUS
 62
     5
 10
-10.39230484541349
 20
-28.999999999999549
 30
0.0
 40
1.4999999999999849
  0
CIRCLE
  8
DETAIL
  6
CONTINUOUS
 62
     5
 10
-13.85640646055117
 20
-27.0
 30
0.0
 40
1.4999999999999849
  0
CIRCLE
  8
DETAIL
  6
CONTINUOUS
 62
     5
 10
-24.248711305964669
 20
-20.999999999999549
 30
0.0
 40
1.4999999999999849
  0
CIRCLE
  8
DETAIL
  6
CONTINUOUS
 62
     5
 10
-20.784609690826979
 20
-22.999999999999549
 30
0.0
 40
1.5000000000000571
  0
CIRCLE
  8
DETAIL
  6
CONTINUOUS
 62
     5
 10
-17.3205080756893
 20
-24.999999999999549
 30
0.0
 40
1.4999999999999849
  0
CIRCLE
  8
DETAIL
  6
CONTINUOUS
 62
     5
 10
-27.712812921102799
 20
-18.999999999999549
 30
0.0
 40
1.4999999999999849
  0
CIRCLE
  8
DETAIL
  6
CONTINUOUS
 62
     5
 10
-31.176914536240471
 20
-16.999999999999549
 30
0.0
 40
1.4999999999999849
  0
CIRCLE
  8
DETAIL
  6
CONTINUOUS
 62
     5
 10
-79.674337148169343
 20
11.000000000000909
 30
0.0
 40
1.1999999999999751
  0
CIRCLE
  8
DETAIL
  6
CONTINUOUS
 62
     5
 10
-76.21023553303165
 20
9.0000000000009095
 30
0.0
 40
1.5000000000000571
  0
CIRCLE
  8
DETAIL
  6
CONTINUOUS
 62
     5
 10
-72.746133917893985
 20
7.0000000000004556
 30
0.0
 40
1.4999999999999849
  0
CIRCLE
  8
DETAIL
  6
CONTINUOUS
 62
     5
 10
-69.282032302755852
 20
5.0000000000004556
 30
0.0
 40
1.4999999999999849
  0
CIRCLE
  8
DETAIL
  6
CONTINUOUS
 62
     5
 10
-65.817930687618173
 20
3.0000000000004552
 30
0.0
 40
1.4999999999999849
  0
CIRCLE
  8
DETAIL
  6
CONTINUOUS
 62
     5
 10
-62.353829072480487
 20
1.0000000000009091
 30
0.0
 40
1.4999999999999849
  0
CIRCLE
  8
DETAIL
  6
CONTINUOUS
 62
     5
 10
-58.889727457342808
 20
-0.9999999999995453
 30
0.0
 40
1.5000000000000571
  0
CIRCLE
  8
DETAIL
  6
CONTINUOUS
 62
     5
 10
-55.425625842205143
 20
-2.9999999999995448
 30
0.0
 40
1.4999999999999849
  0
CIRCLE
  8
DETAIL
  6
CONTINUOUS
 62
     5
 10
-51.961524227067002
 20
-4.9999999999995444
 30
0.0
 40
1.4999999999999849
  0
CIRCLE
  8
DETAIL
  6
CONTINUOUS
 62
     5
 10
-48.497422611929323
 20
-6.9999999999995444
 30
0.0
 40
1.4999999999999849
  0
CIRCLE
  8
DETAIL
  6
CONTINUOUS
 62
     5
 10
-45.033320996791637
 20
-8.9999999999995453
 30
0.0
 40
1.4999999999999849
  0
CIRCLE
  8
DETAIL
  6
CONTINUOUS
 62
     5
 10
-41.569219381653973
 20
-10.999999999999551
 30
0.0
 40
1.4999999999999849
  0
CIRCLE
  8
DETAIL
  6
CONTINUOUS
 62
     5
 10
-38.105117766516287
 20
-12.999999999999551
 30
0.0
 40
1.5000000000000571
  0
CIRCLE
  8
DETAIL
  6
CONTINUOUS
 62
     5
 10
-34.641016151378153
 20
-14.999999999999551
 30
0.0
 40
1.4999999999999849
  0
CIRCLE
  8
DETAIL
  6
CONTINUOUS
 62
     5
 10
-3.4641016151381341
 20
-28.999999999999549
 30
0.0
 40
1.5000000000000571
  0
CIRCLE
  8
DETAIL
  6
CONTINUOUS
 62
     5
 10
-6.9282032302758134
 20
-27.0
 30
0.0
 40
1.4999999999999849
  0
CIRCLE
  8
DETAIL
  6
CONTINUOUS
 62
     5
 10
-10.39230484541349
 20
-25.0
 30
0.0
 40
1.4999999999999849
  0
CIRCLE
  8
DETAIL
  6
CONTINUOUS
 62
     5
 10
-13.85640646055117
 20
-22.999999999999549
 30
0.0
 40
1.4999999999999849
  0
CIRCLE
  8
DETAIL
  6
CONTINUOUS
 62
     5
 10
-24.248711305964669
 20
-17.0
 30
0.0
 40
1.4999999999999849
  0
CIRCLE
  8
DETAIL
  6
CONTINUOUS
 62
     5
 10
-20.784609690826979
 20
-18.999999999999549
 30
0.0
 40
1.5000000000000571
  0
CIRCLE
  8
DETAIL
  6
CONTINUOUS
 62
     5
 10
-17.3205080756893
 20
-20.999999999999549
 30
0.0
 40
1.4999999999999849
  0
CIRCLE
  8
DETAIL
  6
CONTINUOUS
 62
     5
 10
-27.712812921102799
 20
-14.999999999999551
 30
0.0
 40
1.4999999999999849
  0
CIRCLE
  8
DETAIL
  6
CONTINUOUS
 62
     5
 10
-31.176914536240471
 20
-12.999999999999551
 30
0.0
 40
1.4999999999999849
  0
CIRCLE
  8
DETAIL
  6
CONTINUOUS
 62
     5
 10
-72.746133917893985
 20
11.000000000000909
 30
0.0
 40
1.4999999999999849
  0
CIRCLE
  8
DETAIL
  6
CONTINUOUS
 62
     5
 10
-69.282032302755852
 20
9.0000000000004547
 30
0.0
 40
1.4999999999999849
  0
CIRCLE
  8
DETAIL
  6
CONTINUOUS
 62
     5
 10
-65.817930687618173
 20
7.0000000000004556
 30
0.0
 40
1.4999999999999849
  0
CIRCLE
  8
DETAIL
  6
CONTINUOUS
 62
     5
 10
-62.353829072480487
 20
5.0000000000004556
 30
0.0
 40
1.4999999999999849
  0
CIRCLE
  8
DETAIL
  6
CONTINUOUS
 62
     5
 10
-58.889727457342808
 20
3.0000000000004552
 30
0.0
 40
1.5000000000000571
  0
CIRCLE
  8
DETAIL
  6
CONTINUOUS
 62
     5
 10
-55.425625842205143
 20
1.000000000000455
 30
0.0
 40
1.4999999999999849
  0
CIRCLE
  8
DETAIL
  6
CONTINUOUS
 62
     5
 10
-51.961524227067002
 20
-0.9999999999995453
 30
0.0
 40
1.4999999999999849
  0
CIRCLE
  8
DETAIL
  6
CONTINUOUS
 62
     5
 10
-48.497422611929323
 20
-2.9999999999995448
 30
0.0
 40
1.4999999999999849
  0
CIRCLE
  8
DETAIL
  6
CONTINUOUS
 62
     5
 10
-45.033320996791637
 20
-4.9999999999995444
 30
0.0
 40
1.4999999999999849
  0
CIRCLE
  8
DETAIL
  6
CONTINUOUS
 62
     5
 10
-41.569219381653973
 20
-6.9999999999995444
 30
0.0
 40
1.4999999999999849
  0
CIRCLE
  8
DETAIL
  6
CONTINUOUS
 62
     5
 10
-38.105117766516287
 20
-8.9999999999995453
 30
0.0
 40
1.5000000000000571
  0
CIRCLE
  8
DETAIL
  6
CONTINUOUS
 62
     5
 10
-34.641016151378153
 20
-10.999999999999551
 30
0.0
 40
1.4999999999999849
  0
CIRCLE
  8
DETAIL
  6
CONTINUOUS
 62
     5
 10
-3.4641016151381341
 20
-25.0
 30
0.0
 40
1.5000000000000571
  0
CIRCLE
  8
DETAIL
  6
CONTINUOUS
 62
     5
 10
-6.9282032302758134
 20
-22.999999999999549
 30
0.0
 40
1.4999999999999849
  0
CIRCLE
  8
DETAIL
  6
CONTINUOUS
 62
     5
 10
-10.39230484541349
 20
-20.999999999999549
 30
0.0
 40
1.4999999999999849
  0
CIRCLE
  8
DETAIL
  6
CONTINUOUS
 62
     5
 10
-13.85640646055117
 20
-18.999999999999549
 30
0.0
 40
1.4999999999999849
  0
CIRCLE
  8
DETAIL
  6
CONTINUOUS
 62
     5
 10
-24.248711305964669
 20
-12.999999999999551
 30
0.0
 40
1.4999999999999849
  0
CIRCLE
  8
DETAIL
  6
CONTINUOUS
 62
     5
 10
-20.784609690826979
 20
-14.999999999999551
 30
0.0
 40
1.5000000000000571
  0
CIRCLE
  8
DETAIL
  6
CONTINUOUS
 62
     5
 10
-17.3205080756893
 20
-17.0
 30
0.0
 40
1.4999999999999849
  0
CIRCLE
  8
DETAIL
  6
CONTINUOUS
 62
     5
 10
-27.712812921102799
 20
-10.999999999999551
 30
0.0
 40
1.4999999999999849
  0
CIRCLE
  8
DETAIL
  6
CONTINUOUS
 62
     5
 10
-31.176914536240471
 20
-8.9999999999995453
 30
0.0
 40
1.4999999999999849
  0
CIRCLE
  8
DETAIL
  6
CONTINUOUS
 62
     5
 10
-65.817930687618173
 20
11.000000000000909
 30
0.0
 40
1.4999999999999849
  0
CIRCLE
  8
DETAIL
  6
CONTINUOUS
 62
     5
 10
-62.353829072480487
 20
9.0000000000004547
 30
0.0
 40
1.4999999999999849
  0
CIRCLE
  8
DETAIL
  6
CONTINUOUS
 62
     5
 10
-58.889727457342808
 20
7.0000000000004556
 30
0.0
 40
1.5000000000000571
  0
CIRCLE
  8
DETAIL
  6
CONTINUOUS
 62
     5
 10
-55.425625842205143
 20
5.0000000000004556
 30
0.0
 40
1.4999999999999849
  0
CIRCLE
  8
DETAIL
  6
CONTINUOUS
 62
     5
 10
-51.961524227067002
 20
3.0000000000004552
 30
0.0
 40
1.4999999999999849
  0
CIRCLE
  8
DETAIL
  6
CONTINUOUS
 62
     5
 10
-48.497422611929323
 20
1.000000000000455
 30
0.0
 40
1.4999999999999849
  0
CIRCLE
  8
DETAIL
  6
CONTINUOUS
 62
     5
 10
-45.033320996791637
 20
-0.9999999999995453
 30
0.0
 40
1.4999999999999849
  0
CIRCLE
  8
DETAIL
  6
CONTINUOUS
 62
     5
 10
-41.569219381653973
 20
-2.9999999999995448
 30
0.0
 40
1.4999999999999849
  0
CIRCLE
  8
DETAIL
  6
CONTINUOUS
 62
     5
 10
-38.105117766516287
 20
-4.9999999999995444
 30
0.0
 40
1.5000000000000571
  0
CIRCLE
  8
DETAIL
  6
CONTINUOUS
 62
     5
 10
-34.641016151378153
 20
-6.9999999999995444
 30
0.0
 40
1.4999999999999849
  0
CIRCLE
  8
DETAIL
  6
CONTINUOUS
 62
     5
 10
-3.4641016151381341
 20
-20.999999999999549
 30
0.0
 40
1.5000000000000571
  0
CIRCLE
  8
DETAIL
  6
CONTINUOUS
 62
     5
 10
-6.9282032302758134
 20
-18.999999999999549
 30
0.0
 40
1.4999999999999849
  0
CIRCLE
  8
DETAIL
  6
CONTINUOUS
 62
     5
 10
-10.39230484541349
 20
-17.0
 30
0.0
 40
1.4999999999999849
  0
CIRCLE
  8
DETAIL
  6
CONTINUOUS
 62
     5
 10
-13.85640646055117
 20
-15.0
 30
0.0
 40
1.4999999999999849
  0
CIRCLE
  8
DETAIL
  6
CONTINUOUS
 62
     5
 10
-24.248711305964669
 20
-8.9999999999995453
 30
0.0
 40
1.4999999999999849
  0
CIRCLE
  8
DETAIL
  6
CONTINUOUS
 62
     5
 10
-20.784609690826979
 20
-10.999999999999551
 30
0.0
 40
1.5000000000000571
  0
CIRCLE
  8
DETAIL
  6
CONTINUOUS
 62
     5
 10
-17.3205080756893
 20
-12.999999999999551
 30
0.0
 40
1.4999999999999849
  0
CIRCLE
  8
DETAIL
  6
CONTINUOUS
 62
     5
 10
-27.712812921102799
 20
-7.0
 30
0.0
 40
1.4999999999999849
  0
CIRCLE
  8
DETAIL
  6
CONTINUOUS
 62
     5
 10
-31.176914536240471
 20
-4.9999999999995444
 30
0.0
 40
1.4999999999999849
  0
CIRCLE
  8
DETAIL
  6
CONTINUOUS
 62
     5
 10
-58.889727457342808
 20
11.000000000000449
 30
0.0
 40
1.5000000000000571
  0
CIRCLE
  8
DETAIL
  6
CONTINUOUS
 62
     5
 10
-55.425625842205143
 20
9.0000000000004547
 30
0.0
 40
1.4999999999999849
  0
CIRCLE
  8
DETAIL
  6
CONTINUOUS
 62
     5
 10
-51.961524227067002
 20
7.0000000000004556
 30
0.0
 40
1.4999999999999849
  0
CIRCLE
  8
DETAIL
  6
CONTINUOUS
 62
     5
 10
-48.497422611929323
 20
5.0000000000004556
 30
0.0
 40
1.4999999999999849
  0
CIRCLE
  8
DETAIL
  6
CONTINUOUS
 62
     5
 10
-45.033320996791637
 20
3.0000000000004552
 30
0.0
 40
1.4999999999999849
  0
CIRCLE
  8
DETAIL
  6
CONTINUOUS
 62
     5
 10
-41.569219381653973
 20
1.000000000000455
 30
0.0
 40
1.4999999999999849
  0
CIRCLE
  8
DETAIL
  6
CONTINUOUS
 62
     5
 10
-38.105117766516287
 20
-0.9999999999995453
 30
0.0
 40
1.5000000000000571
  0
CIRCLE
  8
DETAIL
  6
CONTINUOUS
 62
     5
 10
-34.641016151378153
 20
-2.9999999999995448
 30
0.0
 40
1.4999999999999849
  0
CIRCLE
  8
DETAIL
  6
CONTINUOUS
 62
     5
 10
-3.4641016151381341
 20
-17.0
 30
0.0
 40
1.5000000000000571
  0
CIRCLE
  8
DETAIL
  6
CONTINUOUS
 62
     5
 10
-6.9282032302758134
 20
-15.0
 30
0.0
 40
1.4999999999999849
  0
CIRCLE
  8
DETAIL
  6
CONTINUOUS
 62
     5
 10
-10.39230484541349
 20
-12.999999999999551
 30
0.0
 40
1.4999999999999849
  0
CIRCLE
  8
DETAIL
  6
CONTINUOUS
 62
     5
 10
-13.85640646055117
 20
-10.999999999999551
 30
0.0
 40
1.4999999999999849
  0
CIRCLE
  8
DETAIL
  6
CONTINUOUS
 62
     5
 10
-24.248711305964669
 20
-4.9999999999995444
 30
0.0
 40
1.4999999999999849
  0
CIRCLE
  8
DETAIL
  6
CONTINUOUS
 62
     5
 10
-20.784609690826979
 20
-7.0
 30
0.0
 40
1.5000000000000571
  0
CIRCLE
  8
DETAIL
  6
CONTINUOUS
 62
     5
 10
-17.3205080756893
 20
-8.9999999999995453
 30
0.0
 40
1.4999999999999849
  0
CIRCLE
  8
DETAIL
  6
CONTINUOUS
 62
     5
 10
-27.712812921102799
 20
-2.9999999999995448
 30
0.0
 40
1.4999999999999849
  0
CIRCLE
  8
DETAIL
  6
CONTINUOUS
 62
     5
 10
-31.176914536240471
 20
-0.9999999999995453
 30
0.0
 40
1.4999999999999849
  0
CIRCLE
  8
DETAIL
  6
CONTINUOUS
 62
     5
 10
-51.961524227067002
 20
11.000000000000449
 30
0.0
 40
1.4999999999999849
  0
CIRCLE
  8
DETAIL
  6
CONTINUOUS
 62
     5
 10
-48.497422611929323
 20
9.0000000000004547
 30
0.0
 40
1.4999999999999849
  0
CIRCLE
  8
DETAIL
  6
CONTINUOUS
 62
     5
 10
-45.033320996791637
 20
7.0000000000004556
 30
0.0
 40
1.4999999999999849
  0
CIRCLE
  8
DETAIL
  6
CONTINUOUS
 62
     5
 10
-41.569219381653973
 20
5.0000000000004556
 30
0.0
 40
1.4999999999999849
  0
CIRCLE
  8
DETAIL
  6
CONTINUOUS
 62
     5
 10
-38.105117766516287
 20
3.0000000000004552
 30
0.0
 40
1.5000000000000571
  0
CIRCLE
  8
DETAIL
  6
CONTINUOUS
 62
     5
 10
-34.641016151378153
 20
1.000000000000455
 30
0.0
 40
1.4999999999999849
  0
CIRCLE
  8
DETAIL
  6
CONTINUOUS
 62
     5
 10
-3.4641016151381341
 20
-12.999999999999551
 30
0.0
 40
1.5000000000000571
  0
CIRCLE
  8
DETAIL
  6
CONTINUOUS
 62
     5
 10
-6.9282032302758134
 20
-10.999999999999551
 30
0.0
 40
1.4999999999999849
  0
CIRCLE
  8
DETAIL
  6
CONTINUOUS
 62
     5
 10
-10.39230484541349
 20
-8.9999999999995453
 30
0.0
 40
1.4999999999999849
  0
CIRCLE
  8
DETAIL
  6
CONTINUOUS
 62
     5
 10
-13.85640646055117
 20
-7.0
 30
0.0
 40
1.4999999999999849
  0
CIRCLE
  8
DETAIL
  6
CONTINUOUS
 62
     5
 10
-24.248711305964669
 20
-0.9999999999995453
 30
0.0
 40
1.4999999999999849
  0
CIRCLE
  8
DETAIL
  6
CONTINUOUS
 62
     5
 10
-20.784609690826979
 20
-2.9999999999995448
 30
0.0
 40
1.5000000000000571
  0
CIRCLE
  8
DETAIL
  6
CONTINUOUS
 62
     5
 10
-17.3205080756893
 20
-4.9999999999995444
 30
0.0
 40
1.4999999999999849
  0
CIRCLE
  8
DETAIL
  6
CONTINUOUS
 62
     5
 10
-27.712812921102799
 20
1.000000000000455
 30
0.0
 40
1.4999999999999849
  0
CIRCLE
  8
DETAIL
  6
CONTINUOUS
 62
     5
 10
-31.176914536240471
 20
3.0000000000004552
 30
0.0
 40
1.4999999999999849
  0
CIRCLE
  8
DETAIL
  6
CONTINUOUS
 62
     5
 10
-45.033320996791637
 20
11.000000000000449
 30
0.0
 40
1.4999999999999849
  0
CIRCLE
  8
DETAIL
  6
CONTINUOUS
 62
     5
 10
-41.569219381653973
 20
9.0000000000004547
 30
0.0
 40
1.4999999999999849
  0
CIRCLE
  8
DETAIL
  6
CONTINUOUS
 62
     5
 10
-38.105117766516287
 20
7.0000000000004556
 30
0.0
 40
1.5000000000000571
  0
CIRCLE
  8
DETAIL
  6
CONTINUOUS
 62
     5
 10
-34.641016151378153
 20
5.0000000000004556
 30
0.0
 40
1.4999999999999849
  0
CIRCLE
  8
DETAIL
  6
CONTINUOUS
 62
     5
 10
-3.4641016151381341
 20
-8.9999999999995453
 30
0.0
 40
1.5000000000000571
  0
CIRCLE
  8
DETAIL
  6
CONTINUOUS
 62
     5
 10
-6.9282032302758134
 20
-7.0
 30
0.0
 40
1.4999999999999849
  0
CIRCLE
  8
DETAIL
  6
CONTINUOUS
 62
     5
 10
-10.39230484541349
 20
-5.0
 30
0.0
 40
1.4999999999999849
  0
CIRCLE
  8
DETAIL
  6
CONTINUOUS
 62
     5
 10
-13.85640646055117
 20
-2.9999999999995448
 30
0.0
 40
1.4999999999999849
  0
CIRCLE
  8
DETAIL
  6
CONTINUOUS
 62
     5
 10
-24.248711305964669
 20
3.0
 30
0.0
 40
1.4999999999999849
  0
CIRCLE
  8
DETAIL
  6
CONTINUOUS
 62
     5
 10
-20.784609690826979
 20
1.000000000000455
 30
0.0
 40
1.5000000000000571
  0
CIRCLE
  8
DETAIL
  6
CONTINUOUS
 62
     5
 10
-17.3205080756893
 20
-0.9999999999995453
 30
0.0
 40
1.4999999999999849
  0
CIRCLE
  8
DETAIL
  6
CONTINUOUS
 62
     5
 10
-27.712812921102799
 20
5.0000000000004556
 30
0.0
 40
1.4999999999999849
  0
CIRCLE
  8
DETAIL
  6
CONTINUOUS
 62
     5
 10
-31.176914536240471
 20
7.0000000000004556
 30
0.0
 40
1.4999999999999849
  0
CIRCLE
  8
DETAIL
  6
CONTINUOUS
 62
     5
 10
-38.105117766516287
 20
11.000000000000449
 30
0.0
 40
1.5000000000000571
  0
CIRCLE
  8
DETAIL
  6
CONTINUOUS
 62
     5
 10
-34.641016151378153
 20
9.0000000000004547
 30
0.0
 40
1.4999999999999849
  0
CIRCLE
  8
DETAIL
  6
CONTINUOUS
 62
     5
 10
-3.4641016151381341
 20
-5.0
 30
0.0
 40
1.5000000000000571
  0
CIRCLE
  8
DETAIL
  6
CONTINUOUS
 62
     5
 10
-6.9282032302758134
 20
-2.9999999999995448
 30
0.0
 40
1.4999999999999849
  0
CIRCLE
  8
DETAIL
  6
CONTINUOUS
 62
     5
 10
-10.39230484541349
 20
-0.9999999999995453
 30
0.0
 40
1.4999999999999849
  0
CIRCLE
  8
DETAIL
  6
CONTINUOUS
 62
     5
 10
-13.85640646055117
 20
1.000000000000455
 30
0.0
 40
1.4999999999999849
  0
CIRCLE
  8
DETAIL
  6
CONTINUOUS
 62
     5
 10
-24.248711305964669
 20
7.0000000000004556
 30
0.0
 40
1.4999999999999849
  0
CIRCLE
  8
DETAIL
  6
CONTINUOUS
 62
     5
 10
-20.784609690826979
 20
5.0000000000004556
 30
0.0
 40
1.5000000000000571
  0
CIRCLE
  8
DETAIL
  6
CONTINUOUS
 62
     5
 10
-17.3205080756893
 20
3.0
 30
0.0
 40
1.4999999999999849
  0
CIRCLE
  8
DETAIL
  6
CONTINUOUS
 62
     5
 10
-27.712812921102799
 20
9.0000000000004547
 30
0.0
 40
1.4999999999999849
  0
CIRCLE
  8
DETAIL
  6
CONTINUOUS
 62
     5
 10
-31.176914536240471
 20
11.000000000000449
 30
0.0
 40
1.4999999999999849
  0
CIRCLE
  8
DETAIL
  6
CONTINUOUS
 62
     5
 10
-3.4641016151381341
 20
-0.9999999999995453
 30
0.0
 40
1.5000000000000571
  0
CIRCLE
  8
DETAIL
  6
CONTINUOUS
 62
     5
 10
-6.9282032302758134
 20
1.000000000000455
 30
0.0
 40
1.4999999999999849
  0
CIRCLE
  8
DETAIL
  6
CONTINUOUS
 62
     5
 10
-10.39230484541349
 20
3.0
 30
0.0
 40
1.4999999999999849
  0
CIRCLE
  8
DETAIL
  6
CONTINUOUS
 62
     5
 10
-13.85640646055117
 20
5.0
 30
0.0
 40
1.4999999999999849
  0
CIRCLE
  8
DETAIL
  6
CONTINUOUS
 62
     5
 10
-24.248711305964669
 20
11.000000000000449
 30
0.0
 40
1.4999999999999849
  0
CIRCLE
  8
DETAIL
  6
CONTINUOUS
 62
     5
 10
-20.784609690826979
 20
9.0000000000004547
 30
0.0
 40
1.5000000000000571
  0
CIRCLE
  8
DETAIL
  6
CONTINUOUS
 62
     5
 10
-17.3205080756893
 20
7.0000000000004556
 30
0.0
 40
1.4999999999999849
  0
CIRCLE
  8
DETAIL
  6
CONTINUOUS
 62
     5
 10
-3.4641016151381341
 20
3.0
 30
0.0
 40
1.5000000000000571
  0
CIRCLE
  8
DETAIL
  6
CONTINUOUS
 62
     5
 10
-6.9282032302758134
 20
5.0
 30
0.0
 40
1.4999999999999849
  0
CIRCLE
  8
DETAIL
  6
CONTINUOUS
 62
     5
 10
-10.39230484541349
 20
7.0000000000004556
 30
0.0
 40
1.4999999999999849
  0
CIRCLE
  8
DETAIL
  6
CONTINUOUS
 62
     5
 10
-13.85640646055117
 20
9.0000000000004547
 30
0.0
 40
1.4999999999999849
  0
CIRCLE
  8
DETAIL
  6
CONTINUOUS
 62
     5
 10
-17.3205080756893
 20
11.000000000000449
 30
0.0
 40
1.4999999999999849
  0
CIRCLE
  8
DETAIL
  6
CONTINUOUS
 62
     5
 10
-3.4641016151381341
 20
7.0000000000004556
 30
0.0
 40
1.5000000000000571
  0
CIRCLE
  8
DETAIL
  6
CONTINUOUS
 62
     5
 10
-6.9282032302758134
 20
9.0000000000004547
 30
0.0
 40
1.4999999999999849
  0
CIRCLE
  8
DETAIL
  6
CONTINUOUS
 62
     5
 10
-10.39230484541349
 20
11.000000000000449
 30
0.0
 40
1.4999999999999849
  0
CIRCLE
  8
DETAIL
  6
CONTINUOUS
 62
     5
 10
-3.4641016151381341
 20
11.000000000000449
 30
0.0
 40
1.5000000000000571
  0
CIRCLE
  8
DETAIL
  6
CONTINUOUS
 62
     5
 10
72.74613391789353
 20
-52.999999999999552
 30
0.0
 40
1.1999999999999751
  0
CIRCLE
  8
DETAIL
  6
CONTINUOUS
 62
     5
 10
65.817930687617718
 20
-52.999999999999552
 30
0.0
 40
1.1999999999999751
  0
CIRCLE
  8
DETAIL
  6
CONTINUOUS
 62
     5
 10
58.88972745734236
 20
-52.999999999999552
 30
0.0
 40
1.1999999999999751
  0
CIRCLE
  8
DETAIL
  6
CONTINUOUS
 62
     5
 10
51.961524227067002
 20
-52.999999999999552
 30
0.0
 40
1.1999999999999751
  0
CIRCLE
  8
DETAIL
  6
CONTINUOUS
 62
     5
 10
45.03332099679119
 20
-52.999999999999552
 30
0.0
 40
1.1999999999999751
  0
CIRCLE
  8
DETAIL
  6
CONTINUOUS
 62
     5
 10
38.105117766515377
 20
-52.999999999999552
 30
0.0
 40
1.2000000000000099
  0
CIRCLE
  8
DETAIL
  6
CONTINUOUS
 62
     5
 10
31.176914536240471
 20
-52.999999999999552
 30
0.0
 40
1.2000000000000099
  0
CIRCLE
  8
DETAIL
  6
CONTINUOUS
 62
     5
 10
24.248711305964669
 20
-52.999999999999552
 30
0.0
 40
1.2000000000000099
  0
CIRCLE
  8
DETAIL
  6
CONTINUOUS
 62
     5
 10
17.3205080756893
 20
-52.999999999999552
 30
0.0
 40
1.2000000000000099
  0
CIRCLE
  8
DETAIL
  6
CONTINUOUS
 62
     5
 10
10.39230484541349
 20
-52.999999999999552
 30
0.0
 40
1.1999999999999751
  0
CIRCLE
  8
DETAIL
  6
CONTINUOUS
 62
     5
 10
3.4641016151381341
 20
-52.999999999999552
 30
0.0
 40
1.1999999999999751
  0
CIRCLE
  8
DETAIL
  6
CONTINUOUS
 62
     5
 10
20.784609690826979
 20
-55.0
 30
0.0
 40
1.1999999999999751
  0
CIRCLE
  8
DETAIL
  6
CONTINUOUS
 62
     5
 10
6.9282032302758134
 20
-55.0
 30
0.0
 40
1.1999999999999751
  0
CIRCLE
  8
DETAIL
  6
CONTINUOUS
 62
     5
 10
13.85640646055117
 20
-55.0
 30
0.0
 40
1.1999999999999751
  0
CIRCLE
  8
DETAIL
  6
CONTINUOUS
 62
     5
 10
27.712812921102341
 20
-54.999999999999552
 30
0.0
 40
1.1999999999999751
  0
CIRCLE
  8
DETAIL
  6
CONTINUOUS
 62
     5
 10
34.641016151378153
 20
-54.999999999999552
 30
0.0
 40
1.1999999999999751
  0
CIRCLE
  8
DETAIL
  6
CONTINUOUS
 62
     5
 10
41.569219381653511
 20
-54.999999999999552
 30
0.0
 40
1.1999999999999751
  0
CIRCLE
  8
DETAIL
  6
CONTINUOUS
 62
     5
 10
48.497422611928862
 20
-54.999999999999552
 30
0.0
 40
1.2000000000000099
  0
CIRCLE
  8
DETAIL
  6
CONTINUOUS
 62
     5
 10
55.425625842204667
 20
-54.999999999999552
 30
0.0
 40
1.2000000000000099
  0
CIRCLE
  8
DETAIL
  6
CONTINUOUS
 62
     5
 10
62.353829072480487
 20
-54.999999999999552
 30
0.0
 40
1.2000000000000099
  0
CIRCLE
  8
DETAIL
  6
CONTINUOUS
 62
     5
 10
69.282032302755852
 20
-54.999999999999552
 30
0.0
 40
1.2000000000000099
  0
CIRCLE
  8
DETAIL
  6
CONTINUOUS
 62
     5
 10
76.210235533031209
 20
-54.999999999999552
 30
0.0
 40
1.1999999999999751
  0
CIRCLE
  8
DETAIL
  6
CONTINUOUS
 62
     5
 10
31.176914536243199
 20
-56.999999999999552
 30
0.0
 40
0.8999999999999624
  0
CIRCLE
  8
DETAIL
  6
CONTINUOUS
 62
     5
 10
38.105117766519022
 20
-56.999999999999552
 30
0.0
 40
0.8999999999999624
  0
CIRCLE
  8
DETAIL
  6
CONTINUOUS
 62
     5
 10
45.033320996794373
 20
-56.999999999999552
 30
0.0
 40
0.8999999999999974
  0
CIRCLE
  8
DETAIL
  6
CONTINUOUS
 62
     5
 10
51.961524227070193
 20
-56.999999999999552
 30
0.0
 40
0.8999999999999974
  0
CIRCLE
  8
DETAIL
  6
CONTINUOUS
 62
     5
 10
58.889727457345543
 20
-56.999999999999552
 30
0.0
 40
0.8999999999999624
  0
CIRCLE
  8
DETAIL
  6
CONTINUOUS
 62
     5
 10
65.817930687621356
 20
-56.999999999998643
 30
0.0
 40
0.8999999999999624
  0
CIRCLE
  8
DETAIL
  6
CONTINUOUS
 62
     5
 10
72.746133917896699
 20
-56.999999999998643
 30
0.0
 40
0.8999999999999624
  0
CIRCLE
  8
DETAIL
  6
CONTINUOUS
 62
     5
 10
24.248711305967841
 20
-56.999999999999552
 30
0.0
 40
0.8999999999999624
  0
CIRCLE
  8
DETAIL
  6
CONTINUOUS
 62
     5
 10
17.320508075692029
 20
-56.999999999999552
 30
0.0
 40
0.8999999999999974
  0
CIRCLE
  8
DETAIL
  6
CONTINUOUS
 62
     5
 10
10.392304845416669
 20
-56.999999999999552
 30
0.0
 40
0.8999999999999624
  0
CIRCLE
  8
DETAIL
  6
CONTINUOUS
 62
     5
 10
3.4641016151408621
 20
-56.999999999999552
 30
0.0
 40
0.8999999999999624
  0
CIRCLE
  8
DETAIL
  6
CONTINUOUS
 62
     5
 10
79.674337148172512
 20
-56.999999999998643
 30
0.0
 40
0.8999999999999974
  0
CIRCLE
  8
DETAIL
  6
CONTINUOUS
 62
     5
 10
34.641016151377698
 20
-58.999999999999552
 30
0.0
 40
0.8999999999999974
  0
CIRCLE
  8
DETAIL
  6
CONTINUOUS
 62
     5
 10
41.569219381653511
 20
-58.999999999999552
 30
0.0
 40
0.8999999999999624
  0
CIRCLE
  8
DETAIL
  6
CONTINUOUS
 62
     5
 10
48.497422611928862
 20
-58.999999999999552
 30
0.0
 40
0.8999999999999624
  0
CIRCLE
  8
DETAIL
  6
CONTINUOUS
 62
     5
 10
55.425625842204667
 20
-58.999999999999552
 30
0.0
 40
0.8999999999999624
  0
CIRCLE
  8
DETAIL
  6
CONTINUOUS
 62
     5
 10
62.353829072480039
 20
-58.999999999999091
 30
0.0
 40
0.8999999999999974
  0
CIRCLE
  8
DETAIL
  6
CONTINUOUS
 62
     5
 10
69.282032302755852
 20
-58.999999999999091
 30
0.0
 40
0.8999999999999974
  0
CIRCLE
  8
DETAIL
  6
CONTINUOUS
 62
     5
 10
76.210235533031209
 20
-58.999999999999091
 30
0.0
 40
0.8999999999999624
  0
CIRCLE
  8
DETAIL
  6
CONTINUOUS
 62
     5
 10
27.712812921101889
 20
-58.999999999999552
 30
0.0
 40
0.8999999999999974
  0
CIRCLE
  8
DETAIL
  6
CONTINUOUS
 62
     5
 10
20.784609690826532
 20
-58.999999999999552
 30
0.0
 40
0.8999999999999624
  0
CIRCLE
  8
DETAIL
  6
CONTINUOUS
 62
     5
 10
13.856406460550719
 20
-58.999999999999552
 30
0.0
 40
0.9000000000000351
  0
CIRCLE
  8
DETAIL
  6
CONTINUOUS
 62
     5
 10
6.9282032302753578
 20
-58.999999999999552
 30
0.0
 40
0.8999999999999624
  0
CIRCLE
  8
DETAIL
  6
CONTINUOUS
 62
     5
 10
83.138438763306567
 20
-58.999999999999091
 30
0.0
 40
0.8999999999999974
  0
CIRCLE
  8
DETAIL
  6
CONTINUOUS
 62
     5
 10
83.138438763306567
 20
-54.999999999999552
 30
0.0
 40
0.8999999999999974
  0
CIRCLE
  8
DETAIL
  6
CONTINUOUS
 62
     5
 10
79.674337148168902
 20
-52.999999999999552
 30
0.0
 40
1.2000000000000099
  0
CIRCLE
  8
DETAIL
  6
CONTINUOUS
 62
     5
 10
83.138438763306567
 20
-50.999999999999091
 30
0.0
 40
0.8999999999999974
  0
CIRCLE
  8
DETAIL
  6
CONTINUOUS
 62
     5
 10
79.674337148168902
 20
-48.999999999999091
 30
0.0
 40
1.2000000000000099
  0
CIRCLE
  8
DETAIL
  6
CONTINUOUS
 62
     5
 10
83.138438763306567
 20
-46.999999999999552
 30
0.0
 40
0.8999999999999974
  0
CIRCLE
  8
DETAIL
  6
CONTINUOUS
 62
     5
 10
76.210235533031209
 20
-50.999999999999091
 30
0.0
 40
1.4999999999999849
  0
CIRCLE
  8
DETAIL
  6
CONTINUOUS
 62
     5
 10
79.674337148168902
 20
-44.999999999999552
 30
0.0
 40
1.2000000000000099
  0
CIRCLE
  8
DETAIL
  6
CONTINUOUS
 62
     5
 10
83.138438763306567
 20
-42.999999999999552
 30
0.0
 40
0.8999999999999974
  0
CIRCLE
  8
DETAIL
  6
CONTINUOUS
 62
     5
 10
76.210235533031209
 20
-46.999999999999552
 30
0.0
 40
1.4999999999999849
  0
CIRCLE
  8
DETAIL
  6
CONTINUOUS
 62
     5
 10
72.74613391789353
 20
-48.999999999999091
 30
0.0
 40
1.4999999999999849
  0
CIRCLE
  8
DETAIL
  6
CONTINUOUS
 62
     5
 10
69.282032302755852
 20
-50.999999999999552
 30
0.0
 40
1.500000000000022
  0
CIRCLE
  8
DETAIL
  6
CONTINUOUS
 62
     5
 10
79.674337148168902
 20
-40.999999999999091
 30
0.0
 40
1.2000000000000099
  0
CIRCLE
  8
DETAIL
  6
CONTINUOUS
 62
     5
 10
83.138438763306567
 20
-38.999999999999091
 30
0.0
 40
0.8999999999999974
  0
CIRCLE
  8
DETAIL
  6
CONTINUOUS
 62
     5
 10
76.210235533031209
 20
-42.999999999999552
 30
0.0
 40
1.4999999999999849
  0
CIRCLE
  8
DETAIL
  6
CONTINUOUS
 62
     5
 10
72.74613391789353
 20
-44.999999999999552
 30
0.0
 40
1.4999999999999849
  0
CIRCLE
  8
DETAIL
  6
CONTINUOUS
 62
     5
 10
69.282032302755852
 20
-46.999999999999552
 30
0.0
 40
1.500000000000022
  0
CIRCLE
  8
DETAIL
  6
CONTINUOUS
 62
     5
 10
65.817930687617718
 20
-48.999999999999091
 30
0.0
 40
1.4999999999999849
  0
CIRCLE
  8
DETAIL
  6
CONTINUOUS
 62
     5
 10
62.353829072480039
 20
-50.999999999999552
 30
0.0
 40
1.500000000000022
  0
CIRCLE
  8
DETAIL
  6
CONTINUOUS
 62
     5
 10
79.674337148168902
 20
-36.999999999999552
 30
0.0
 40
1.2000000000000099
  0
CIRCLE
  8
DETAIL
  6
CONTINUOUS
 62
     5
 10
83.138438763306567
 20
-34.999999999999552
 30
0.0
 40
0.8999999999999974
  0
CIRCLE
  8
DETAIL
  6
CONTINUOUS
 62
     5
 10
76.210235533031209
 20
-38.999999999999091
 30
0.0
 40
1.4999999999999849
  0
CIRCLE
  8
DETAIL
  6
CONTINUOUS
 62
     5
 10
72.74613391789353
 20
-40.999999999999552
 30
0.0
 40
1.4999999999999849
  0
CIRCLE
  8
DETAIL
  6
CONTINUOUS
 62
     5
 10
69.282032302755852
 20
-42.999999999999552
 30
0.0
 40
1.500000000000022
  0
CIRCLE
  8
DETAIL
  6
CONTINUOUS
 62
     5
 10
65.817930687617718
 20
-44.999999999999552
 30
0.0
 40
1.4999999999999849
  0
CIRCLE
  8
DETAIL
  6
CONTINUOUS
 62
     5
 10
62.353829072480039
 20
-46.999999999999552
 30
0.0
 40
1.500000000000022
  0
CIRCLE
  8
DETAIL
  6
CONTINUOUS
 62
     5
 10
58.88972745734236
 20
-48.999999999999091
 30
0.0
 40
1.4999999999999849
  0
CIRCLE
  8
DETAIL
  6
CONTINUOUS
 62
     5
 10
55.425625842204667
 20
-50.999999999999552
 30
0.0
 40
1.4999999999999849
  0
CIRCLE
  8
DETAIL
  6
CONTINUOUS
 62
     5
 10
79.674337148168902
 20
-32.999999999999552
 30
0.0
 40
1.2000000000000099
  0
CIRCLE
  8
DETAIL
  6
CONTINUOUS
 62
     5
 10
83.138438763306567
 20
-30.999999999999091
 30
0.0
 40
0.8999999999999974
  0
CIRCLE
  8
DETAIL
  6
CONTINUOUS
 62
     5
 10
76.210235533031209
 20
-34.999999999999552
 30
0.0
 40
1.4999999999999849
  0
CIRCLE
  8
DETAIL
  6
CONTINUOUS
 62
     5
 10
72.74613391789353
 20
-36.999999999999552
 30
0.0
 40
1.4999999999999849
  0
CIRCLE
  8
DETAIL
  6
CONTINUOUS
 62
     5
 10
69.282032302755852
 20
-38.999999999999091
 30
0.0
 40
1.500000000000022
  0
CIRCLE
  8
DETAIL
  6
CONTINUOUS
 62
     5
 10
65.817930687617718
 20
-40.999999999999552
 30
0.0
 40
1.4999999999999849
  0
CIRCLE
  8
DETAIL
  6
CONTINUOUS
 62
     5
 10
62.353829072480039
 20
-42.999999999999552
 30
0.0
 40
1.500000000000022
  0
CIRCLE
  8
DETAIL
  6
CONTINUOUS
 62
     5
 10
58.88972745734236
 20
-44.999999999999552
 30
0.0
 40
1.4999999999999849
  0
CIRCLE
  8
DETAIL
  6
CONTINUOUS
 62
     5
 10
55.425625842204667
 20
-46.999999999999552
 30
0.0
 40
1.4999999999999849
  0
CIRCLE
  8
DETAIL
  6
CONTINUOUS
 62
     5
 10
51.961524227067002
 20
-48.999999999999552
 30
0.0
 40
1.500000000000022
  0
CIRCLE
  8
DETAIL
  6
CONTINUOUS
 62
     5
 10
48.497422611928862
 20
-50.999999999999552
 30
0.0
 40
1.4999999999999849
  0
CIRCLE
  8
DETAIL
  6
CONTINUOUS
 62
     5
 10
79.674337148168902
 20
-28.999999999999091
 30
0.0
 40
1.2000000000000099
  0
CIRCLE
  8
DETAIL
  6
CONTINUOUS
 62
     5
 10
83.138438763306567
 20
-26.999999999999549
 30
0.0
 40
0.8999999999999974
  0
CIRCLE
  8
DETAIL
  6
CONTINUOUS
 62
     5
 10
76.210235533031209
 20
-30.999999999999091
 30
0.0
 40
1.4999999999999849
  0
CIRCLE
  8
DETAIL
  6
CONTINUOUS
 62
     5
 10
72.74613391789353
 20
-32.999999999999552
 30
0.0
 40
1.4999999999999849
  0
CIRCLE
  8
DETAIL
  6
CONTINUOUS
 62
     5
 10
69.282032302755852
 20
-34.999999999999552
 30
0.0
 40
1.500000000000022
  0
CIRCLE
  8
DETAIL
  6
CONTINUOUS
 62
     5
 10
65.817930687617718
 20
-36.999999999999552
 30
0.0
 40
1.4999999999999849
  0
CIRCLE
  8
DETAIL
  6
CONTINUOUS
 62
     5
 10
62.353829072480039
 20
-38.999999999999091
 30
0.0
 40
1.500000000000022
  0
CIRCLE
  8
DETAIL
  6
CONTINUOUS
 62
     5
 10
58.88972745734236
 20
-40.999999999999552
 30
0.0
 40
1.4999999999999849
  0
CIRCLE
  8
DETAIL
  6
CONTINUOUS
 62
     5
 10
55.425625842204667
 20
-42.999999999999552
 30
0.0
 40
1.4999999999999849
  0
CIRCLE
  8
DETAIL
  6
CONTINUOUS
 62
     5
 10
51.961524227067002
 20
-44.999999999999552
 30
0.0
 40
1.500000000000022
  0
CIRCLE
  8
DETAIL
  6
CONTINUOUS
 62
     5
 10
48.497422611928862
 20
-46.999999999999552
 30
0.0
 40
1.4999999999999849
  0
CIRCLE
  8
DETAIL
  6
CONTINUOUS
 62
     5
 10
45.03332099679119
 20
-48.999999999999552
 30
0.0
 40
1.500000000000022
  0
CIRCLE
  8
DETAIL
  6
CONTINUOUS
 62
     5
 10
41.569219381653511
 20
-50.999999999999552
 30
0.0
 40
1.4999999999999849
  0
CIRCLE
  8
DETAIL
  6
CONTINUOUS
 62
     5
 10
79.674337148168902
 20
-24.999999999999549
 30
0.0
 40
1.2000000000000099
  0
CIRCLE
  8
DETAIL
  6
CONTINUOUS
 62
     5
 10
83.138438763306567
 20
-22.999999999999549
 30
0.0
 40
0.8999999999999974
  0
CIRCLE
  8
DETAIL
  6
CONTINUOUS
 62
     5
 10
76.210235533031209
 20
-26.999999999999549
 30
0.0
 40
1.4999999999999849
  0
CIRCLE
  8
DETAIL
  6
CONTINUOUS
 62
     5
 10
72.74613391789353
 20
-28.999999999999091
 30
0.0
 40
1.4999999999999849
  0
CIRCLE
  8
DETAIL
  6
CONTINUOUS
 62
     5
 10
69.282032302755852
 20
-30.999999999999549
 30
0.0
 40
1.500000000000022
  0
CIRCLE
  8
DETAIL
  6
CONTINUOUS
 62
     5
 10
65.817930687617718
 20
-32.999999999999552
 30
0.0
 40
1.4999999999999849
  0
CIRCLE
  8
DETAIL
  6
CONTINUOUS
 62
     5
 10
62.353829072480039
 20
-34.999999999999552
 30
0.0
 40
1.500000000000022
  0
CIRCLE
  8
DETAIL
  6
CONTINUOUS
 62
     5
 10
58.88972745734236
 20
-36.999999999999552
 30
0.0
 40
1.4999999999999849
  0
CIRCLE
  8
DETAIL
  6
CONTINUOUS
 62
     5
 10
55.425625842204667
 20
-38.999999999999552
 30
0.0
 40
1.4999999999999849
  0
CIRCLE
  8
DETAIL
  6
CONTINUOUS
 62
     5
 10
51.961524227067002
 20
-40.999999999999552
 30
0.0
 40
1.500000000000022
  0
CIRCLE
  8
DETAIL
  6
CONTINUOUS
 62
     5
 10
48.497422611928862
 20
-42.999999999999552
 30
0.0
 40
1.4999999999999849
  0
CIRCLE
  8
DETAIL
  6
CONTINUOUS
 62
     5
 10
45.03332099679119
 20
-44.999999999999552
 30
0.0
 40
1.500000000000022
  0
CIRCLE
  8
DETAIL
  6
CONTINUOUS
 62
     5
 10
41.569219381653511
 20
-46.999999999999552
 30
0.0
 40
1.4999999999999849
  0
CIRCLE
  8
DETAIL
  6
CONTINUOUS
 62
     5
 10
38.105117766515377
 20
-48.999999999999552
 30
0.0
 40
1.4999999999999849
  0
CIRCLE
  8
DETAIL
  6
CONTINUOUS
 62
     5
 10
34.641016151377698
 20
-50.999999999999552
 30
0.0
 40
1.500000000000022
  0
CIRCLE
  8
DETAIL
  6
CONTINUOUS
 62
     5
 10
27.712812921101889
 20
-50.999999999999552
 30
0.0
 40
1.500000000000022
  0
CIRCLE
  8
DETAIL
  6
CONTINUOUS
 62
     5
 10
31.17691453624002
 20
-48.999999999999552
 30
0.0
 40
1.4999999999999849
  0
CIRCLE
  8
DETAIL
  6
CONTINUOUS
 62
     5
 10
79.674337148168902
 20
-20.999999999999091
 30
0.0
 40
1.2000000000000099
  0
CIRCLE
  8
DETAIL
  6
CONTINUOUS
 62
     5
 10
83.138438763306567
 20
-18.999999999999091
 30
0.0
 40
0.8999999999999974
  0
CIRCLE
  8
DETAIL
  6
CONTINUOUS
 62
     5
 10
76.210235533031209
 20
-22.999999999999549
 30
0.0
 40
1.4999999999999849
  0
CIRCLE
  8
DETAIL
  6
CONTINUOUS
 62
     5
 10
72.74613391789353
 20
-24.999999999999549
 30
0.0
 40
1.4999999999999849
  0
CIRCLE
  8
DETAIL
  6
CONTINUOUS
 62
     5
 10
69.282032302755852
 20
-26.999999999999549
 30
0.0
 40
1.500000000000022
  0
CIRCLE
  8
DETAIL
  6
CONTINUOUS
 62
     5
 10
65.817930687617718
 20
-28.999999999999091
 30
0.0
 40
1.4999999999999849
  0
CIRCLE
  8
DETAIL
  6
CONTINUOUS
 62
     5
 10
62.353829072480039
 20
-30.999999999999549
 30
0.0
 40
1.500000000000022
  0
CIRCLE
  8
DETAIL
  6
CONTINUOUS
 62
     5
 10
58.88972745734236
 20
-32.999999999999552
 30
0.0
 40
1.4999999999999849
  0
CIRCLE
  8
DETAIL
  6
CONTINUOUS
 62
     5
 10
55.425625842204667
 20
-34.999999999999552
 30
0.0
 40
1.4999999999999849
  0
CIRCLE
  8
DETAIL
  6
CONTINUOUS
 62
     5
 10
51.961524227067002
 20
-36.999999999999552
 30
0.0
 40
1.500000000000022
  0
CIRCLE
  8
DETAIL
  6
CONTINUOUS
 62
     5
 10
48.497422611928862
 20
-38.999999999999552
 30
0.0
 40
1.4999999999999849
  0
CIRCLE
  8
DETAIL
  6
CONTINUOUS
 62
     5
 10
45.03332099679119
 20
-40.999999999999552
 30
0.0
 40
1.500000000000022
  0
CIRCLE
  8
DETAIL
  6
CONTINUOUS
 62
     5
 10
41.569219381653511
 20
-42.999999999999552
 30
0.0
 40
1.4999999999999849
  0
CIRCLE
  8
DETAIL
  6
CONTINUOUS
 62
     5
 10
38.105117766515377
 20
-44.999999999999552
 30
0.0
 40
1.4999999999999849
  0
CIRCLE
  8
DETAIL
  6
CONTINUOUS
 62
     5
 10
34.641016151377698
 20
-46.999999999999552
 30
0.0
 40
1.500000000000022
  0
CIRCLE
  8
DETAIL
  6
CONTINUOUS
 62
     5
 10
24.248711305964211
 20
-48.999999999999552
 30
0.0
 40
1.4999999999999849
  0
CIRCLE
  8
DETAIL
  6
CONTINUOUS
 62
     5
 10
20.784609690826532
 20
-50.999999999999552
 30
0.0
 40
1.4999999999999849
  0
CIRCLE
  8
DETAIL
  6
CONTINUOUS
 62
     5
 10
27.712812921101889
 20
-47.0
 30
0.0
 40
1.500000000000022
  0
CIRCLE
  8
DETAIL
  6
CONTINUOUS
 62
     5
 10
31.17691453624002
 20
-44.999999999999552
 30
0.0
 40
1.4999999999999849
  0
CIRCLE
  8
DETAIL
  6
CONTINUOUS
 62
     5
 10
79.674337148168902
 20
-16.999999999999549
 30
0.0
 40
1.2000000000000099
  0
CIRCLE
  8
DETAIL
  6
CONTINUOUS
 62
     5
 10
83.138438763306567
 20
-14.999999999999551
 30
0.0
 40
0.8999999999999974
  0
CIRCLE
  8
DETAIL
  6
CONTINUOUS
 62
     5
 10
76.210235533031209
 20
-18.999999999999091
 30
0.0
 40
1.4999999999999849
  0
CIRCLE
  8
DETAIL
  6
CONTINUOUS
 62
     5
 10
72.74613391789353
 20
-20.999999999999549
 30
0.0
 40
1.4999999999999849
  0
CIRCLE
  8
DETAIL
  6
CONTINUOUS
 62
     5
 10
69.282032302755852
 20
-22.999999999999549
 30
0.0
 40
1.500000000000022
  0
CIRCLE
  8
DETAIL
  6
CONTINUOUS
 62
     5
 10
65.817930687617718
 20
-24.999999999999549
 30
0.0
 40
1.4999999999999849
  0
CIRCLE
  8
DETAIL
  6
CONTINUOUS
 62
     5
 10
62.353829072480039
 20
-26.999999999999549
 30
0.0
 40
1.500000000000022
  0
CIRCLE
  8
DETAIL
  6
CONTINUOUS
 62
     5
 10
58.88972745734236
 20
-28.999999999999091
 30
0.0
 40
1.4999999999999849
  0
CIRCLE
  8
DETAIL
  6
CONTINUOUS
 62
     5
 10
55.425625842204667
 20
-30.999999999999549
 30
0.0
 40
1.4999999999999849
  0
CIRCLE
  8
DETAIL
  6
CONTINUOUS
 62
     5
 10
51.961524227067002
 20
-32.999999999999552
 30
0.0
 40
1.500000000000022
  0
CIRCLE
  8
DETAIL
  6
CONTINUOUS
 62
     5
 10
48.497422611928862
 20
-34.999999999999552
 30
0.0
 40
1.4999999999999849
  0
CIRCLE
  8
DETAIL
  6
CONTINUOUS
 62
     5
 10
45.03332099679119
 20
-36.999999999999552
 30
0.0
 40
1.500000000000022
  0
CIRCLE
  8
DETAIL
  6
CONTINUOUS
 62
     5
 10
41.569219381653511
 20
-38.999999999999552
 30
0.0
 40
1.4999999999999849
  0
CIRCLE
  8
DETAIL
  6
CONTINUOUS
 62
     5
 10
38.105117766515377
 20
-40.999999999999552
 30
0.0
 40
1.4999999999999849
  0
CIRCLE
  8
DETAIL
  6
CONTINUOUS
 62
     5
 10
34.641016151377698
 20
-42.999999999999552
 30
0.0
 40
1.500000000000022
  0
CIRCLE
  8
DETAIL
  6
CONTINUOUS
 62
     5
 10
13.856406460550719
 20
-50.999999999999552
 30
0.0
 40
1.5000000000000571
  0
CIRCLE
  8
DETAIL
  6
CONTINUOUS
 62
     5
 10
24.248711305964211
 20
-44.999999999999552
 30
0.0
 40
1.4999999999999849
  0
CIRCLE
  8
DETAIL
  6
CONTINUOUS
 62
     5
 10
20.784609690826532
 20
-47.0
 30
0.0
 40
1.4999999999999849
  0
CIRCLE
  8
DETAIL
  6
CONTINUOUS
 62
     5
 10
17.320508075688849
 20
-48.999999999999552
 30
0.0
 40
1.500000000000022
  0
CIRCLE
  8
DETAIL
  6
CONTINUOUS
 62
     5
 10
27.712812921101889
 20
-42.999999999999552
 30
0.0
 40
1.500000000000022
  0
CIRCLE
  8
DETAIL
  6
CONTINUOUS
 62
     5
 10
31.17691453624002
 20
-40.999999999999552
 30
0.0
 40
1.4999999999999849
  0
CIRCLE
  8
DETAIL
  6
CONTINUOUS
 62
     5
 10
79.674337148168902
 20
-12.999999999999551
 30
0.0
 40
1.2000000000000099
  0
CIRCLE
  8
DETAIL
  6
CONTINUOUS
 62
     5
 10
83.138438763306567
 20
-10.999999999999091
 30
0.0
 40
0.8999999999999974
  0
CIRCLE
  8
DETAIL
  6
CONTINUOUS
 62
     5
 10
76.210235533031209
 20
-14.999999999999551
 30
0.0
 40
1.4999999999999849
  0
CIRCLE
  8
DETAIL
  6
CONTINUOUS
 62
     5
 10
72.74613391789353
 20
-16.999999999999549
 30
0.0
 40
1.4999999999999849
  0
CIRCLE
  8
DETAIL
  6
CONTINUOUS
 62
     5
 10
69.282032302755852
 20
-18.999999999999091
 30
0.0
 40
1.500000000000022
  0
CIRCLE
  8
DETAIL
  6
CONTINUOUS
 62
     5
 10
65.817930687617718
 20
-20.999999999999549
 30
0.0
 40
1.4999999999999849
  0
CIRCLE
  8
DETAIL
  6
CONTINUOUS
 62
     5
 10
62.353829072480039
 20
-22.999999999999549
 30
0.0
 40
1.500000000000022
  0
CIRCLE
  8
DETAIL
  6
CONTINUOUS
 62
     5
 10
58.88972745734236
 20
-24.999999999999549
 30
0.0
 40
1.4999999999999849
  0
CIRCLE
  8
DETAIL
  6
CONTINUOUS
 62
     5
 10
55.425625842204667
 20
-26.999999999999549
 30
0.0
 40
1.4999999999999849
  0
CIRCLE
  8
DETAIL
  6
CONTINUOUS
 62
     5
 10
51.961524227067002
 20
-28.999999999999549
 30
0.0
 40
1.500000000000022
  0
CIRCLE
  8
DETAIL
  6
CONTINUOUS
 62
     5
 10
48.497422611928862
 20
-30.999999999999549
 30
0.0
 40
1.4999999999999849
  0
CIRCLE
  8
DETAIL
  6
CONTINUOUS
 62
     5
 10
45.03332099679119
 20
-32.999999999999552
 30
0.0
 40
1.500000000000022
  0
CIRCLE
  8
DETAIL
  6
CONTINUOUS
 62
     5
 10
41.569219381653511
 20
-34.999999999999552
 30
0.0
 40
1.4999999999999849
  0
CIRCLE
  8
DETAIL
  6
CONTINUOUS
 62
     5
 10
38.105117766515377
 20
-36.999999999999552
 30
0.0
 40
1.4999999999999849
  0
CIRCLE
  8
DETAIL
  6
CONTINUOUS
 62
     5
 10
34.641016151377698
 20
-38.999999999999552
 30
0.0
 40
1.500000000000022
  0
CIRCLE
  8
DETAIL
  6
CONTINUOUS
 62
     5
 10
6.9282032302753578
 20
-50.999999999999552
 30
0.0
 40
1.4999999999999849
  0
CIRCLE
  8
DETAIL
  6
CONTINUOUS
 62
     5
 10
10.39230484541304
 20
-48.999999999999552
 30
0.0
 40
1.4999999999999849
  0
CIRCLE
  8
DETAIL
  6
CONTINUOUS
 62
     5
 10
13.856406460550719
 20
-47.0
 30
0.0
 40
1.5000000000000571
  0
CIRCLE
  8
DETAIL
  6
CONTINUOUS
 62
     5
 10
24.248711305964211
 20
-40.999999999999552
 30
0.0
 40
1.4999999999999849
  0
CIRCLE
  8
DETAIL
  6
CONTINUOUS
 62
     5
 10
20.784609690826532
 20
-42.999999999999552
 30
0.0
 40
1.4999999999999849
  0
CIRCLE
  8
DETAIL
  6
CONTINUOUS
 62
     5
 10
17.320508075688849
 20
-44.999999999999552
 30
0.0
 40
1.500000000000022
  0
CIRCLE
  8
DETAIL
  6
CONTINUOUS
 62
     5
 10
27.712812921101889
 20
-38.999999999999552
 30
0.0
 40
1.500000000000022
  0
CIRCLE
  8
DETAIL
  6
CONTINUOUS
 62
     5
 10
31.17691453624002
 20
-37.0
 30
0.0
 40
1.4999999999999849
  0
CIRCLE
  8
DETAIL
  6
CONTINUOUS
 62
     5
 10
79.674337148168902
 20
-8.9999999999990887
 30
0.0
 40
1.2000000000000099
  0
CIRCLE
  8
DETAIL
  6
CONTINUOUS
 62
     5
 10
83.138438763306567
 20
-6.9999999999995444
 30
0.0
 40
0.8999999999999974
  0
CIRCLE
  8
DETAIL
  6
CONTINUOUS
 62
     5
 10
76.210235533031209
 20
-10.999999999999091
 30
0.0
 40
1.4999999999999849
  0
CIRCLE
  8
DETAIL
  6
CONTINUOUS
 62
     5
 10
72.74613391789353
 20
-12.999999999999551
 30
0.0
 40
1.4999999999999849
  0
CIRCLE
  8
DETAIL
  6
CONTINUOUS
 62
     5
 10
69.282032302755852
 20
-14.999999999999551
 30
0.0
 40
1.500000000000022
  0
CIRCLE
  8
DETAIL
  6
CONTINUOUS
 62
     5
 10
65.817930687617718
 20
-16.999999999999549
 30
0.0
 40
1.4999999999999849
  0
CIRCLE
  8
DETAIL
  6
CONTINUOUS
 62
     5
 10
62.353829072480039
 20
-18.999999999999091
 30
0.0
 40
1.500000000000022
  0
CIRCLE
  8
DETAIL
  6
CONTINUOUS
 62
     5
 10
58.88972745734236
 20
-20.999999999999549
 30
0.0
 40
1.4999999999999849
  0
CIRCLE
  8
DETAIL
  6
CONTINUOUS
 62
     5
 10
55.425625842204667
 20
-22.999999999999549
 30
0.0
 40
1.4999999999999849
  0
CIRCLE
  8
DETAIL
  6
CONTINUOUS
 62
     5
 10
51.961524227067002
 20
-24.999999999999549
 30
0.0
 40
1.500000000000022
  0
CIRCLE
  8
DETAIL
  6
CONTINUOUS
 62
     5
 10
48.497422611928862
 20
-26.999999999999549
 30
0.0
 40
1.4999999999999849
  0
CIRCLE
  8
DETAIL
  6
CONTINUOUS
 62
     5
 10
45.03332099679119
 20
-28.999999999999549
 30
0.0
 40
1.500000000000022
  0
CIRCLE
  8
DETAIL
  6
CONTINUOUS
 62
     5
 10
41.569219381653511
 20
-30.999999999999549
 30
0.0
 40
1.4999999999999849
  0
CIRCLE
  8
DETAIL
  6
CONTINUOUS
 62
     5
 10
38.105117766515377
 20
-32.999999999999552
 30
0.0
 40
1.4999999999999849
  0
CIRCLE
  8
DETAIL
  6
CONTINUOUS
 62
     5
 10
34.641016151377698
 20
-34.999999999999552
 30
0.0
 40
1.500000000000022
  0
CIRCLE
  8
DETAIL
  6
CONTINUOUS
 62
     5
 10
3.4641016151372241
 20
-48.999999999999552
 30
0.0
 40
1.4999999999999849
  0
CIRCLE
  8
DETAIL
  6
CONTINUOUS
 62
     5
 10
6.9282032302753578
 20
-47.0
 30
0.0
 40
1.4999999999999849
  0
CIRCLE
  8
DETAIL
  6
CONTINUOUS
 62
     5
 10
10.39230484541304
 20
-45.0
 30
0.0
 40
1.4999999999999849
  0
CIRCLE
  8
DETAIL
  6
CONTINUOUS
 62
     5
 10
13.856406460550719
 20
-42.999999999999552
 30
0.0
 40
1.5000000000000571
  0
CIRCLE
  8
DETAIL
  6
CONTINUOUS
 62
     5
 10
24.248711305964211
 20
-37.0
 30
0.0
 40
1.4999999999999849
  0
CIRCLE
  8
DETAIL
  6
CONTINUOUS
 62
     5
 10
20.784609690826532
 20
-38.999999999999552
 30
0.0
 40
1.4999999999999849
  0
CIRCLE
  8
DETAIL
  6
CONTINUOUS
 62
     5
 10
17.320508075688849
 20
-40.999999999999552
 30
0.0
 40
1.500000000000022
  0
CIRCLE
  8
DETAIL
  6
CONTINUOUS
 62
     5
 10
27.712812921101889
 20
-34.999999999999552
 30
0.0
 40
1.500000000000022
  0
CIRCLE
  8
DETAIL
  6
CONTINUOUS
 62
     5
 10
31.17691453624002
 20
-32.999999999999552
 30
0.0
 40
1.4999999999999849
  0
CIRCLE
  8
DETAIL
  6
CONTINUOUS
 62
     5
 10
79.674337148168902
 20
-4.9999999999995444
 30
0.0
 40
1.2000000000000099
  0
CIRCLE
  8
DETAIL
  6
CONTINUOUS
 62
     5
 10
83.138438763306567
 20
-2.9999999999995448
 30
0.0
 40
0.8999999999999974
  0
CIRCLE
  8
DETAIL
  6
CONTINUOUS
 62
     5
 10
76.210235533031209
 20
-6.9999999999995444
 30
0.0
 40
1.4999999999999849
  0
CIRCLE
  8
DETAIL
  6
CONTINUOUS
 62
     5
 10
72.74613391789353
 20
-8.9999999999990887
 30
0.0
 40
1.4999999999999849
  0
CIRCLE
  8
DETAIL
  6
CONTINUOUS
 62
     5
 10
69.282032302755852
 20
-10.999999999999551
 30
0.0
 40
1.500000000000022
  0
CIRCLE
  8
DETAIL
  6
CONTINUOUS
 62
     5
 10
65.817930687617718
 20
-12.999999999999551
 30
0.0
 40
1.4999999999999849
  0
CIRCLE
  8
DETAIL
  6
CONTINUOUS
 62
     5
 10
62.353829072480039
 20
-14.999999999999551
 30
0.0
 40
1.500000000000022
  0
CIRCLE
  8
DETAIL
  6
CONTINUOUS
 62
     5
 10
58.88972745734236
 20
-16.999999999999549
 30
0.0
 40
1.4999999999999849
  0
CIRCLE
  8
DETAIL
  6
CONTINUOUS
 62
     5
 10
55.425625842204667
 20
-18.999999999999549
 30
0.0
 40
1.4999999999999849
  0
CIRCLE
  8
DETAIL
  6
CONTINUOUS
 62
     5
 10
51.961524227067002
 20
-20.999999999999549
 30
0.0
 40
1.500000000000022
  0
CIRCLE
  8
DETAIL
  6
CONTINUOUS
 62
     5
 10
48.497422611928862
 20
-22.999999999999549
 30
0.0
 40
1.4999999999999849
  0
CIRCLE
  8
DETAIL
  6
CONTINUOUS
 62
     5
 10
45.03332099679119
 20
-24.999999999999549
 30
0.0
 40
1.500000000000022
  0
CIRCLE
  8
DETAIL
  6
CONTINUOUS
 62
     5
 10
41.569219381653511
 20
-26.999999999999549
 30
0.0
 40
1.4999999999999849
  0
CIRCLE
  8
DETAIL
  6
CONTINUOUS
 62
     5
 10
38.105117766515377
 20
-28.999999999999549
 30
0.0
 40
1.4999999999999849
  0
CIRCLE
  8
DETAIL
  6
CONTINUOUS
 62
     5
 10
34.641016151377698
 20
-30.999999999999549
 30
0.0
 40
1.500000000000022
  0
CIRCLE
  8
DETAIL
  6
CONTINUOUS
 62
     5
 10
3.4641016151372241
 20
-45.0
 30
0.0
 40
1.4999999999999849
  0
CIRCLE
  8
DETAIL
  6
CONTINUOUS
 62
     5
 10
6.9282032302753578
 20
-42.999999999999552
 30
0.0
 40
1.4999999999999849
  0
CIRCLE
  8
DETAIL
  6
CONTINUOUS
 62
     5
 10
10.39230484541304
 20
-40.999999999999552
 30
0.0
 40
1.4999999999999849
  0
CIRCLE
  8
DETAIL
  6
CONTINUOUS
 62
     5
 10
13.856406460550719
 20
-38.999999999999552
 30
0.0
 40
1.5000000000000571
  0
CIRCLE
  8
DETAIL
  6
CONTINUOUS
 62
     5
 10
24.248711305964211
 20
-32.999999999999552
 30
0.0
 40
1.4999999999999849
  0
CIRCLE
  8
DETAIL
  6
CONTINUOUS
 62
     5
 10
20.784609690826532
 20
-34.999999999999552
 30
0.0
 40
1.4999999999999849
  0
CIRCLE
  8
DETAIL
  6
CONTINUOUS
 62
     5
 10
17.320508075688849
 20
-37.0
 30
0.0
 40
1.500000000000022
  0
CIRCLE
  8
DETAIL
  6
CONTINUOUS
 62
     5
 10
27.712812921101889
 20
-30.999999999999549
 30
0.0
 40
1.500000000000022
  0
CIRCLE
  8
DETAIL
  6
CONTINUOUS
 62
     5
 10
31.17691453624002
 20
-28.999999999999549
 30
0.0
 40
1.4999999999999849
  0
CIRCLE
  8
DETAIL
  6
CONTINUOUS
 62
     5
 10
79.674337148168902
 20
-0.9999999999990904
 30
0.0
 40
1.2000000000000099
  0
CIRCLE
  8
DETAIL
  6
CONTINUOUS
 62
     5
 10
83.138438763306567
 20
1.0000000000009091
 30
0.0
 40
0.8999999999999974
  0
CIRCLE
  8
DETAIL
  6
CONTINUOUS
 62
     5
 10
76.210235533031209
 20
-2.9999999999995448
 30
0.0
 40
1.4999999999999849
  0
CIRCLE
  8
DETAIL
  6
CONTINUOUS
 62
     5
 10
72.74613391789353
 20
-4.9999999999995444
 30
0.0
 40
1.4999999999999849
  0
CIRCLE
  8
DETAIL
  6
CONTINUOUS
 62
     5
 10
69.282032302755852
 20
-6.9999999999995444
 30
0.0
 40
1.500000000000022
  0
CIRCLE
  8
DETAIL
  6
CONTINUOUS
 62
     5
 10
65.817930687617718
 20
-8.9999999999990887
 30
0.0
 40
1.4999999999999849
  0
CIRCLE
  8
DETAIL
  6
CONTINUOUS
 62
     5
 10
62.353829072480039
 20
-10.999999999999551
 30
0.0
 40
1.500000000000022
  0
CIRCLE
  8
DETAIL
  6
CONTINUOUS
 62
     5
 10
58.88972745734236
 20
-12.999999999999551
 30
0.0
 40
1.4999999999999849
  0
CIRCLE
  8
DETAIL
  6
CONTINUOUS
 62
     5
 10
55.425625842204667
 20
-14.999999999999551
 30
0.0
 40
1.4999999999999849
  0
CIRCLE
  8
DETAIL
  6
CONTINUOUS
 62
     5
 10
51.961524227067002
 20
-16.999999999999549
 30
0.0
 40
1.500000000000022
  0
CIRCLE
  8
DETAIL
  6
CONTINUOUS
 62
     5
 10
48.497422611928862
 20
-18.999999999999549
 30
0.0
 40
1.4999999999999849
  0
CIRCLE
  8
DETAIL
  6
CONTINUOUS
 62
     5
 10
45.03332099679119
 20
-20.999999999999549
 30
0.0
 40
1.500000000000022
  0
CIRCLE
  8
DETAIL
  6
CONTINUOUS
 62
     5
 10
41.569219381653511
 20
-22.999999999999549
 30
0.0
 40
1.4999999999999849
  0
CIRCLE
  8
DETAIL
  6
CONTINUOUS
 62
     5
 10
38.105117766515377
 20
-24.999999999999549
 30
0.0
 40
1.4999999999999849
  0
CIRCLE
  8
DETAIL
  6
CONTINUOUS
 62
     5
 10
34.641016151377698
 20
-26.999999999999549
 30
0.0
 40
1.500000000000022
  0
CIRCLE
  8
DETAIL
  6
CONTINUOUS
 62
     5
 10
3.4641016151372241
 20
-40.999999999999552
 30
0.0
 40
1.4999999999999849
  0
CIRCLE
  8
DETAIL
  6
CONTINUOUS
 62
     5
 10
6.9282032302753578
 20
-38.999999999999552
 30
0.0
 40
1.4999999999999849
  0
CIRCLE
  8
DETAIL
  6
CONTINUOUS
 62
     5
 10
10.39230484541304
 20
-37.0
 30
0.0
 40
1.4999999999999849
  0
CIRCLE
  8
DETAIL
  6
CONTINUOUS
 62
     5
 10
13.856406460550719
 20
-34.999999999999552
 30
0.0
 40
1.5000000000000571
  0
CIRCLE
  8
DETAIL
  6
CONTINUOUS
 62
     5
 10
24.248711305964211
 20
-28.999999999999549
 30
0.0
 40
1.4999999999999849
  0
CIRCLE
  8
DETAIL
  6
CONTINUOUS
 62
     5
 10
20.784609690826532
 20
-30.999999999999549
 30
0.0
 40
1.4999999999999849
  0
CIRCLE
  8
DETAIL
  6
CONTINUOUS
 62
     5
 10
17.320508075688849
 20
-32.999999999999552
 30
0.0
 40
1.500000000000022
  0
CIRCLE
  8
DETAIL
  6
CONTINUOUS
 62
     5
 10
27.712812921101889
 20
-27.0
 30
0.0
 40
1.500000000000022
  0
CIRCLE
  8
DETAIL
  6
CONTINUOUS
 62
     5
 10
31.17691453624002
 20
-24.999999999999549
 30
0.0
 40
1.4999999999999849
  0
CIRCLE
  8
DETAIL
  6
CONTINUOUS
 62
     5
 10
79.674337148168902
 20
3.0000000000004552
 30
0.0
 40
1.2000000000000099
  0
CIRCLE
  8
DETAIL
  6
CONTINUOUS
 62
     5
 10
83.138438763306567
 20
5.0000000000004556
 30
0.0
 40
0.8999999999999974
  0
CIRCLE
  8
DETAIL
  6
CONTINUOUS
 62
     5
 10
76.210235533031209
 20
1.0000000000009091
 30
0.0
 40
1.4999999999999849
  0
CIRCLE
  8
DETAIL
  6
CONTINUOUS
 62
     5
 10
72.74613391789353
 20
-0.9999999999995453
 30
0.0
 40
1.4999999999999849
  0
CIRCLE
  8
DETAIL
  6
CONTINUOUS
 62
     5
 10
69.282032302755852
 20
-2.9999999999995448
 30
0.0
 40
1.500000000000022
  0
CIRCLE
  8
DETAIL
  6
CONTINUOUS
 62
     5
 10
65.817930687617718
 20
-4.9999999999995444
 30
0.0
 40
1.4999999999999849
  0
CIRCLE
  8
DETAIL
  6
CONTINUOUS
 62
     5
 10
62.353829072480039
 20
-6.9999999999995444
 30
0.0
 40
1.500000000000022
  0
CIRCLE
  8
DETAIL
  6
CONTINUOUS
 62
     5
 10
58.88972745734236
 20
-8.9999999999995453
 30
0.0
 40
1.4999999999999849
  0
CIRCLE
  8
DETAIL
  6
CONTINUOUS
 62
     5
 10
55.425625842204667
 20
-10.999999999999551
 30
0.0
 40
1.4999999999999849
  0
CIRCLE
  8
DETAIL
  6
CONTINUOUS
 62
     5
 10
51.961524227067002
 20
-12.999999999999551
 30
0.0
 40
1.500000000000022
  0
CIRCLE
  8
DETAIL
  6
CONTINUOUS
 62
     5
 10
48.497422611928862
 20
-14.999999999999551
 30
0.0
 40
1.4999999999999849
  0
CIRCLE
  8
DETAIL
  6
CONTINUOUS
 62
     5
 10
45.03332099679119
 20
-16.999999999999549
 30
0.0
 40
1.500000000000022
  0
CIRCLE
  8
DETAIL
  6
CONTINUOUS
 62
     5
 10
41.569219381653511
 20
-18.999999999999549
 30
0.0
 40
1.4999999999999849
  0
CIRCLE
  8
DETAIL
  6
CONTINUOUS
 62
     5
 10
38.105117766515377
 20
-20.999999999999549
 30
0.0
 40
1.4999999999999849
  0
CIRCLE
  8
DETAIL
  6
CONTINUOUS
 62
     5
 10
34.641016151377698
 20
-22.999999999999549
 30
0.0
 40
1.500000000000022
  0
CIRCLE
  8
DETAIL
  6
CONTINUOUS
 62
     5
 10
3.4641016151372241
 20
-37.0
 30
0.0
 40
1.4999999999999849
  0
CIRCLE
  8
DETAIL
  6
CONTINUOUS
 62
     5
 10
6.9282032302753578
 20
-35.0
 30
0.0
 40
1.4999999999999849
  0
CIRCLE
  8
DETAIL
  6
CONTINUOUS
 62
     5
 10
10.39230484541304
 20
-32.999999999999552
 30
0.0
 40
1.4999999999999849
  0
CIRCLE
  8
DETAIL
  6
CONTINUOUS
 62
     5
 10
13.856406460550719
 20
-30.999999999999549
 30
0.0
 40
1.5000000000000571
  0
CIRCLE
  8
DETAIL
  6
CONTINUOUS
 62
     5
 10
24.248711305964211
 20
-24.999999999999549
 30
0.0
 40
1.4999999999999849
  0
CIRCLE
  8
DETAIL
  6
CONTINUOUS
 62
     5
 10
20.784609690826532
 20
-27.0
 30
0.0
 40
1.4999999999999849
  0
CIRCLE
  8
DETAIL
  6
CONTINUOUS
 62
     5
 10
17.320508075688849
 20
-28.999999999999549
 30
0.0
 40
1.500000000000022
  0
CIRCLE
  8
DETAIL
  6
CONTINUOUS
 62
     5
 10
27.712812921101889
 20
-22.999999999999549
 30
0.0
 40
1.500000000000022
  0
CIRCLE
  8
DETAIL
  6
CONTINUOUS
 62
     5
 10
31.17691453624002
 20
-20.999999999999549
 30
0.0
 40
1.4999999999999849
  0
CIRCLE
  8
DETAIL
  6
CONTINUOUS
 62
     5
 10
79.674337148168902
 20
7.0000000000004556
 30
0.0
 40
1.2000000000000099
  0
CIRCLE
  8
DETAIL
  6
CONTINUOUS
 62
     5
 10
83.138438763306567
 20
9.0000000000009095
 30
0.0
 40
0.8999999999999974
  0
CIRCLE
  8
DETAIL
  6
CONTINUOUS
 62
     5
 10
76.210235533031209
 20
5.0000000000004556
 30
0.0
 40
1.4999999999999849
  0
CIRCLE
  8
DETAIL
  6
CONTINUOUS
 62
     5
 10
72.74613391789353
 20
3.0000000000004552
 30
0.0
 40
1.4999999999999849
  0
CIRCLE
  8
DETAIL
  6
CONTINUOUS
 62
     5
 10
69.282032302755852
 20
1.0000000000009091
 30
0.0
 40
1.500000000000022
  0
CIRCLE
  8
DETAIL
  6
CONTINUOUS
 62
     5
 10
65.817930687617718
 20
-0.9999999999995453
 30
0.0
 40
1.4999999999999849
  0
CIRCLE
  8
DETAIL
  6
CONTINUOUS
 62
     5
 10
62.353829072480039
 20
-2.9999999999995448
 30
0.0
 40
1.500000000000022
  0
CIRCLE
  8
DETAIL
  6
CONTINUOUS
 62
     5
 10
58.88972745734236
 20
-4.9999999999995444
 30
0.0
 40
1.4999999999999849
  0
CIRCLE
  8
DETAIL
  6
CONTINUOUS
 62
     5
 10
55.425625842204667
 20
-6.9999999999995444
 30
0.0
 40
1.4999999999999849
  0
CIRCLE
  8
DETAIL
  6
CONTINUOUS
 62
     5
 10
51.961524227067002
 20
-8.9999999999995453
 30
0.0
 40
1.500000000000022
  0
CIRCLE
  8
DETAIL
  6
CONTINUOUS
 62
     5
 10
48.497422611928862
 20
-10.999999999999551
 30
0.0
 40
1.4999999999999849
  0
CIRCLE
  8
DETAIL
  6
CONTINUOUS
 62
     5
 10
45.03332099679119
 20
-12.999999999999551
 30
0.0
 40
1.500000000000022
  0
CIRCLE
  8
DETAIL
  6
CONTINUOUS
 62
     5
 10
41.569219381653511
 20
-14.999999999999551
 30
0.0
 40
1.4999999999999849
  0
CIRCLE
  8
DETAIL
  6
CONTINUOUS
 62
     5
 10
38.105117766515377
 20
-16.999999999999549
 30
0.0
 40
1.4999999999999849
  0
CIRCLE
  8
DETAIL
  6
CONTINUOUS
 62
     5
 10
34.641016151377698
 20
-18.999999999999549
 30
0.0
 40
1.500000000000022
  0
CIRCLE
  8
DETAIL
  6
CONTINUOUS
 62
     5
 10
3.4641016151372241
 20
-32.999999999999552
 30
0.0
 40
1.4999999999999849
  0
CIRCLE
  8
DETAIL
  6
CONTINUOUS
 62
     5
 10
6.9282032302753578
 20
-30.999999999999549
 30
0.0
 40
1.4999999999999849
  0
CIRCLE
  8
DETAIL
  6
CONTINUOUS
 62
     5
 10
10.39230484541304
 20
-28.999999999999549
 30
0.0
 40
1.4999999999999849
  0
CIRCLE
  8
DETAIL
  6
CONTINUOUS
 62
     5
 10
13.856406460550719
 20
-27.0
 30
0.0
 40
1.5000000000000571
  0
CIRCLE
  8
DETAIL
  6
CONTINUOUS
 62
     5
 10
24.248711305964211
 20
-20.999999999999549
 30
0.0
 40
1.4999999999999849
  0
CIRCLE
  8
DETAIL
  6
CONTINUOUS
 62
     5
 10
20.784609690826532
 20
-22.999999999999549
 30
0.0
 40
1.4999999999999849
  0
CIRCLE
  8
DETAIL
  6
CONTINUOUS
 62
     5
 10
17.320508075688849
 20
-24.999999999999549
 30
0.0
 40
1.500000000000022
  0
CIRCLE
  8
DETAIL
  6
CONTINUOUS
 62
     5
 10
27.712812921101889
 20
-18.999999999999549
 30
0.0
 40
1.500000000000022
  0
CIRCLE
  8
DETAIL
  6
CONTINUOUS
 62
     5
 10
31.17691453624002
 20
-16.999999999999549
 30
0.0
 40
1.4999999999999849
  0
CIRCLE
  8
DETAIL
  6
CONTINUOUS
 62
     5
 10
79.674337148168902
 20
11.000000000000909
 30
0.0
 40
1.2000000000000099
  0
CIRCLE
  8
DETAIL
  6
CONTINUOUS
 62
     5
 10
76.210235533031209
 20
9.0000000000009095
 30
0.0
 40
1.4999999999999849
  0
CIRCLE
  8
DETAIL
  6
CONTINUOUS
 62
     5
 10
72.74613391789353
 20
7.0000000000004556
 30
0.0
 40
1.4999999999999849
  0
CIRCLE
  8
DETAIL
  6
CONTINUOUS
 62
     5
 10
69.282032302755852
 20
5.0000000000004556
 30
0.0
 40
1.500000000000022
  0
CIRCLE
  8
DETAIL
  6
CONTINUOUS
 62
     5
 10
65.817930687617718
 20
3.0000000000004552
 30
0.0
 40
1.4999999999999849
  0
CIRCLE
  8
DETAIL
  6
CONTINUOUS
 62
     5
 10
62.353829072480039
 20
1.0000000000009091
 30
0.0
 40
1.500000000000022
  0
CIRCLE
  8
DETAIL
  6
CONTINUOUS
 62
     5
 10
58.88972745734236
 20
-0.9999999999995453
 30
0.0
 40
1.4999999999999849
  0
CIRCLE
  8
DETAIL
  6
CONTINUOUS
 62
     5
 10
55.425625842204667
 20
-2.9999999999995448
 30
0.0
 40
1.4999999999999849
  0
CIRCLE
  8
DETAIL
  6
CONTINUOUS
 62
     5
 10
51.961524227067002
 20
-4.9999999999995444
 30
0.0
 40
1.500000000000022
  0
CIRCLE
  8
DETAIL
  6
CONTINUOUS
 62
     5
 10
48.497422611928862
 20
-6.9999999999995444
 30
0.0
 40
1.4999999999999849
  0
CIRCLE
  8
DETAIL
  6
CONTINUOUS
 62
     5
 10
45.03332099679119
 20
-8.9999999999995453
 30
0.0
 40
1.500000000000022
  0
CIRCLE
  8
DETAIL
  6
CONTINUOUS
 62
     5
 10
41.569219381653511
 20
-10.999999999999551
 30
0.0
 40
1.4999999999999849
  0
CIRCLE
  8
DETAIL
  6
CONTINUOUS
 62
     5
 10
38.105117766515377
 20
-12.999999999999551
 30
0.0
 40
1.4999999999999849
  0
CIRCLE
  8
DETAIL
  6
CONTINUOUS
 62
     5
 10
34.641016151377698
 20
-14.999999999999551
 30
0.0
 40
1.500000000000022
  0
CIRCLE
  8
DETAIL
  6
CONTINUOUS
 62
     5
 10
3.4641016151372241
 20
-28.999999999999549
 30
0.0
 40
1.4999999999999849
  0
CIRCLE
  8
DETAIL
  6
CONTINUOUS
 62
     5
 10
6.9282032302753578
 20
-27.0
 30
0.0
 40
1.4999999999999849
  0
CIRCLE
  8
DETAIL
  6
CONTINUOUS
 62
     5
 10
10.39230484541304
 20
-25.0
 30
0.0
 40
1.4999999999999849
  0
CIRCLE
  8
DETAIL
  6
CONTINUOUS
 62
     5
 10
13.856406460550719
 20
-22.999999999999549
 30
0.0
 40
1.5000000000000571
  0
CIRCLE
  8
DETAIL
  6
CONTINUOUS
 62
     5
 10
24.248711305964211
 20
-17.0
 30
0.0
 40
1.4999999999999849
  0
CIRCLE
  8
DETAIL
  6
CONTINUOUS
 62
     5
 10
20.784609690826532
 20
-18.999999999999549
 30
0.0
 40
1.4999999999999849
  0
CIRCLE
  8
DETAIL
  6
CONTINUOUS
 62
     5
 10
17.320508075688849
 20
-20.999999999999549
 30
0.0
 40
1.500000000000022
  0
CIRCLE
  8
DETAIL
  6
CONTINUOUS
 62
     5
 10
27.712812921101889
 20
-14.999999999999551
 30
0.0
 40
1.500000000000022
  0
CIRCLE
  8
DETAIL
  6
CONTINUOUS
 62
     5
 10
31.17691453624002
 20
-12.999999999999551
 30
0.0
 40
1.4999999999999849
  0
CIRCLE
  8
DETAIL
  6
CONTINUOUS
 62
     5
 10
72.74613391789353
 20
11.000000000000909
 30
0.0
 40
1.4999999999999849
  0
CIRCLE
  8
DETAIL
  6
CONTINUOUS
 62
     5
 10
69.282032302755852
 20
9.0000000000004547
 30
0.0
 40
1.500000000000022
  0
CIRCLE
  8
DETAIL
  6
CONTINUOUS
 62
     5
 10
65.817930687617718
 20
7.0000000000004556
 30
0.0
 40
1.4999999999999849
  0
CIRCLE
  8
DETAIL
  6
CONTINUOUS
 62
     5
 10
62.353829072480039
 20
5.0000000000004556
 30
0.0
 40
1.500000000000022
  0
CIRCLE
  8
DETAIL
  6
CONTINUOUS
 62
     5
 10
58.88972745734236
 20
3.0000000000004552
 30
0.0
 40
1.4999999999999849
  0
CIRCLE
  8
DETAIL
  6
CONTINUOUS
 62
     5
 10
55.425625842204667
 20
1.000000000000455
 30
0.0
 40
1.4999999999999849
  0
CIRCLE
  8
DETAIL
  6
CONTINUOUS
 62
     5
 10
51.961524227067002
 20
-0.9999999999995453
 30
0.0
 40
1.500000000000022
  0
CIRCLE
  8
DETAIL
  6
CONTINUOUS
 62
     5
 10
48.497422611928862
 20
-2.9999999999995448
 30
0.0
 40
1.4999999999999849
  0
CIRCLE
  8
DETAIL
  6
CONTINUOUS
 62
     5
 10
45.03332099679119
 20
-4.9999999999995444
 30
0.0
 40
1.500000000000022
  0
CIRCLE
  8
DETAIL
  6
CONTINUOUS
 62
     5
 10
41.569219381653511
 20
-6.9999999999995444
 30
0.0
 40
1.4999999999999849
  0
CIRCLE
  8
DETAIL
  6
CONTINUOUS
 62
     5
 10
38.105117766515377
 20
-8.9999999999995453
 30
0.0
 40
1.4999999999999849
  0
CIRCLE
  8
DETAIL
  6
CONTINUOUS
 62
     5
 10
34.641016151377698
 20
-10.999999999999551
 30
0.0
 40
1.500000000000022
  0
CIRCLE
  8
DETAIL
  6
CONTINUOUS
 62
     5
 10
3.4641016151372241
 20
-25.0
 30
0.0
 40
1.4999999999999849
  0
CIRCLE
  8
DETAIL
  6
CONTINUOUS
 62
     5
 10
6.9282032302753578
 20
-22.999999999999549
 30
0.0
 40
1.4999999999999849
  0
CIRCLE
  8
DETAIL
  6
CONTINUOUS
 62
     5
 10
10.39230484541304
 20
-20.999999999999549
 30
0.0
 40
1.4999999999999849
  0
CIRCLE
  8
DETAIL
  6
CONTINUOUS
 62
     5
 10
13.856406460550719
 20
-18.999999999999549
 30
0.0
 40
1.5000000000000571
  0
CIRCLE
  8
DETAIL
  6
CONTINUOUS
 62
     5
 10
24.248711305964211
 20
-12.999999999999551
 30
0.0
 40
1.4999999999999849
  0
CIRCLE
  8
DETAIL
  6
CONTINUOUS
 62
     5
 10
20.784609690826532
 20
-14.999999999999551
 30
0.0
 40
1.4999999999999849
  0
CIRCLE
  8
DETAIL
  6
CONTINUOUS
 62
     5
 10
17.320508075688849
 20
-17.0
 30
0.0
 40
1.500000000000022
  0
CIRCLE
  8
DETAIL
  6
CONTINUOUS
 62
     5
 10
27.712812921101889
 20
-10.999999999999551
 30
0.0
 40
1.500000000000022
  0
CIRCLE
  8
DETAIL
  6
CONTINUOUS
 62
     5
 10
31.17691453624002
 20
-8.9999999999995453
 30
0.0
 40
1.4999999999999849
  0
CIRCLE
  8
DETAIL
  6
CONTINUOUS
 62
     5
 10
65.817930687617718
 20
11.000000000000909
 30
0.0
 40
1.4999999999999849
  0
CIRCLE
  8
DETAIL
  6
CONTINUOUS
 62
     5
 10
62.353829072480039
 20
9.0000000000004547
 30
0.0
 40
1.500000000000022
  0
CIRCLE
  8
DETAIL
  6
CONTINUOUS
 62
     5
 10
58.88972745734236
 20
7.0000000000004556
 30
0.0
 40
1.4999999999999849
  0
CIRCLE
  8
DETAIL
  6
CONTINUOUS
 62
     5
 10
55.425625842204667
 20
5.0000000000004556
 30
0.0
 40
1.4999999999999849
  0
CIRCLE
  8
DETAIL
  6
CONTINUOUS
 62
     5
 10
51.961524227067002
 20
3.0000000000004552
 30
0.0
 40
1.500000000000022
  0
CIRCLE
  8
DETAIL
  6
CONTINUOUS
 62
     5
 10
48.497422611928862
 20
1.000000000000455
 30
0.0
 40
1.4999999999999849
  0
CIRCLE
  8
DETAIL
  6
CONTINUOUS
 62
     5
 10
45.03332099679119
 20
-0.9999999999995453
 30
0.0
 40
1.500000000000022
  0
CIRCLE
  8
DETAIL
  6
CONTINUOUS
 62
     5
 10
41.569219381653511
 20
-2.9999999999995448
 30
0.0
 40
1.4999999999999849
  0
CIRCLE
  8
DETAIL
  6
CONTINUOUS
 62
     5
 10
38.105117766515377
 20
-4.9999999999995444
 30
0.0
 40
1.4999999999999849
  0
CIRCLE
  8
DETAIL
  6
CONTINUOUS
 62
     5
 10
34.641016151377698
 20
-6.9999999999995444
 30
0.0
 40
1.500000000000022
  0
CIRCLE
  8
DETAIL
  6
CONTINUOUS
 62
     5
 10
3.4641016151372241
 20
-20.999999999999549
 30
0.0
 40
1.4999999999999849
  0
CIRCLE
  8
DETAIL
  6
CONTINUOUS
 62
     5
 10
6.9282032302753578
 20
-18.999999999999549
 30
0.0
 40
1.4999999999999849
  0
CIRCLE
  8
DETAIL
  6
CONTINUOUS
 62
     5
 10
10.39230484541304
 20
-17.0
 30
0.0
 40
1.4999999999999849
  0
CIRCLE
  8
DETAIL
  6
CONTINUOUS
 62
     5
 10
13.856406460550719
 20
-15.0
 30
0.0
 40
1.5000000000000571
  0
CIRCLE
  8
DETAIL
  6
CONTINUOUS
 62
     5
 10
24.248711305964211
 20
-8.9999999999995453
 30
0.0
 40
1.4999999999999849
  0
CIRCLE
  8
DETAIL
  6
CONTINUOUS
 62
     5
 10
20.784609690826532
 20
-10.999999999999551
 30
0.0
 40
1.4999999999999849
  0
CIRCLE
  8
DETAIL
  6
CONTINUOUS
 62
     5
 10
17.320508075688849
 20
-12.999999999999551
 30
0.0
 40
1.500000000000022
  0
CIRCLE
  8
DETAIL
  6
CONTINUOUS
 62
     5
 10
27.712812921101889
 20
-7.0
 30
0.0
 40
1.500000000000022
  0
CIRCLE
  8
DETAIL
  6
CONTINUOUS
 62
     5
 10
31.17691453624002
 20
-4.9999999999995444
 30
0.0
 40
1.4999999999999849
  0
CIRCLE
  8
DETAIL
  6
CONTINUOUS
 62
     5
 10
58.88972745734236
 20
11.000000000000909
 30
0.0
 40
1.4999999999999849
  0
CIRCLE
  8
DETAIL
  6
CONTINUOUS
 62
     5
 10
55.425625842204667
 20
9.0000000000004547
 30
0.0
 40
1.4999999999999849
  0
CIRCLE
  8
DETAIL
  6
CONTINUOUS
 62
     5
 10
51.961524227067002
 20
7.0000000000004556
 30
0.0
 40
1.500000000000022
  0
CIRCLE
  8
DETAIL
  6
CONTINUOUS
 62
     5
 10
48.497422611928862
 20
5.0000000000004556
 30
0.0
 40
1.4999999999999849
  0
CIRCLE
  8
DETAIL
  6
CONTINUOUS
 62
     5
 10
45.03332099679119
 20
3.0000000000004552
 30
0.0
 40
1.500000000000022
  0
CIRCLE
  8
DETAIL
  6
CONTINUOUS
 62
     5
 10
41.569219381653511
 20
1.000000000000455
 30
0.0
 40
1.4999999999999849
  0
CIRCLE
  8
DETAIL
  6
CONTINUOUS
 62
     5
 10
38.105117766515377
 20
-0.9999999999995453
 30
0.0
 40
1.4999999999999849
  0
CIRCLE
  8
DETAIL
  6
CONTINUOUS
 62
     5
 10
34.641016151377698
 20
-2.9999999999995448
 30
0.0
 40
1.500000000000022
  0
CIRCLE
  8
DETAIL
  6
CONTINUOUS
 62
     5
 10
3.4641016151372241
 20
-17.0
 30
0.0
 40
1.4999999999999849
  0
CIRCLE
  8
DETAIL
  6
CONTINUOUS
 62
     5
 10
6.9282032302753578
 20
-15.0
 30
0.0
 40
1.4999999999999849
  0
CIRCLE
  8
DETAIL
  6
CONTINUOUS
 62
     5
 10
10.39230484541304
 20
-12.999999999999551
 30
0.0
 40
1.4999999999999849
  0
CIRCLE
  8
DETAIL
  6
CONTINUOUS
 62
     5
 10
13.856406460550719
 20
-10.999999999999551
 30
0.0
 40
1.5000000000000571
  0
CIRCLE
  8
DETAIL
  6
CONTINUOUS
 62
     5
 10
24.248711305964211
 20
-4.9999999999995444
 30
0.0
 40
1.4999999999999849
  0
CIRCLE
  8
DETAIL
  6
CONTINUOUS
 62
     5
 10
20.784609690826532
 20
-7.0
 30
0.0
 40
1.4999999999999849
  0
CIRCLE
  8
DETAIL
  6
CONTINUOUS
 62
     5
 10
17.320508075688849
 20
-8.9999999999995453
 30
0.0
 40
1.500000000000022
  0
CIRCLE
  8
DETAIL
  6
CONTINUOUS
 62
     5
 10
27.712812921101889
 20
-2.9999999999995448
 30
0.0
 40
1.500000000000022
  0
CIRCLE
  8
DETAIL
  6
CONTINUOUS
 62
     5
 10
31.17691453624002
 20
-0.9999999999995453
 30
0.0
 40
1.4999999999999849
  0
CIRCLE
  8
DETAIL
  6
CONTINUOUS
 62
     5
 10
51.961524227067002
 20
11.000000000000449
 30
0.0
 40
1.500000000000022
  0
CIRCLE
  8
DETAIL
  6
CONTINUOUS
 62
     5
 10
48.497422611928862
 20
9.0000000000004547
 30
0.0
 40
1.4999999999999849
  0
CIRCLE
  8
DETAIL
  6
CONTINUOUS
 62
     5
 10
45.03332099679119
 20
7.0000000000004556
 30
0.0
 40
1.500000000000022
  0
CIRCLE
  8
DETAIL
  6
CONTINUOUS
 62
     5
 10
41.569219381653511
 20
5.0000000000004556
 30
0.0
 40
1.4999999999999849
  0
CIRCLE
  8
DETAIL
  6
CONTINUOUS
 62
     5
 10
38.105117766515377
 20
3.0000000000004552
 30
0.0
 40
1.4999999999999849
  0
CIRCLE
  8
DETAIL
  6
CONTINUOUS
 62
     5
 10
34.641016151377698
 20
1.000000000000455
 30
0.0
 40
1.500000000000022
  0
CIRCLE
  8
DETAIL
  6
CONTINUOUS
 62
     5
 10
3.4641016151372241
 20
-12.999999999999551
 30
0.0
 40
1.4999999999999849
  0
CIRCLE
  8
DETAIL
  6
CONTINUOUS
 62
     5
 10
6.9282032302753578
 20
-10.999999999999551
 30
0.0
 40
1.4999999999999849
  0
CIRCLE
  8
DETAIL
  6
CONTINUOUS
 62
     5
 10
10.39230484541304
 20
-8.9999999999995453
 30
0.0
 40
1.4999999999999849
  0
CIRCLE
  8
DETAIL
  6
CONTINUOUS
 62
     5
 10
13.856406460550719
 20
-7.0
 30
0.0
 40
1.5000000000000571
  0
CIRCLE
  8
DETAIL
  6
CONTINUOUS
 62
     5
 10
24.248711305964211
 20
-0.9999999999995453
 30
0.0
 40
1.4999999999999849
  0
CIRCLE
  8
DETAIL
  6
CONTINUOUS
 62
     5
 10
20.784609690826532
 20
-2.9999999999995448
 30
0.0
 40
1.4999999999999849
  0
CIRCLE
  8
DETAIL
  6
CONTINUOUS
 62
     5
 10
17.320508075688849
 20
-4.9999999999995444
 30
0.0
 40
1.500000000000022
  0
CIRCLE
  8
DETAIL
  6
CONTINUOUS
 62
     5
 10
27.712812921101889
 20
1.000000000000455
 30
0.0
 40
1.500000000000022
  0
CIRCLE
  8
DETAIL
  6
CONTINUOUS
 62
     5
 10
31.17691453624002
 20
3.0000000000004552
 30
0.0
 40
1.4999999999999849
  0
CIRCLE
  8
DETAIL
  6
CONTINUOUS
 62
     5
 10
45.03332099679119
 20
11.000000000000449
 30
0.0
 40
1.500000000000022
  0
CIRCLE
  8
DETAIL
  6
CONTINUOUS
 62
     5
 10
41.569219381653511
 20
9.0000000000004547
 30
0.0
 40
1.4999999999999849
  0
CIRCLE
  8
DETAIL
  6
CONTINUOUS
 62
     5
 10
38.105117766515377
 20
7.0000000000004556
 30
0.0
 40
1.4999999999999849
  0
CIRCLE
  8
DETAIL
  6
CONTINUOUS
 62
     5
 10
34.641016151377698
 20
5.0000000000004556
 30
0.0
 40
1.500000000000022
  0
CIRCLE
  8
DETAIL
  6
CONTINUOUS
 62
     5
 10
3.4641016151372241
 20
-8.9999999999995453
 30
0.0
 40
1.4999999999999849
  0
CIRCLE
  8
DETAIL
  6
CONTINUOUS
 62
     5
 10
6.9282032302753578
 20
-7.0
 30
0.0
 40
1.4999999999999849
  0
CIRCLE
  8
DETAIL
  6
CONTINUOUS
 62
     5
 10
10.39230484541304
 20
-5.0
 30
0.0
 40
1.4999999999999849
  0
CIRCLE
  8
DETAIL
  6
CONTINUOUS
 62
     5
 10
13.856406460550719
 20
-2.9999999999995448
 30
0.0
 40
1.5000000000000571
  0
CIRCLE
  8
DETAIL
  6
CONTINUOUS
 62
     5
 10
24.248711305964211
 20
3.0
 30
0.0
 40
1.4999999999999849
  0
CIRCLE
  8
DETAIL
  6
CONTINUOUS
 62
     5
 10
20.784609690826532
 20
1.000000000000455
 30
0.0
 40
1.4999999999999849
  0
CIRCLE
  8
DETAIL
  6
CONTINUOUS
 62
     5
 10
17.320508075688849
 20
-0.9999999999995453
 30
0.0
 40
1.500000000000022
  0
CIRCLE
  8
DETAIL
  6
CONTINUOUS
 62
     5
 10
27.712812921101889
 20
5.0000000000004556
 30
0.0
 40
1.500000000000022
  0
CIRCLE
  8
DETAIL
  6
CONTINUOUS
 62
     5
 10
31.17691453624002
 20
7.0000000000004556
 30
0.0
 40
1.4999999999999849
  0
CIRCLE
  8
DETAIL
  6
CONTINUOUS
 62
     5
 10
38.105117766515377
 20
11.000000000000449
 30
0.0
 40
1.4999999999999849
  0
CIRCLE
  8
DETAIL
  6
CONTINUOUS
 62
     5
 10
34.641016151377698
 20
9.0000000000004547
 30
0.0
 40
1.500000000000022
  0
CIRCLE
  8
DETAIL
  6
CONTINUOUS
 62
     5
 10
3.4641016151372241
 20
-5.0
 30
0.0
 40
1.4999999999999849
  0
CIRCLE
  8
DETAIL
  6
CONTINUOUS
 62
     5
 10
6.9282032302753578
 20
-2.9999999999995448
 30
0.0
 40
1.4999999999999849
  0
CIRCLE
  8
DETAIL
  6
CONTINUOUS
 62
     5
 10
10.39230484541304
 20
-0.9999999999995453
 30
0.0
 40
1.4999999999999849
  0
CIRCLE
  8
DETAIL
  6
CONTINUOUS
 62
     5
 10
13.856406460550719
 20
1.000000000000455
 30
0.0
 40
1.5000000000000571
  0
CIRCLE
  8
DETAIL
  6
CONTINUOUS
 62
     5
 10
24.248711305964211
 20
7.0000000000004556
 30
0.0
 40
1.4999999999999849
  0
CIRCLE
  8
DETAIL
  6
CONTINUOUS
 62
     5
 10
20.784609690826532
 20
5.0000000000004556
 30
0.0
 40
1.4999999999999849
  0
CIRCLE
  8
DETAIL
  6
CONTINUOUS
 62
     5
 10
17.320508075688849
 20
3.0
 30
0.0
 40
1.500000000000022
  0
CIRCLE
  8
DETAIL
  6
CONTINUOUS
 62
     5
 10
27.712812921101889
 20
9.0000000000004547
 30
0.0
 40
1.500000000000022
  0
CIRCLE
  8
DETAIL
  6
CONTINUOUS
 62
     5
 10
31.17691453624002
 20
11.000000000000449
 30
0.0
 40
1.4999999999999849
  0
CIRCLE
  8
DETAIL
  6
CONTINUOUS
 62
     5
 10
3.4641016151372241
 20
-0.9999999999995453
 30
0.0
 40
1.4999999999999849
  0
CIRCLE
  8
DETAIL
  6
CONTINUOUS
 62
     5
 10
6.9282032302753578
 20
1.000000000000455
 30
0.0
 40
1.4999999999999849
  0
CIRCLE
  8
DETAIL
  6
CONTINUOUS
 62
     5
 10
10.39230484541304
 20
3.0
 30
0.0
 40
1.4999999999999849
  0
CIRCLE
  8
DETAIL
  6
CONTINUOUS
 62
     5
 10
13.856406460550719
 20
5.0
 30
0.0
 40
1.5000000000000571
  0
CIRCLE
  8
DETAIL
  6
CONTINUOUS
 62
     5
 10
24.248711305964211
 20
11.000000000000449
 30
0.0
 40
1.4999999999999849
  0
CIRCLE
  8
DETAIL
  6
CONTINUOUS
 62
     5
 10
20.784609690826532
 20
9.0000000000004547
 30
0.0
 40
1.4999999999999849
  0
CIRCLE
  8
DETAIL
  6
CONTINUOUS
 62
     5
 10
17.320508075688849
 20
7.0000000000004556
 30
0.0
 40
1.500000000000022
  0
CIRCLE
  8
DETAIL
  6
CONTINUOUS
 62
     5
 10
3.4641016151372241
 20
3.0
 30
0.0
 40
1.4999999999999849
  0
CIRCLE
  8
DETAIL
  6
CONTINUOUS
 62
     5
 10
6.9282032302753578
 20
5.0
 30
0.0
 40
1.4999999999999849
  0
CIRCLE
  8
DETAIL
  6
CONTINUOUS
 62
     5
 10
10.39230484541304
 20
7.0000000000004556
 30
0.0
 40
1.4999999999999849
  0
CIRCLE
  8
DETAIL
  6
CONTINUOUS
 62
     5
 10
13.856406460550719
 20
9.0000000000004547
 30
0.0
 40
1.5000000000000571
  0
CIRCLE
  8
DETAIL
  6
CONTINUOUS
 62
     5
 10
17.320508075688849
 20
11.000000000000449
 30
0.0
 40
1.500000000000022
  0
CIRCLE
  8
DETAIL
  6
CONTINUOUS
 62
     5
 10
3.4641016151372241
 20
7.0000000000004556
 30
0.0
 40
1.4999999999999849
  0
CIRCLE
  8
DETAIL
  6
CONTINUOUS
 62
     5
 10
6.9282032302753578
 20
9.0000000000004547
 30
0.0
 40
1.4999999999999849
  0
CIRCLE
  8
DETAIL
  6
CONTINUOUS
 62
     5
 10
10.39230484541304
 20
11.000000000000449
 30
0.0
 40
1.4999999999999849
  0
CIRCLE
  8
DETAIL
  6
CONTINUOUS
 62
     5
 10
3.4641016151372241
 20
11.000000000000449
 30
0.0
 40
1.4999999999999849
  0
CIRCLE
  8
DETAIL
  6
CONTINUOUS
 62
     5
 10
0.0
 20
-58.999999999999552
 30
0.0
 40
0.8999999999999624
  0
CIRCLE
  8
DETAIL
  6
CONTINUOUS
 62
     5
 10
0.0
 20
-55.0
 30
0.0
 40
1.1999999999999751
  0
CIRCLE
  8
DETAIL
  6
CONTINUOUS
 62
     5
 10
0.0
 20
-50.999999999999552
 30
0.0
 40
1.4999999999999849
  0
CIRCLE
  8
DETAIL
  6
CONTINUOUS
 62
     5
 10
0.0
 20
-47.0
 30
0.0
 40
1.4999999999999849
  0
CIRCLE
  8
DETAIL
  6
CONTINUOUS
 62
     5
 10
0.0
 20
-42.999999999999552
 30
0.0
 40
1.4999999999999849
  0
CIRCLE
  8
DETAIL
  6
CONTINUOUS
 62
     5
 10
0.0
 20
-38.999999999999552
 30
0.0
 40
1.4999999999999849
  0
CIRCLE
  8
DETAIL
  6
CONTINUOUS
 62
     5
 10
0.0
 20
-35.0
 30
0.0
 40
1.4999999999999849
  0
CIRCLE
  8
DETAIL
  6
CONTINUOUS
 62
     5
 10
0.0
 20
-30.999999999999549
 30
0.0
 40
1.4999999999999849
  0
CIRCLE
  8
DETAIL
  6
CONTINUOUS
 62
     5
 10
0.0
 20
-27.0
 30
0.0
 40
1.4999999999999849
  0
CIRCLE
  8
DETAIL
  6
CONTINUOUS
 62
     5
 10
0.0
 20
-22.999999999999549
 30
0.0
 40
1.4999999999999849
  0
CIRCLE
  8
DETAIL
  6
CONTINUOUS
 62
     5
 10
0.0
 20
-18.999999999999549
 30
0.0
 40
1.4999999999999849
  0
CIRCLE
  8
DETAIL
  6
CONTINUOUS
 62
     5
 10
0.0
 20
-15.0
 30
0.0
 40
1.4999999999999849
  0
CIRCLE
  8
DETAIL
  6
CONTINUOUS
 62
     5
 10
0.0
 20
-10.999999999999551
 30
0.0
 40
1.4999999999999849
  0
CIRCLE
  8
DETAIL
  6
CONTINUOUS
 62
     5
 10
0.0
 20
-7.0
 30
0.0
 40
1.4999999999999849
  0
CIRCLE
  8
DETAIL
  6
CONTINUOUS
 62
     5
 10
0.0
 20
-2.9999999999995448
 30
0.0
 40
1.4999999999999849
  0
CIRCLE
  8
DETAIL
  6
CONTINUOUS
 62
     5
 10
0.0
 20
1.000000000000455
 30
0.0
 40
1.4999999999999849
  0
CIRCLE
  8
DETAIL
  6
CONTINUOUS
 62
     5
 10
0.0
 20
5.0
 30
0.0
 40
1.4999999999999849
  0
CIRCLE
  8
DETAIL
  6
CONTINUOUS
 62
     5
 10
0.0
 20
9.0000000000004547
 30
0.0
 40
1.4999999999999849
  0
LINE
  8
DETAIL
  6
CONTINUOUS
 62
     5
 10
-105.0
 20
98.500000000000441
 30
0.0
 11
-105.0
 21
-98.499999999999545
 31
0.0
  0
LINE
  8
DETAIL
  6
CONTINUOUS
 62
     5
 10
-103.607290949416
 20
-75.345731916869681
 30
0.0
 11
-103.607290949416
 21
98.500000000000441
 31
0.0
  0
LINE
  8
DETAIL
  6
CONTINUOUS
 62
     5
 10
43.0
 20
156.9980642271635
 30
0.0
 11
43.0
 21
147.9980642271635
 31
0.0
  0
LINE
  8
DETAIL
  6
CONTINUOUS
 62
     5
 10
43.0
 20
156.9980642271635
 30
0.0
 11
43.0
 21
147.9980642271635
 31
0.0
  0
ARC
  8
DETAIL
  6
CONTINUOUS
 62
     5
 10
27.649999999997821
 20
117.52360878945861
 30
0.0
 40
2.6999999999999522
 50
240.00000000005849
 51
300.00000000004661
  0
ARC
  8
DETAIL
  6
CONTINUOUS
 62
     5
 10
30.34999999999809
 20
117.52360878946141
 30
0.0
 40
2.7000000000000068
 50
240.00000000005849
 51
300.00000000004661
  0
ARC
  8
DETAIL
  6
CONTINUOUS
 62
     5
 10
30.350000000001732
 20
112.84707160902509
 30
0.0
 40
2.7000000000000068
 50
60.000000000058421
 51
120.0000000000466
  0
ARC
  8
DETAIL
  6
CONTINUOUS
 62
     5
 10
27.649999999997821
 20
115.53000878752751
 30
0.0
 40
2.6999999999999522
 50
240.00000000005849
 51
300.00000000004661
  0
ARC
  8
DETAIL
  6
CONTINUOUS
 62
     5
 10
27.65000000000191
 20
110.85347160709129
 30
0.0
 40
2.69999999999997
 50
60.000000000058421
 51
120.0000000000466
  0
ARC
  8
DETAIL
  6
CONTINUOUS
 62
     5
 10
30.350000000001732
 20
110.85347160709399
 30
0.0
 40
2.7000000000000068
 50
60.000000000058421
 51
120.0000000000466
  0
LINE
  8
DETAIL
  6
CONTINUOUS
 62
     5
 10
26.299999999999731
 20
115.18534019923941
 30
0.0
 11
26.299999999999731
 21
124.9980642271635
 31
0.0
  0
LINE
  8
DETAIL
  6
CONTINUOUS
 62
     5
 10
26.299999999999731
 20
104.7929570428
 30
0.0
 11
26.299999999999731
 21
113.19174019730831
 31
0.0
  0
LINE
  8
DETAIL
  6
CONTINUOUS
 62
     5
 10
31.699999999999829
 20
115.18534019924439
 30
0.0
 11
31.700000000000269
 21
124.9980642271635
 31
0.0
  0
LINE
  8
DETAIL
  6
CONTINUOUS
 62
     5
 10
31.699999999999829
 20
104.7929570428
 30
0.0
 11
31.699999999999829
 21
113.1917401973128
 31
0.0
  0
LINE
  8
DETAIL
  6
CONTINUOUS
 62
     5
 10
28.999999999999549
 20
115.18534019924159
 30
0.0
 11
29.0
 21
124.9980642271635
 31
0.0
  0
LINE
  8
DETAIL
  6
CONTINUOUS
 62
     5
 10
23.117202714230189
 20
143.12282079947411
 30
0.0
 11
24.220699321441771
 21
125.466875084086
 31
0.0
  0
LINE
  8
DETAIL
  6
CONTINUOUS
 62
     5
 10
34.882797285769357
 20
143.12282079947411
 30
0.0
 11
33.77930067855732
 21
125.466875084086
 31
0.0
  0
LINE
  8
DETAIL
  6
CONTINUOUS
 62
     5
 10
29.0
 20
132.9980642271635
 30
0.0
 11
34.25
 21
132.9980642271635
 31
0.0
  0
LINE
  8
DETAIL
  6
CONTINUOUS
 62
     5
 10
23.84375
 20
131.4980642271635
 30
0.0
 11
29.0
 21
131.4980642271635
 31
0.0
  0
LINE
  8
DETAIL
  6
CONTINUOUS
 62
     5
 10
29.0
 20
134.4980642271635
 30
0.0
 11
29.0
 21
132.9980642271635
 31
0.0
  0
LINE
  8
DETAIL
  6
CONTINUOUS
 62
     5
 10
29.0
 20
131.4980642271635
 30
0.0
 11
29.0
 21
129.9980642271635
 31
0.0
  0
LINE
  8
DETAIL
  6
CONTINUOUS
 62
     5
 10
28.999999999999549
 20
104.7929570428
 30
0.0
 11
29.0
 21
113.19174019731049
 31
0.0
  0
LINE
  8
DETAIL
  6
CONTINUOUS
 62
     5
 10
29.0
 20
128.4980642271635
 30
0.0
 11
29.0
 21
126.9980642271635
 31
0.0
  0
LINE
  8
DETAIL
  6
CONTINUOUS
 62
     5
 10
29.0
 20
126.9980642271635
 30
0.0
 11
33.875
 21
126.9980642271635
 31
0.0
  0
LINE
  8
DETAIL
  6
CONTINUOUS
 62
     5
 10
29.0
 20
128.4980642271635
 30
0.0
 11
33.96875
 21
128.4980642271635
 31
0.0
  0
LINE
  8
DETAIL
  6
CONTINUOUS
 62
     5
 10
23.9375
 20
129.9980642271635
 30
0.0
 11
29.0
 21
129.9980642271635
 31
0.0
  0
ARC
  8
DETAIL
  6
CONTINUOUS
 62
     5
 10
24.719725610683781
 20
125.4980642271635
 30
0.0
 40
0.500000000000145
 50
183.57633437500459
 51
270.0
  0
ARC
  8
DETAIL
  6
CONTINUOUS
 62
     5
 10
33.280274389315757
 20
125.4980642271635
 30
0.0
 40
0.5000000000000076
 50
270.0
 51
356.42366562499529
  0
LINE
  8
DETAIL
  6
CONTINUOUS
 62
     5
 10
33.280274389315757
 20
124.9980642271635
 30
0.0
 11
24.719725610683781
 21
124.9980642271635
 31
0.0
  0
LINE
  8
DETAIL
  6
CONTINUOUS
 62
     5
 10
34.849999999999909
 20
155.64806422716359
 30
0.0
 11
35.849999999999902
 21
155.64806422716359
 31
0.0
  0
LINE
  8
DETAIL
  6
CONTINUOUS
 62
     5
 10
34.849999999999909
 20
149.34806422716341
 30
0.0
 11
35.849999999999902
 21
149.34806422716341
 31
0.0
  0
LINE
  8
DETAIL
  6
CONTINUOUS
 62
     5
 10
41.5
 20
147.9980642271635
 30
0.0
 11
43.0
 21
147.9980642271635
 31
0.0
  0
LINE
  8
DETAIL
  6
CONTINUOUS
 62
     5
 10
41.5
 20
156.9980642271635
 30
0.0
 11
43.0
 21
156.9980642271635
 31
0.0
  0
LINE
  8
DETAIL
  6
CONTINUOUS
 62
     5
 10
15.0
 20
156.9980642271635
 30
0.0
 11
15.0
 21
147.9980642271635
 31
0.0
  0
LINE
  8
DETAIL
  6
CONTINUOUS
 62
     5
 10
15.0
 20
156.9980642271635
 30
0.0
 11
16.5
 21
156.9980642271635
 31
0.0
  0
LINE
  8
DETAIL
  6
CONTINUOUS
 62
     5
 10
15.0
 20
147.9980642271635
 30
0.0
 11
16.5
 21
147.9980642271635
 31
0.0
  0
LINE
  8
DETAIL
  6
CONTINUOUS
 62
     5
 10
22.14999999999964
 20
155.64806422716359
 30
0.0
 11
23.150000000000091
 21
155.64806422716359
 31
0.0
  0
LINE
  8
DETAIL
  6
CONTINUOUS
 62
     5
 10
22.14999999999964
 20
149.34806422716341
 30
0.0
 11
23.150000000000091
 21
149.34806422716341
 31
0.0
  0
LINE
  8
DETAIL
  6
CONTINUOUS
 62
     5
 10
34.849999999999909
 20
155.64806422716359
 30
0.0
 11
34.849999999999909
 21
149.34806422716341
 31
0.0
  0
LINE
  8
DETAIL
  6
CONTINUOUS
 62
     5
 10
35.849999999999902
 20
155.64806422716359
 30
0.0
 11
35.849999999999902
 21
149.34806422716341
 31
0.0
  0
LINE
  8
DETAIL
  6
CONTINUOUS
 62
     5
 10
22.14999999999964
 20
155.64806422716359
 30
0.0
 11
22.14999999999964
 21
149.34806422716341
 31
0.0
  0
LINE
  8
DETAIL
  6
CONTINUOUS
 62
     5
 10
23.150000000000091
 20
155.64806422716359
 30
0.0
 11
23.150000000000091
 21
149.34806422716341
 31
0.0
  0
ARC
  8
DETAIL
  6
CONTINUOUS
 62
     5
 10
38.5
 20
156.9980642271635
 30
0.0
 40
3.000000000000008
 50
0.0
 51
90.0
  0
ARC
  8
DETAIL
  6
CONTINUOUS
 62
     5
 10
38.5
 20
147.9980642271635
 30
0.0
 40
3.000000000000008
 50
270.0
 51
0.0
  0
ARC
  8
DETAIL
  6
CONTINUOUS
 62
     5
 10
19.5
 20
147.9980642271635
 30
0.0
 40
2.999999999999972
 50
180.0
 51
270.0
  0
ARC
  8
DETAIL
  6
CONTINUOUS
 62
     5
 10
19.5
 20
156.9980642271635
 30
0.0
 40
3.000000000000008
 50
90.0
 51
180.0
  0
LINE
  8
DETAIL
  6
CONTINUOUS
 62
     5
 10
41.5
 20
156.9980642271635
 30
0.0
 11
41.5
 21
147.9980642271635
 31
0.0
  0
LINE
  8
DETAIL
  6
CONTINUOUS
 62
     5
 10
16.5
 20
156.9980642271635
 30
0.0
 11
16.5
 21
147.9980642271635
 31
0.0
  0
LINE
  8
DETAIL
  6
CONTINUOUS
 62
     5
 10
19.5
 20
144.9980642271635
 30
0.0
 11
38.5
 21
144.9980642271635
 31
0.0
  0
LINE
  8
DETAIL
  6
CONTINUOUS
 62
     5
 10
19.5
 20
159.9980642271635
 30
0.0
 11
38.5
 21
159.9980642271635
 31
0.0
  0
ARC
  8
DETAIL
  6
CONTINUOUS
 62
     5
 10
36.878902442735132
 20
142.9980642271635
 30
0.0
 40
1.9999999999999929
 50
90.0
 51
176.42366562499529
  0
ARC
  8
DETAIL
  6
CONTINUOUS
 62
     5
 10
21.12109755726442
 20
142.9980642271635
 30
0.0
 40
1.9999999999999929
 50
3.5763343750046648
 51
90.0
  0
LINE
  8
DETAIL
  6
CONTINUOUS
 62
     5
 10
29.0
 20
140.4980642271635
 30
0.0
 11
34.71875
 21
140.4980642271635
 31
0.0
  0
LINE
  8
DETAIL
  6
CONTINUOUS
 62
     5
 10
29.0
 20
138.9980642271635
 30
0.0
 11
34.625
 21
138.9980642271635
 31
0.0
  0
LINE
  8
DETAIL
  6
CONTINUOUS
 62
     5
 10
23.468749999999549
 20
137.4980642271635
 30
0.0
 11
29.0
 21
137.4980642271635
 31
0.0
  0
LINE
  8
DETAIL
  6
CONTINUOUS
 62
     5
 10
23.5625
 20
135.9980642271635
 30
0.0
 11
29.0
 21
135.9980642271635
 31
0.0
  0
LINE
  8
DETAIL
  6
CONTINUOUS
 62
     5
 10
29.0
 20
134.4980642271635
 30
0.0
 11
34.34375
 21
134.4980642271635
 31
0.0
  0
LINE
  8
DETAIL
  6
CONTINUOUS
 62
     5
 10
29.0
 20
140.4980642271635
 30
0.0
 11
29.0
 21
138.9980642271635
 31
0.0
  0
LINE
  8
DETAIL
  6
CONTINUOUS
 62
     5
 10
29.0
 20
137.4980642271635
 30
0.0
 11
29.0
 21
135.9980642271635
 31
0.0
  0
LINE
  8
DETAIL
  6
CONTINUOUS
 62
     5
 10
34.849999999999909
 20
155.64806422716359
 30
0.0
 11
35.849999999999902
 21
155.64806422716359
 31
0.0
  0
LINE
  8
DETAIL
  6
CONTINUOUS
 62
     5
 10
34.849999999999909
 20
149.34806422716341
 30
0.0
 11
35.849999999999902
 21
149.34806422716341
 31
0.0
  0
LINE
  8
DETAIL
  6
CONTINUOUS
 62
     5
 10
41.5
 20
147.9980642271635
 30
0.0
 11
43.0
 21
147.9980642271635
 31
0.0
  0
LINE
  8
DETAIL
  6
CONTINUOUS
 62
     5
 10
41.5
 20
156.9980642271635
 30
0.0
 11
43.0
 21
156.9980642271635
 31
0.0
  0
LINE
  8
DETAIL
  6
CONTINUOUS
 62
     5
 10
15.0
 20
156.9980642271635
 30
0.0
 11
15.0
 21
147.9980642271635
 31
0.0
  0
LINE
  8
DETAIL
  6
CONTINUOUS
 62
     5
 10
15.0
 20
156.9980642271635
 30
0.0
 11
16.5
 21
156.9980642271635
 31
0.0
  0
LINE
  8
DETAIL
  6
CONTINUOUS
 62
     5
 10
15.0
 20
147.9980642271635
 30
0.0
 11
16.5
 21
147.9980642271635
 31
0.0
  0
LINE
  8
DETAIL
  6
CONTINUOUS
 62
     5
 10
22.14999999999964
 20
155.64806422716359
 30
0.0
 11
23.150000000000091
 21
155.64806422716359
 31
0.0
  0
LINE
  8
DETAIL
  6
CONTINUOUS
 62
     5
 10
22.14999999999964
 20
149.34806422716341
 30
0.0
 11
23.150000000000091
 21
149.34806422716341
 31
0.0
  0
LINE
  8
DETAIL
  6
CONTINUOUS
 62
     5
 10
34.849999999999909
 20
155.64806422716359
 30
0.0
 11
34.849999999999909
 21
149.34806422716341
 31
0.0
  0
LINE
  8
DETAIL
  6
CONTINUOUS
 62
     5
 10
35.849999999999902
 20
155.64806422716359
 30
0.0
 11
35.849999999999902
 21
149.34806422716341
 31
0.0
  0
LINE
  8
DETAIL
  6
CONTINUOUS
 62
     5
 10
22.14999999999964
 20
155.64806422716359
 30
0.0
 11
22.14999999999964
 21
149.34806422716341
 31
0.0
  0
LINE
  8
DETAIL
  6
CONTINUOUS
 62
     5
 10
23.150000000000091
 20
155.64806422716359
 30
0.0
 11
23.150000000000091
 21
149.34806422716341
 31
0.0
  0
ARC
  8
DETAIL
  6
CONTINUOUS
 62
     5
 10
38.5
 20
156.9980642271635
 30
0.0
 40
3.000000000000008
 50
0.0
 51
90.0
  0
ARC
  8
DETAIL
  6
CONTINUOUS
 62
     5
 10
38.5
 20
147.9980642271635
 30
0.0
 40
3.000000000000008
 50
270.0
 51
0.0
  0
ARC
  8
DETAIL
  6
CONTINUOUS
 62
     5
 10
19.5
 20
147.9980642271635
 30
0.0
 40
2.999999999999972
 50
180.0
 51
270.0
  0
ARC
  8
DETAIL
  6
CONTINUOUS
 62
     5
 10
19.5
 20
156.9980642271635
 30
0.0
 40
3.000000000000008
 50
90.0
 51
180.0
  0
LINE
  8
DETAIL
  6
CONTINUOUS
 62
     5
 10
41.5
 20
156.9980642271635
 30
0.0
 11
41.5
 21
147.9980642271635
 31
0.0
  0
LINE
  8
DETAIL
  6
CONTINUOUS
 62
     5
 10
16.5
 20
156.9980642271635
 30
0.0
 11
16.5
 21
147.9980642271635
 31
0.0
  0
LINE
  8
DETAIL
  6
CONTINUOUS
 62
     5
 10
19.5
 20
144.9980642271635
 30
0.0
 11
38.5
 21
144.9980642271635
 31
0.0
  0
LINE
  8
DETAIL
  6
CONTINUOUS
 62
     5
 10
19.5
 20
159.9980642271635
 30
0.0
 11
38.5
 21
159.9980642271635
 31
0.0
  0
ARC
  8
DETAIL
  6
CONTINUOUS
 62
     5
 10
-98.076077922371041
 20
-74.399665862876191
 30
0.0
 40
5.6115379825028127
 50
189.7060234976731
 51
266.37879997280533
  0
ARC
  8
DETAIL
  6
CONTINUOUS
 62
     5
 10
-103.08434990776961
 20
-79.615577408904514
 30
0.0
 40
1.953841345761453
 50
191.34710068517461
 51
245.17868568926599
  0
ARC
  8
DETAIL
  6
CONTINUOUS
 62
     5
 10
-98.732934975543685
 20
-69.932950110393676
 30
0.0
 40
12.569208472719531
 50
245.70396245361661
 51
271.06187713310032
  0
ARC
  8
DETAIL
  6
CONTINUOUS
 62
     5
 10
98.076077922371041
 20
-74.399665862876191
 30
0.0
 40
5.6115379825028127
 50
273.62120002719467
 51
350.29397650232693
  0
ARC
  8
DETAIL
  6
CONTINUOUS
 62
     5
 10
103.08434990776961
 20
-79.615577408904514
 30
0.0
 40
1.953841345761453
 50
294.8213143107327
 51
348.65289931482539
  0
ARC
  8
DETAIL
  6
CONTINUOUS
 62
     5
 10
98.732934975543685
 20
-69.932950110393676
 30
0.0
 40
12.569208472719531
 50
268.93812286689968
 51
294.29603754639658
  0
LINE
  8
NOTE
  6
CONTINUOUS
 62
     4
 10
28.99999996821748
 20
100.8006084735634
 30
0.0
 11
28.999999968217939
 21
109.199391628074
 31
0.0
  0
LINE
  8
SIZE
  6
CONTINUOUS
 62
    30
 10
28.999999968217939
 20
129.19939162807401
 30
0.0
 11
28.999999968217939
 21
217.7018930414622
 31
0.0
  0
LINE
  8
SIZE
  6
CONTINUOUS
 62
    30
 10
0.0
 20
129.7929570428
 30
0.0
 11
0.0
 21
217.7018930414622
 31
0.0
  0
LINE
  8
SIZE
  6
CONTINUOUS
 62
    30
 10
40.999999968217942
 20
197.7018930414622
 30
0.0
 11
52.999999968217942
 21
197.7018930414622
 31
0.0
  0
LINE
  8
SIZE
  6
CONTINUOUS
 62
    30
 10
-12.0
 20
197.7018930414622
 30
0.0
 11
-24.0
 21
197.7018930414622
 31
0.0
  0
LINE
  8
SIZE
  6
CONTINUOUS
 62
    30
 10
28.999999968217939
 20
197.7018930414622
 30
0.0
 11
0.0
 21
197.7018930414622
 31
0.0
  0
CIRCLE
  8
SIZE
  6
CONTINUOUS
 62
    30
 10
28.999999968217939
 20
197.7018930414622
 30
0.0
 40
6.0
  0
LINE
  8
SIZE
  6
CONTINUOUS
 62
    30
 10
28.999999968217939
 20
197.7018930414622
 30
0.0
 11
40.999999968217942
 21
197.7018930414622
 31
0.0
  0
CIRCLE
  8
SIZE
  6
CONTINUOUS
 62
    30
 10
0.0
 20
197.7018930414622
 30
0.0
 40
6.0
  0
LINE
  8
SIZE
  6
CONTINUOUS
 62
    30
 10
0.0
 20
197.7018930414622
 30
0.0
 11
-12.0
 21
197.7018930414622
 31
0.0
  0
TEXT
  8
SIZE
  6
CONTINUOUS
 62
    30
 10
-30.75714287303401
 20
222.7018930414622
 30
0.0
 40
64.0
  1
29
 41
0.9
 72
     1
 11
14.49999998410885
 21
222.7018930414622
 31
0.0
  0
ENDSEC
  0
EOF
