  0
SECTION
  2
HEADER
  9
$ACADVER
  1
AC1009
  9
$DWGCODEPAGE
  3
dos932
  9
$INSBASE
 10
0.0
 20
0.0
 30
0.0
  9
$EXTMIN
 10
-313.60471940553538
 20
-225.26549096832241
 30
-0.0015258207003583
  9
$EXTMAX
 10
783.10548003425902
 20
545.0592120702604
 30
0.0000000349246037
  9
$LIMMIN
 10
-2970.0
 20
-2100.0
  9
$LIMMAX
 10
2970.0
 20
2100.0
  9
$ORTHOMODE
 70
     1
  9
$REGENMODE
 70
     1
  9
$FILLMODE
 70
     1
  9
$QTEXTMODE
 70
     0
  9
$MIRRTEXT
 70
     0
  9
$LTSCALE
 40
20.0
  9
$ATTMODE
 70
     1
  9
$TEXTSIZE
 40
64.0
  9
$TRACEWID
 40
0.05
  9
$TEXTSTYLE
  7
STANDARD
  9
$CLAYER
  8
SIZE
  9
$CELTYPE
  6
CONTINUOUS
  9
$CECOLOR
 62
     7
  9
$DIMSCALE
 40
1.0
  9
$DIMASZ
 40
12.0
  9
$DIMEXO
 40
20.0
  9
$DIMDLI
 40
200.0
  9
$DIMRND
 40
0.0
  9
$DIMDLE
 40
0.0
  9
$DIMEXE
 40
20.0
  9
$DIMTP
 40
0.0
  9
$DIMTM
 40
0.0
  9
$DIMTXT
 40
64.0
  9
$DIMCEN
 40
0.09
  9
$DIMTSZ
 40
0.0
  9
$DIMTOL
 70
     0
  9
$DIMLIM
 70
     0
  9
$DIMTIH
 70
     0
  9
$DIMTOH
 70
     0
  9
$DIMSE1
 70
     0
  9
$DIMSE2
 70
     0
  9
$DIMTAD
 70
     1
  9
$DIMZIN
 70
     8
  9
$DIMBLK
  1

  9
$DIMASO
 70
     1
  9
$DIMSHO
 70
     0
  9
$DIMPOST
  1

  9
$DIMAPOST
  1

  9
$DIMALT
 70
     0
  9
$DIMALTD
 70
     2
  9
$DIMALTF
 40
25.399999999999999
  9
$DIMLFAC
 40
1.0
  9
$DIMTOFL
 70
     1
  9
$DIMTVP
 40
0.0
  9
$DIMTIX
 70
     1
  9
$DIMSOXD
 70
     0
  9
$DIMSAH
 70
     0
  9
$DIMBLK1
  1

  9
$DIMBLK2
  1

  9
$DIMSTYLE
  2
STANDARD
  9
$DIMCLRD
 70
     7
  9
$DIMCLRE
 70
     7
  9
$DIMCLRT
 70
     7
  9
$DIMTFAC
 40
1.0
  9
$DIMGAP
 40
25.0
  9
$LUNITS
 70
     2
  9
$LUPREC
 70
     4
  9
$SKETCHINC
 40
0.1
  9
$FILLETRAD
 40
3.0
  9
$AUNITS
 70
     1
  9
$AUPREC
 70
     3
  9
$MENU
  1
ACAD
  9
$ELEVATION
 40
0.0
  9
$PELEVATION
 40
0.0
  9
$THICKNESS
 40
0.0
  9
$LIMCHECK
 70
     0
  9
$CHAMFERA
 40
0.0
  9
$CHAMFERB
 40
0.0
  9
$SKPOLY
 70
     0
  9
$TDCREATE
 40
2453019.623009259
  9
$TDUPDATE
 40
2459356.668854595
  9
$TDINDWG
 40
1.7261270949
  9
$TDUSRTIMER
 40
1.7261270949
  9
$USRTIMER
 70
     1
  9
$ANGBASE
 50
0.0
  9
$ANGDIR
 70
     0
  9
$PDMODE
 70
     3
  9
$PDSIZE
 40
-2.0
  9
$PLINEWID
 40
0.0
  9
$SPLFRAME
 70
     0
  9
$SPLINETYPE
 70
     6
  9
$SPLINESEGS
 70
     8
  9
$SURFTAB1
 70
     6
  9
$SURFTAB2
 70
     6
  9
$SURFTYPE
 70
     6
  9
$SURFU
 70
     6
  9
$SURFV
 70
     6
  9
$UCSNAME
  2

  9
$UCSORG
 10
0.0
 20
0.0
 30
0.0
  9
$UCSXDIR
 10
1.0
 20
0.0
 30
0.0
  9
$UCSYDIR
 10
0.0
 20
1.0
 30
0.0
  9
$PUCSNAME
  2

  9
$PUCSORG
 10
0.0
 20
0.0
 30
0.0
  9
$PUCSXDIR
 10
1.0
 20
0.0
 30
0.0
  9
$PUCSYDIR
 10
0.0
 20
1.0
 30
0.0
  9
$USERI1
 70
     0
  9
$USERI2
 70
     0
  9
$USERI3
 70
     0
  9
$USERI4
 70
     0
  9
$USERI5
 70
     0
  9
$USERR1
 40
20.0
  9
$USERR2
 40
0.0
  9
$USERR3
 40
0.0
  9
$USERR4
 40
0.0
  9
$USERR5
 40
0.0
  9
$WORLDVIEW
 70
     1
  9
$SHADEDGE
 70
     3
  9
$SHADEDIF
 70
    70
  9
$TILEMODE
 70
     1
  9
$MAXACTVP
 70
    48
  9
$PINSBASE
 10
0.0
 20
0.0
 30
0.0
  9
$PLIMCHECK
 70
     0
  9
$PEXTMIN
 10
-100000000000000000000.0
 20
-100000000000000000000.0
 30
-100000000000000000000.0
  9
$PEXTMAX
 10
100000000000000000000.0
 20
100000000000000000000.0
 30
100000000000000000000.0
  9
$PLIMMIN
 10
0.0
 20
0.0
  9
$PLIMMAX
 10
12.0
 20
9.0
  9
$UNITMODE
 70
     0
  9
$VISRETAIN
 70
     0
  9
$PLINEGEN
 70
     0
  9
$PSLTSCALE
 70
     0
  9
$TREEDEPTH
 70
  3020
  9
$ATTDIA
 70
     0
  9
$ATTREQ
 70
     1
  9
$BLIPMODE
 70
     1
  9
$COORDS
 70
     1
  9
$DRAGMODE
 70
     2
  9
$OSMODE
 70
     0
  9
$HANDLING
 70
     0
  9
$HANDSEED
  5
247
  0
ENDSEC
  0
SECTION
  2
TABLES
  0
TABLE
  2
LTYPE
 70
     2
  0
LTYPE
  2
CONTINUOUS
 70
     0
  3
実線
 72
    65
 73
     0
 40
0.0
  0
LTYPE
  2
DASHDOT
 70
     0
  3
____ _ ____ _ ____ _ ____ _ ____ _ ____ _ ____
 72
    65
 73
     4
 40
5.5
 49
4.0
 49
-0.6
 49
0.3
 49
-0.6
  0
ENDTAB
  0
TABLE
  2
LAYER
 70
    12
  0
LAYER
  2
SIZE
 70
     0
 62
    30
  6
CONTINUOUS
  0
LAYER
  2
BASIS
 70
     0
 62
     6
  6
DASHDOT
  0
LAYER
  2
OUTLINE
 70
     0
 62
     3
  6
CONTINUOUS
  0
LAYER
  2
DETAIL
 70
     0
 62
     5
  6
CONTINUOUS
  0
LAYER
  2
ARRANGE
 70
     0
 62
     1
  6
CONTINUOUS
  0
LAYER
  2
ETC
 70
     0
 62
    61
  6
CONTINUOUS
  0
LAYER
  2
FIX
 70
     0
 62
    11
  6
CONTINUOUS
  0
LAYER
  2
NOTE
 70
     0
 62
     4
  6
CONTINUOUS
  0
LAYER
  2
0
 70
    64
 62
     7
  6
CONTINUOUS
  0
LAYER
  2
DEFPOINTS
 70
    64
 62
     7
  6
CONTINUOUS
  0
LAYER
  2
SERVICESPACE
 70
    64
 62
     2
  6
DASHDOT
  0
LAYER
  2
SYMBOLLINE
 70
    64
 62
    15
  6
CONTINUOUS
  0
ENDTAB
  0
TABLE
  2
STYLE
 70
     1
  0
STYLE
  2
STANDARD
 70
     0
 40
64.0
 41
0.9
 50
0.0
 71
     0
 42
64.0
  3
SIMPLEX.shx
  4
BIGFONT.shx
  0
ENDTAB
  0
TABLE
  2
APPID
 70
    20
  0
APPID
  2
ACAD
 70
     0
  0
APPID
  2
ACADANNOTATIVE
 70
     0
  0
APPID
  2
AUTOCAD_POSTSCRIPT_FIGURE
 70
     0
  0
APPID
  2
ACAD_EXEMPT_FROM_CAD_STANDARDS
 70
     0
  0
APPID
  2
ACAD_PSEXT
 70
     0
  0
APPID
  2
ACAUTHENVIRON
 70
     0
  0
APPID
  2
GENIUS_GENOENT_13
 70
     0
  0
APPID
  2
GENIUS_GENCFG_13
 70
     0
  0
APPID
  2
GENIUS_GENCFG0_13
 70
     0
  0
APPID
  2
GENIUS_GENCFG1_13
 70
     0
  0
APPID
  2
GENIUS_GENCFG2_13
 70
     0
  0
APPID
  2
GENIUS_GENCFG3_13
 70
     0
  0
APPID
  2
GENIUS_GENCFG4_13
 70
     0
  0
APPID
  2
GENIUS_GEVCFG0_13
 70
     0
  0
APPID
  2
CONTENTBLOCKICON
 70
     0
  0
APPID
  2
CONTENTBLOCKDESCRIPTION
 70
     0
  0
APPID
  2
ACAD_NAV_VCDISPLAY
 70
     0
  0
APPID
  2
ACAD_MLEADERVER
 70
     0
  0
APPID
  2
ACDBDYNAMICBLOCKTRUENAME
 70
     0
  0
APPID
  2
ACDBDYNAMICBLOCKGUID
 70
     0
  0
ENDTAB
  0
TABLE
  2
DIMSTYLE
 70
     1
  0
DIMSTYLE
  2
STANDARD
 70
     0
  3

  4

  5

  6

  7

 40
1.0
 41
12.0
 42
20.0
 43
200.0
 44
20.0
 45
0.0
 46
0.0
 47
0.0
 48
0.0
140
64.0
141
0.09
142
0.0
143
25.399999999999999
144
1.0
145
0.0
146
1.0
147
25.0
 71
     0
 72
     0
 73
     0
 74
     0
 75
     0
 76
     0
 77
     1
 78
     8
170
     0
171
     2
172
     1
173
     0
174
     1
175
     0
176
     7
177
     7
178
     7
  0
ENDTAB
  0
TABLE
  2
VIEW
 70
     1
  0
VIEW
  2
ALL
 70
     0
 40
4282.6198079999986
 10
0.0
 20
41.309904000000003
 41
5940.0
 11
0.0
 21
0.0
 31
1.0
 12
0.0
 22
0.0
 32
0.0
 42
50.0
 43
0.0
 44
0.0
 50
0.0
 71
     0
  0
ENDTAB
  0
TABLE
  2
UCS
 70
     0
  0
ENDTAB
  0
TABLE
  2
VPORT
 70
     1
  0
VPORT
  2
*ACTIVE
 70
     0
 10
0.0
 20
0.0
 11
1.0
 21
1.0
 12
234.75038031436171
 22
159.896860550969
 13
0.0
 23
0.0
 14
1.0
 24
1.0
 15
0.0
 25
0.0
 16
0.0
 26
0.0
 36
1.0
 17
0.0
 27
0.0
 37
0.0
 40
649.8510259708778
 41
1.946595460614152
 42
50.0
 43
0.0
 44
0.0
 50
0.0
 51
0.0
 71
     0
 72
  1000
 73
     1
 74
     3
 75
     0
 76
     0
 77
     0
 78
     0
  0
ENDTAB
  0
ENDSEC
  0
SECTION
  2
BLOCKS
  0
ENDSEC
  0
SECTION
  2
ENTITIES
  0
TEXT
  8
ETC
  6
CONTINUOUS
 62
    61
 10
174.08151833102011
 20
480.74704090992441
 30
0.0
 40
64.0
  1
V-12PPVS8_3
 41
0.9
  0
TEXT
  8
ETC
  6
CONTINUOUS
 62
    61
 10
169.89552433101969
 20
362.79173089509322
 30
0.0
 40
64.0
  1
換気扇
 41
0.9
  0
CIRCLE
  8
ARRANGE
  6
CONTINUOUS
 62
     1
 10
0.0
 20
0.0
 30
0.0
 40
40.0
  0
POINT
  8
ARRANGE
  6
CONTINUOUS
 62
     1
 10
0.0
 20
0.0
 30
0.0
  0
LINE
  8
BASIS
  6
DASHDOT
 62
     6
 10
0.0
 20
-117.19520452774169
 30
0.0
 11
0.0
 21
117.19520452774169
 31
0.0
  0
LINE
  8
BASIS
  6
DASHDOT
 62
     6
 10
-125.4561247050906
 20
0.0
 30
0.0
 11
125.4561247050906
 21
0.0
 31
0.0
  0
TEXT
  8
ETC
  6
CONTINUOUS
 62
    61
 10
220.5969225795757
 20
254.64295800886791
 30
0.0
 40
40.0
  1
V-12PPVS8
 41
0.9
  0
LINE
  8
SIZE
  6
CONTINUOUS
 62
    30
 10
105.0
 20
121.0
 30
0.0
 11
105.0
 21
450.27809567038742
 31
0.0
  0
LINE
  8
SIZE
  6
CONTINUOUS
 62
    30
 10
-105.0
 20
121.0
 30
0.0
 11
-105.0
 21
450.27809567038742
 31
0.0
  0
LINE
  8
SIZE
  6
CONTINUOUS
 62
    30
 10
93.0
 20
430.27809567038742
 30
0.0
 11
-93.0
 21
430.27809567038742
 31
0.0
  0
CIRCLE
  8
SIZE
  6
CONTINUOUS
 62
    30
 10
105.0
 20
430.27809567038742
 30
0.0
 40
6.0
  0
LINE
  8
SIZE
  6
CONTINUOUS
 62
    30
 10
105.0
 20
430.27809567038742
 30
0.0
 11
93.0
 21
430.27809567038742
 31
0.0
  0
CIRCLE
  8
SIZE
  6
CONTINUOUS
 62
    30
 10
-105.0
 20
430.27809567038742
 30
0.0
 40
6.0
  0
LINE
  8
SIZE
  6
CONTINUOUS
 62
    30
 10
-105.0
 20
430.27809567038742
 30
0.0
 11
-93.0
 21
430.27809567038742
 31
0.0
  0
TEXT
  8
SIZE
  6
CONTINUOUS
 62
    30
 10
-105.0514285714286
 20
455.27809567038742
 30
0.0
 40
64.0
  1
□210
 41
0.9
 72
     1
 11
0.0
 21
455.27809567038742
 31
0.0
  0
LINE
  8
NOTE
  6
CONTINUOUS
 62
     4
 10
-28.99999999999994
 20
101.036828854305
 30
0.0
 11
-29.00000000000006
 21
109.4067603829412
 31
0.0
  0
LINE
  8
SIZE
  6
CONTINUOUS
 62
    30
 10
95.0
 20
34.0
 30
0.0
 11
95.0
 21
321.14374345079023
 31
0.0
  0
LINE
  8
SIZE
  6
CONTINUOUS
 62
    30
 10
-95.0
 20
34.0
 30
0.0
 11
-95.0
 21
321.14374345079023
 31
0.0
  0
LINE
  8
SIZE
  6
CONTINUOUS
 62
    30
 10
83.0
 20
301.14374345079023
 30
0.0
 11
-83.0
 21
301.14374345079023
 31
0.0
  0
CIRCLE
  8
SIZE
  6
CONTINUOUS
 62
    30
 10
95.0
 20
301.14374345079023
 30
0.0
 40
6.0
  0
LINE
  8
SIZE
  6
CONTINUOUS
 62
    30
 10
95.0
 20
301.14374345079023
 30
0.0
 11
83.0
 21
301.14374345079023
 31
0.0
  0
CIRCLE
  8
SIZE
  6
CONTINUOUS
 62
    30
 10
-95.0
 20
301.14374345079023
 30
0.0
 40
6.0
  0
LINE
  8
SIZE
  6
CONTINUOUS
 62
    30
 10
-95.0
 20
301.14374345079023
 30
0.0
 11
-83.0
 21
301.14374345079023
 31
0.0
  0
TEXT
  8
SIZE
  6
CONTINUOUS
 62
    30
 10
-68.571428571428569
 20
326.14374345079023
 30
0.0
 40
64.0
  1
190
 41
0.9
 72
     1
 11
0.0
 21
326.14374345079023
 31
0.0
  0
LINE
  8
SIZE
  6
CONTINUOUS
 62
    30
 10
-121.0
 20
105.0
 30
0.0
 11
-244.23160334727839
 21
105.0000000000001
 31
0.0
  0
LINE
  8
SIZE
  6
CONTINUOUS
 62
    30
 10
-145.45612470509059
 20
0.0
 30
0.0
 11
-244.23160334727851
 21
0.0000000000000284
 31
0.0
  0
LINE
  8
SIZE
  6
CONTINUOUS
 62
    30
 10
-224.23160334727839
 20
93.000000000000043
 30
0.0
 11
-224.23160334727851
 21
12.00000000000003
 31
0.0
  0
CIRCLE
  8
SIZE
  6
CONTINUOUS
 62
    30
 10
-224.23160334727839
 20
105.0000000000001
 30
0.0
 40
6.0
  0
LINE
  8
SIZE
  6
CONTINUOUS
 62
    30
 10
-224.23160334727839
 20
105.0000000000001
 30
0.0
 11
-224.23160334727839
 21
93.000000000000128
 31
0.0
  0
CIRCLE
  8
SIZE
  6
CONTINUOUS
 62
    30
 10
-224.23160334727851
 20
0.0000000000000284
 30
0.0
 40
6.0
  0
LINE
  8
SIZE
  6
CONTINUOUS
 62
    30
 10
-224.23160334727851
 20
0.0000000000000284
 30
0.0
 11
-224.23160334727851
 21
12.00000000000003
 31
0.0
  0
TEXT
  8
SIZE
  6
CONTINUOUS
 62
    30
 10
-249.23160334727851
 20
-16.071428571428569
 30
0.0
 40
64.0
  1
105
 50
90.0
 41
0.9
 72
     1
 11
-249.23160334727851
 21
52.5
 31
0.0
  0
LINE
  8
SIZE
  6
CONTINUOUS
 62
    30
 10
-121.7758918993293
 20
6.0
 30
0.0
 11
-182.66656734869321
 21
6.0000000000000284
 31
0.0
  0
LINE
  8
SIZE
  6
CONTINUOUS
 62
    30
 10
-145.45612470509059
 20
0.0
 30
0.0
 11
-182.66656734869321
 21
0.0000000000000284
 31
0.0
  0
LINE
  8
SIZE
  6
CONTINUOUS
 62
    30
 10
-162.66656734869321
 20
18.000000000000021
 30
0.0
 11
-162.66656734869321
 21
30.000000000000028
 31
0.0
  0
LINE
  8
SIZE
  6
CONTINUOUS
 62
    30
 10
-162.66656734869321
 20
-12.0
 30
0.0
 11
-162.66656734869321
 21
-141.56564785000009
 31
0.0
  0
LINE
  8
SIZE
  6
CONTINUOUS
 62
    30
 10
-162.66656734869321
 20
6.0000000000000284
 30
0.0
 11
-162.66656734869321
 21
0.0
 31
0.0
  0
CIRCLE
  8
SIZE
  6
CONTINUOUS
 62
    30
 10
-162.66656734869321
 20
6.0000000000000284
 30
0.0
 40
6.0
  0
LINE
  8
SIZE
  6
CONTINUOUS
 62
    30
 10
-162.66656734869321
 20
6.0000000000000284
 30
0.0
 11
-162.66656734869321
 21
18.000000000000021
 31
0.0
  0
CIRCLE
  8
SIZE
  6
CONTINUOUS
 62
    30
 10
-162.66656734869321
 20
0.0
 30
0.0
 40
6.0
  0
LINE
  8
SIZE
  6
CONTINUOUS
 62
    30
 10
-162.66656734869321
 20
0.0
 30
0.0
 11
-162.66656734869321
 21
-12.0
 31
0.0
  0
TEXT
  8
SIZE
  6
CONTINUOUS
 62
    30
 10
-187.66656734869321
 20
-116.5656478500001
 30
0.0
 40
64.0
  1
6
 50
90.0
 41
0.9
 72
     1
 11
-187.66656734869321
 21
-98.737076421428682
 31
0.0
  0
TEXT
  8
NOTE
  6
CONTINUOUS
 62
     4
 10
-256.26092014740698
 20
208.57304961496061
 30
0.0
 40
64.0
  1
EL
 41
0.9
 72
     2
 11
-171.2323487188356
 21
208.57304961496061
 31
0.0
  0
TEXT
  8
NOTE
  6
CONTINUOUS
 62
     4
 10
150.88974926201669
 20
-179.54325880809731
 30
0.0
 40
64.0
  1
2-φ4×10
 41
0.9
  0
LINE
  8
NOTE
  6
CONTINUOUS
 62
     4
 10
-33.505660528616531
 20
109.2759469700719
 30
0.0
 11
-29.0
 21
105.0
 31
0.0
  0
LINE
  8
NOTE
  6
CONTINUOUS
 62
     4
 10
-29.0
 20
105.0
 30
0.0
 11
-35.039992149082643
 21
106.4502393350824
 31
0.0
  0
LINE
  8
NOTE
  6
CONTINUOUS
 62
     4
 10
-29.0
 20
105.0
 30
0.0
 11
-39.545652677699131
 21
110.7261863051543
 31
0.0
  0
LINE
  8
NOTE
  6
CONTINUOUS
 62
     4
 10
-39.545652677699202
 20
110.7261863051543
 30
0.0
 11
-159.2323487188356
 21
176.57304961496061
 31
0.0
  0
LINE
  8
NOTE
  6
CONTINUOUS
 62
     4
 10
-159.2323487188356
 20
176.57304961496061
 30
0.0
 11
-256.26092014740698
 21
176.57304961496061
 31
0.0
  0
LINE
  8
NOTE
  6
CONTINUOUS
 62
     4
 10
94.599565639527782
 20
-0.198737904844279
 30
0.0
 11
95.0
 21
6.0
 31
0.0
  0
LINE
  8
NOTE
  6
CONTINUOUS
 62
     4
 10
95.0
 20
6.0
 30
0.0
 11
97.752591015090502
 21
0.4315224707606831
 31
0.0
  0
LINE
  8
NOTE
  6
CONTINUOUS
 62
     4
 10
95.0
 20
6.0
 30
0.0
 11
97.352156654618227
 21
-5.7672154340835959
 31
0.0
  0
LINE
  8
NOTE
  6
CONTINUOUS
 62
     4
 10
97.352156654618227
 20
-5.7672154340835959
 30
0.0
 11
141.19767935486331
 21
-225.14192236044141
 31
0.0
  0
LINE
  8
NOTE
  6
CONTINUOUS
 62
     4
 10
141.19767935486331
 20
-225.14192236044141
 30
0.0
 11
545.97482221200607
 21
-225.14192236044141
 31
0.0
  0
LINE
  8
DETAIL
  6
CONTINUOUS
 62
     5
 10
-105.0
 20
101.0
 30
0.0
 11
-105.0
 21
-100.9999999999998
 31
0.0
  0
LINE
  8
DETAIL
  6
CONTINUOUS
 62
     5
 10
-101.0
 20
105.0
 30
0.0
 11
101.0
 21
105.0
 31
0.0
  0
LINE
  8
DETAIL
  6
CONTINUOUS
 62
     5
 10
105.0
 20
-100.9999999999998
 30
0.0
 11
105.0
 21
101.0
 31
0.0
  0
LINE
  8
DETAIL
  6
CONTINUOUS
 62
     5
 10
-101.0
 20
-105.0
 30
0.0
 11
101.0
 21
-105.0
 31
0.0
  0
ARC
  8
DETAIL
  6
CONTINUOUS
 62
     5
 10
101.0
 20
-100.9999999999998
 30
0.0
 40
4.0000000000000027
 50
270.0
 51
0.0
  0
ARC
  8
DETAIL
  6
CONTINUOUS
 62
     5
 10
101.0
 20
101.0
 30
0.0
 40
3.9999999999999849
 50
0.0
 51
90.0
  0
ARC
  8
DETAIL
  6
CONTINUOUS
 62
     5
 10
-101.0
 20
101.0
 30
0.0
 40
4.0000000000000222
 50
90.0
 51
180.0
  0
ARC
  8
DETAIL
  6
CONTINUOUS
 62
     5
 10
-101.0
 20
-100.9999999999998
 30
0.0
 40
3.9999999999999849
 50
180.0
 51
270.0
  0
LINE
  8
DETAIL
  6
CONTINUOUS
 62
     5
 10
-93.0
 20
0.0
 30
0.0
 11
-93.0
 21
6.0
 31
0.0
  0
ARC
  8
DETAIL
  6
CONTINUOUS
 62
     5
 10
-95.0
 20
6.0
 30
0.0
 40
2.000000000000028
 50
0.0
 51
180.0
  0
LINE
  8
DETAIL
  6
CONTINUOUS
 62
     5
 10
-97.0
 20
0.0
 30
0.0
 11
-97.0
 21
6.0
 31
0.0
  0
ARC
  8
DETAIL
  6
CONTINUOUS
 62
     5
 10
-95.0
 20
0.0
 30
0.0
 40
2.000000000000028
 50
180.0
 51
0.0
  0
ARC
  8
DETAIL
  6
CONTINUOUS
 62
     5
 10
95.0
 20
0.0
 30
0.0
 40
1.9999999999999929
 50
180.0
 51
0.0
  0
LINE
  8
DETAIL
  6
CONTINUOUS
 62
     5
 10
97.0
 20
0.0
 30
0.0
 11
97.0
 21
6.0
 31
0.0
  0
ARC
  8
DETAIL
  6
CONTINUOUS
 62
     5
 10
95.0
 20
6.0
 30
0.0
 40
2.000000000000028
 50
0.0
 51
180.0
  0
LINE
  8
DETAIL
  6
CONTINUOUS
 62
     5
 10
93.0
 20
0.0
 30
0.0
 11
93.0
 21
6.0
 31
0.0
  0
LINE
  8
OUTLINE
  6
CONTINUOUS
 62
     3
 10
-105.0
 20
101.0
 30
0.0
 11
-105.0
 21
-100.9999999999998
 31
0.0
  0
LINE
  8
OUTLINE
  6
CONTINUOUS
 62
     3
 10
-101.0
 20
105.0
 30
0.0
 11
101.0
 21
105.0
 31
0.0
  0
LINE
  8
OUTLINE
  6
CONTINUOUS
 62
     3
 10
105.0
 20
-100.9999999999998
 30
0.0
 11
105.0
 21
101.0
 31
0.0
  0
LINE
  8
OUTLINE
  6
CONTINUOUS
 62
     3
 10
-101.0
 20
-105.0
 30
0.0
 11
101.0
 21
-105.0
 31
0.0
  0
ARC
  8
OUTLINE
  6
CONTINUOUS
 62
     3
 10
101.0
 20
-100.9999999999998
 30
0.0
 40
4.0000000000000027
 50
270.0
 51
0.0
  0
ARC
  8
OUTLINE
  6
CONTINUOUS
 62
     3
 10
101.0
 20
101.0
 30
0.0
 40
3.9999999999999849
 50
0.0
 51
90.0
  0
ARC
  8
OUTLINE
  6
CONTINUOUS
 62
     3
 10
-101.0
 20
101.0
 30
0.0
 40
4.0000000000000222
 50
90.0
 51
180.0
  0
ARC
  8
OUTLINE
  6
CONTINUOUS
 62
     3
 10
-101.0
 20
-100.9999999999998
 30
0.0
 40
3.9999999999999849
 50
180.0
 51
270.0
  0
LINE
  8
NOTE
  6
CONTINUOUS
 62
     4
 10
95.0
 20
-2.0
 30
0.0
 11
95.0
 21
14.0
 31
0.0
  0
LINE
  8
NOTE
  6
CONTINUOUS
 62
     4
 10
87.378220592641341
 20
6.0
 30
0.0
 11
102.6217794073586
 21
6.0
 31
0.0
  0
LINE
  8
NOTE
  6
CONTINUOUS
 62
     4
 10
-101.7758918993293
 20
6.0
 30
0.0
 11
-88.224108100670719
 21
6.0
 31
0.0
  0
LINE
  8
NOTE
  6
CONTINUOUS
 62
     4
 10
-95.0
 20
-2.0
 30
0.0
 11
-95.0
 21
14.0
 31
0.0
  0
CIRCLE
  8
FIX
  6
CONTINUOUS
 62
    11
 10
95.0
 20
6.0
 30
0.0
 40
5.0
  0
CIRCLE
  8
FIX
  6
CONTINUOUS
 62
    11
 10
-95.0
 20
6.0
 30
0.0
 40
5.0
  0
CIRCLE
  8
DETAIL
  6
CONTINUOUS
 62
     5
 10
0.0
 20
0.0
 30
0.0
 40
70.0
  0
LINE
  8
SIZE
  6
CONTINUOUS
 62
    30
 10
397.43398201095442
 20
103.7289197548936
 30
0.0
 11
79.342153865617732
 21
20.70803274008972
 31
0.0
  0
LINE
  8
SIZE
  6
CONTINUOUS
 62
    30
 10
-79.342153865617732
 20
-20.70803274008972
 30
0.0
 11
-90.953200772781315
 21
-23.738476555712619
 31
0.0
  0
TEXT
  8
SIZE
  6
CONTINUOUS
 62
    30
 10
170.0075207929882
 20
70.208849082639048
 30
0.0
 40
64.0
  1
φ140
 50
14.627688800495831
 41
0.9
 72
     1
 11
275.36947787056403
 21
97.707962106691383
 31
0.0
  0
LINE
  8
SIZE
  6
CONTINUOUS
 62
    30
 10
-67.731106958454177
 20
-17.67758892446685
 30
0.0
 11
67.731106958454177
 21
17.67758892446685
 31
0.0
  0
CIRCLE
  8
SIZE
  6
CONTINUOUS
 62
    30
 10
-67.731106958454177
 20
-17.67758892446685
 30
0.0
 40
6.0
  0
LINE
  8
SIZE
  6
CONTINUOUS
 62
    30
 10
-67.731106958454177
 20
-17.67758892446685
 30
0.0
 11
-79.342153865617774
 21
-20.70803274008972
 31
0.0
  0
CIRCLE
  8
SIZE
  6
CONTINUOUS
 62
    30
 10
67.731106958454177
 20
17.67758892446685
 30
0.0
 40
6.0
  0
LINE
  8
SIZE
  6
CONTINUOUS
 62
    30
 10
67.731106958454177
 20
17.67758892446685
 30
0.0
 11
79.342153865617774
 21
20.70803274008972
 31
0.0
  0
LINE
  8
DETAIL
  6
CONTINUOUS
 62
     5
 10
-43.000000000000448
 20
157.20510718436341
 30
0.0
 11
-43.000000000000448
 21
148.20510718436341
 31
0.0
  0
LINE
  8
DETAIL
  6
CONTINUOUS
 62
     5
 10
-43.000000000000448
 20
157.20510718436341
 30
0.0
 11
-43.000000000000448
 21
148.20510718436341
 31
0.0
  0
ARC
  8
DETAIL
  6
CONTINUOUS
 62
     5
 10
-27.649999999998268
 20
117.73065174665859
 30
0.0
 40
2.6999999999999522
 50
239.99999999994731
 51
299.99999999994719
  0
ARC
  8
DETAIL
  6
CONTINUOUS
 62
     5
 10
-30.349999999998541
 20
117.73065174666139
 30
0.0
 40
2.7000000000000068
 50
239.99999999994731
 51
299.99999999994719
  0
ARC
  8
DETAIL
  6
CONTINUOUS
 62
     5
 10
-30.350000000002179
 20
113.0541145662251
 30
0.0
 40
2.7000000000000068
 50
59.999999999947349
 51
119.99999999994721
  0
ARC
  8
DETAIL
  6
CONTINUOUS
 62
     5
 10
-27.649999999998268
 20
115.73705174472749
 30
0.0
 40
2.6999999999999522
 50
239.99999999994731
 51
299.99999999994719
  0
ARC
  8
DETAIL
  6
CONTINUOUS
 62
     5
 10
-27.650000000002361
 20
111.0605145642912
 30
0.0
 40
2.69999999999997
 50
59.999999999947349
 51
119.99999999994721
  0
ARC
  8
DETAIL
  6
CONTINUOUS
 62
     5
 10
-30.350000000002179
 20
111.060514564294
 30
0.0
 40
2.7000000000000068
 50
59.999999999947349
 51
119.99999999994721
  0
LINE
  8
DETAIL
  6
CONTINUOUS
 62
     5
 10
-26.300000000000171
 20
115.39238315643929
 30
0.0
 11
-26.300000000000171
 21
125.2051071843634
 31
0.0
  0
LINE
  8
DETAIL
  6
CONTINUOUS
 62
     5
 10
-26.300000000000171
 20
105.0
 30
0.0
 11
-26.300000000000171
 21
113.39878315450819
 31
0.0
  0
LINE
  8
DETAIL
  6
CONTINUOUS
 62
     5
 10
-31.700000000000269
 20
115.3923831564443
 30
0.0
 11
-31.700000000000731
 21
125.2051071843634
 31
0.0
  0
LINE
  8
DETAIL
  6
CONTINUOUS
 62
     5
 10
-31.700000000000269
 20
105.0
 30
0.0
 11
-31.700000000000269
 21
113.3987831545128
 31
0.0
  0
LINE
  8
DETAIL
  6
CONTINUOUS
 62
     5
 10
-29.0
 20
115.3923831564416
 30
0.0
 11
-29.000000000000451
 21
125.2051071843634
 31
0.0
  0
LINE
  8
DETAIL
  6
CONTINUOUS
 62
     5
 10
-23.11720271423064
 20
143.32986375667409
 30
0.0
 11
-24.220699321442229
 21
125.673918041286
 31
0.0
  0
LINE
  8
DETAIL
  6
CONTINUOUS
 62
     5
 10
-34.882797285769811
 20
143.32986375667409
 30
0.0
 11
-33.779300678557767
 21
125.673918041286
 31
0.0
  0
LINE
  8
DETAIL
  6
CONTINUOUS
 62
     5
 10
-29.000000000000451
 20
133.20510718436341
 30
0.0
 11
-34.250000000000448
 21
133.20510718436341
 31
0.0
  0
LINE
  8
DETAIL
  6
CONTINUOUS
 62
     5
 10
-23.843750000000451
 20
131.70510718436341
 30
0.0
 11
-29.000000000000451
 21
131.70510718436341
 31
0.0
  0
LINE
  8
DETAIL
  6
CONTINUOUS
 62
     5
 10
-29.000000000000451
 20
134.70510718436341
 30
0.0
 11
-29.000000000000451
 21
133.20510718436341
 31
0.0
  0
LINE
  8
DETAIL
  6
CONTINUOUS
 62
     5
 10
-29.000000000000451
 20
131.70510718436341
 30
0.0
 11
-29.000000000000451
 21
130.20510718436341
 31
0.0
  0
LINE
  8
DETAIL
  6
CONTINUOUS
 62
     5
 10
-29.0
 20
105.0
 30
0.0
 11
-29.000000000000451
 21
113.3987831545105
 31
0.0
  0
LINE
  8
DETAIL
  6
CONTINUOUS
 62
     5
 10
-29.000000000000451
 20
128.70510718436341
 30
0.0
 11
-29.000000000000451
 21
127.2051071843634
 31
0.0
  0
LINE
  8
DETAIL
  6
CONTINUOUS
 62
     5
 10
-29.000000000000451
 20
127.2051071843634
 30
0.0
 11
-33.875000000000448
 21
127.2051071843634
 31
0.0
  0
LINE
  8
DETAIL
  6
CONTINUOUS
 62
     5
 10
-29.000000000000451
 20
128.70510718436341
 30
0.0
 11
-33.968750000000448
 21
128.70510718436341
 31
0.0
  0
LINE
  8
DETAIL
  6
CONTINUOUS
 62
     5
 10
-23.937500000000451
 20
130.20510718436341
 30
0.0
 11
-29.000000000000451
 21
130.20510718436341
 31
0.0
  0
ARC
  8
DETAIL
  6
CONTINUOUS
 62
     5
 10
-24.71972561068424
 20
125.7051071843634
 30
0.0
 40
0.500000000000145
 50
270.0
 51
356.42366562499529
  0
ARC
  8
DETAIL
  6
CONTINUOUS
 62
     5
 10
-33.280274389316219
 20
125.7051071843634
 30
0.0
 40
0.5000000000000076
 50
183.57633437500459
 51
270.0
  0
LINE
  8
DETAIL
  6
CONTINUOUS
 62
     5
 10
-33.280274389316219
 20
125.2051071843634
 30
0.0
 11
-24.71972561068424
 21
125.2051071843634
 31
0.0
  0
LINE
  8
DETAIL
  6
CONTINUOUS
 62
     5
 10
-34.850000000000357
 20
155.8551071843635
 30
0.0
 11
-35.850000000000357
 21
155.8551071843635
 31
0.0
  0
LINE
  8
DETAIL
  6
CONTINUOUS
 62
     5
 10
-34.850000000000357
 20
149.55510718436341
 30
0.0
 11
-35.850000000000357
 21
149.55510718436341
 31
0.0
  0
LINE
  8
DETAIL
  6
CONTINUOUS
 62
     5
 10
-41.500000000000448
 20
148.20510718436341
 30
0.0
 11
-43.000000000000448
 21
148.20510718436341
 31
0.0
  0
LINE
  8
DETAIL
  6
CONTINUOUS
 62
     5
 10
-41.500000000000448
 20
157.20510718436341
 30
0.0
 11
-43.000000000000448
 21
157.20510718436341
 31
0.0
  0
LINE
  8
DETAIL
  6
CONTINUOUS
 62
     5
 10
-15.000000000000449
 20
157.20510718436341
 30
0.0
 11
-15.000000000000449
 21
148.20510718436341
 31
0.0
  0
LINE
  8
DETAIL
  6
CONTINUOUS
 62
     5
 10
-15.000000000000449
 20
157.20510718436341
 30
0.0
 11
-16.500000000000451
 21
157.20510718436341
 31
0.0
  0
LINE
  8
DETAIL
  6
CONTINUOUS
 62
     5
 10
-15.000000000000449
 20
148.20510718436341
 30
0.0
 11
-16.500000000000451
 21
148.20510718436341
 31
0.0
  0
LINE
  8
DETAIL
  6
CONTINUOUS
 62
     5
 10
-22.150000000000091
 20
155.8551071843635
 30
0.0
 11
-23.150000000000549
 21
155.8551071843635
 31
0.0
  0
LINE
  8
DETAIL
  6
CONTINUOUS
 62
     5
 10
-22.150000000000091
 20
149.55510718436341
 30
0.0
 11
-23.150000000000549
 21
149.55510718436341
 31
0.0
  0
LINE
  8
DETAIL
  6
CONTINUOUS
 62
     5
 10
-34.850000000000357
 20
155.8551071843635
 30
0.0
 11
-34.850000000000357
 21
149.55510718436341
 31
0.0
  0
LINE
  8
DETAIL
  6
CONTINUOUS
 62
     5
 10
-35.850000000000357
 20
155.8551071843635
 30
0.0
 11
-35.850000000000357
 21
149.55510718436341
 31
0.0
  0
LINE
  8
DETAIL
  6
CONTINUOUS
 62
     5
 10
-22.150000000000091
 20
155.8551071843635
 30
0.0
 11
-22.150000000000091
 21
149.55510718436341
 31
0.0
  0
LINE
  8
DETAIL
  6
CONTINUOUS
 62
     5
 10
-23.150000000000549
 20
155.8551071843635
 30
0.0
 11
-23.150000000000549
 21
149.55510718436341
 31
0.0
  0
ARC
  8
DETAIL
  6
CONTINUOUS
 62
     5
 10
-38.500000000000448
 20
157.20510718436341
 30
0.0
 40
3.000000000000008
 50
90.0
 51
180.0
  0
ARC
  8
DETAIL
  6
CONTINUOUS
 62
     5
 10
-38.500000000000448
 20
148.20510718436341
 30
0.0
 40
3.000000000000008
 50
180.0
 51
270.0
  0
ARC
  8
DETAIL
  6
CONTINUOUS
 62
     5
 10
-19.500000000000451
 20
148.20510718436341
 30
0.0
 40
2.999999999999972
 50
270.0
 51
0.0
  0
ARC
  8
DETAIL
  6
CONTINUOUS
 62
     5
 10
-19.500000000000451
 20
157.20510718436341
 30
0.0
 40
3.000000000000008
 50
0.0
 51
90.0
  0
LINE
  8
DETAIL
  6
CONTINUOUS
 62
     5
 10
-41.500000000000448
 20
157.20510718436341
 30
0.0
 11
-41.500000000000448
 21
148.20510718436341
 31
0.0
  0
LINE
  8
DETAIL
  6
CONTINUOUS
 62
     5
 10
-16.500000000000451
 20
157.20510718436341
 30
0.0
 11
-16.500000000000451
 21
148.20510718436341
 31
0.0
  0
LINE
  8
DETAIL
  6
CONTINUOUS
 62
     5
 10
-19.500000000000451
 20
145.20510718436341
 30
0.0
 11
-38.500000000000448
 21
145.20510718436341
 31
0.0
  0
LINE
  8
DETAIL
  6
CONTINUOUS
 62
     5
 10
-19.500000000000451
 20
160.20510718436341
 30
0.0
 11
-38.500000000000448
 21
160.20510718436341
 31
0.0
  0
ARC
  8
DETAIL
  6
CONTINUOUS
 62
     5
 10
-36.87890244273558
 20
143.20510718436341
 30
0.0
 40
1.9999999999999929
 50
3.5763343750046648
 51
90.0
  0
ARC
  8
DETAIL
  6
CONTINUOUS
 62
     5
 10
-21.121097557264871
 20
143.20510718436341
 30
0.0
 40
1.9999999999999929
 50
90.0
 51
176.42366562499529
  0
LINE
  8
DETAIL
  6
CONTINUOUS
 62
     5
 10
-29.000000000000451
 20
140.70510718436341
 30
0.0
 11
-34.718750000000448
 21
140.70510718436341
 31
0.0
  0
LINE
  8
DETAIL
  6
CONTINUOUS
 62
     5
 10
-29.000000000000451
 20
139.20510718436341
 30
0.0
 11
-34.625000000000448
 21
139.20510718436341
 31
0.0
  0
LINE
  8
DETAIL
  6
CONTINUOUS
 62
     5
 10
-23.46875
 20
137.70510718436341
 30
0.0
 11
-29.000000000000451
 21
137.70510718436341
 31
0.0
  0
LINE
  8
DETAIL
  6
CONTINUOUS
 62
     5
 10
-23.562500000000451
 20
136.20510718436341
 30
0.0
 11
-29.000000000000451
 21
136.20510718436341
 31
0.0
  0
LINE
  8
DETAIL
  6
CONTINUOUS
 62
     5
 10
-29.000000000000451
 20
134.70510718436341
 30
0.0
 11
-34.343750000000448
 21
134.70510718436341
 31
0.0
  0
LINE
  8
DETAIL
  6
CONTINUOUS
 62
     5
 10
-29.000000000000451
 20
140.70510718436341
 30
0.0
 11
-29.000000000000451
 21
139.20510718436341
 31
0.0
  0
LINE
  8
DETAIL
  6
CONTINUOUS
 62
     5
 10
-29.000000000000451
 20
137.70510718436341
 30
0.0
 11
-29.000000000000451
 21
136.20510718436341
 31
0.0
  0
LINE
  8
DETAIL
  6
CONTINUOUS
 62
     5
 10
-34.850000000000357
 20
155.8551071843635
 30
0.0
 11
-35.850000000000357
 21
155.8551071843635
 31
0.0
  0
LINE
  8
DETAIL
  6
CONTINUOUS
 62
     5
 10
-34.850000000000357
 20
149.55510718436341
 30
0.0
 11
-35.850000000000357
 21
149.55510718436341
 31
0.0
  0
LINE
  8
DETAIL
  6
CONTINUOUS
 62
     5
 10
-41.500000000000448
 20
148.20510718436341
 30
0.0
 11
-43.000000000000448
 21
148.20510718436341
 31
0.0
  0
LINE
  8
DETAIL
  6
CONTINUOUS
 62
     5
 10
-41.500000000000448
 20
157.20510718436341
 30
0.0
 11
-43.000000000000448
 21
157.20510718436341
 31
0.0
  0
LINE
  8
DETAIL
  6
CONTINUOUS
 62
     5
 10
-15.000000000000449
 20
157.20510718436341
 30
0.0
 11
-15.000000000000449
 21
148.20510718436341
 31
0.0
  0
LINE
  8
DETAIL
  6
CONTINUOUS
 62
     5
 10
-15.000000000000449
 20
157.20510718436341
 30
0.0
 11
-16.500000000000451
 21
157.20510718436341
 31
0.0
  0
LINE
  8
DETAIL
  6
CONTINUOUS
 62
     5
 10
-15.000000000000449
 20
148.20510718436341
 30
0.0
 11
-16.500000000000451
 21
148.20510718436341
 31
0.0
  0
LINE
  8
DETAIL
  6
CONTINUOUS
 62
     5
 10
-22.150000000000091
 20
155.8551071843635
 30
0.0
 11
-23.150000000000549
 21
155.8551071843635
 31
0.0
  0
LINE
  8
DETAIL
  6
CONTINUOUS
 62
     5
 10
-22.150000000000091
 20
149.55510718436341
 30
0.0
 11
-23.150000000000549
 21
149.55510718436341
 31
0.0
  0
LINE
  8
DETAIL
  6
CONTINUOUS
 62
     5
 10
-34.850000000000357
 20
155.8551071843635
 30
0.0
 11
-34.850000000000357
 21
149.55510718436341
 31
0.0
  0
LINE
  8
DETAIL
  6
CONTINUOUS
 62
     5
 10
-35.850000000000357
 20
155.8551071843635
 30
0.0
 11
-35.850000000000357
 21
149.55510718436341
 31
0.0
  0
LINE
  8
DETAIL
  6
CONTINUOUS
 62
     5
 10
-22.150000000000091
 20
155.8551071843635
 30
0.0
 11
-22.150000000000091
 21
149.55510718436341
 31
0.0
  0
LINE
  8
DETAIL
  6
CONTINUOUS
 62
     5
 10
-23.150000000000549
 20
155.8551071843635
 30
0.0
 11
-23.150000000000549
 21
149.55510718436341
 31
0.0
  0
ARC
  8
DETAIL
  6
CONTINUOUS
 62
     5
 10
-38.500000000000448
 20
157.20510718436341
 30
0.0
 40
3.000000000000008
 50
90.0
 51
180.0
  0
ARC
  8
DETAIL
  6
CONTINUOUS
 62
     5
 10
-38.500000000000448
 20
148.20510718436341
 30
0.0
 40
3.000000000000008
 50
180.0
 51
270.0
  0
ARC
  8
DETAIL
  6
CONTINUOUS
 62
     5
 10
-19.500000000000451
 20
148.20510718436341
 30
0.0
 40
2.999999999999972
 50
270.0
 51
0.0
  0
ARC
  8
DETAIL
  6
CONTINUOUS
 62
     5
 10
-19.500000000000451
 20
157.20510718436341
 30
0.0
 40
3.000000000000008
 50
0.0
 51
90.0
  0
LINE
  8
DETAIL
  6
CONTINUOUS
 62
     5
 10
-41.500000000000448
 20
157.20510718436341
 30
0.0
 11
-41.500000000000448
 21
148.20510718436341
 31
0.0
  0
LINE
  8
DETAIL
  6
CONTINUOUS
 62
     5
 10
-16.500000000000451
 20
157.20510718436341
 30
0.0
 11
-16.500000000000451
 21
148.20510718436341
 31
0.0
  0
LINE
  8
DETAIL
  6
CONTINUOUS
 62
     5
 10
-19.500000000000451
 20
145.20510718436341
 30
0.0
 11
-38.500000000000448
 21
145.20510718436341
 31
0.0
  0
LINE
  8
DETAIL
  6
CONTINUOUS
 62
     5
 10
-19.500000000000451
 20
160.20510718436341
 30
0.0
 11
-38.500000000000448
 21
160.20510718436341
 31
0.0
  0
LINE
  8
SIZE
  6
CONTINUOUS
 62
    30
 10
-28.99999996821839
 20
129.4064345852739
 30
0.0
 11
-28.99999996821839
 21
217.9089359986622
 31
0.0
  0
LINE
  8
SIZE
  6
CONTINUOUS
 62
    30
 10
-0.0000000000004547
 20
130.0
 30
0.0
 11
-0.0000000000004547
 21
217.9089359986622
 31
0.0
  0
LINE
  8
SIZE
  6
CONTINUOUS
 62
    30
 10
-40.99999996821839
 20
197.9089359986622
 30
0.0
 11
-52.999999968218397
 21
197.9089359986622
 31
0.0
  0
LINE
  8
SIZE
  6
CONTINUOUS
 62
    30
 10
11.999999999999551
 20
197.9089359986622
 30
0.0
 11
23.999999999999549
 21
197.9089359986622
 31
0.0
  0
LINE
  8
SIZE
  6
CONTINUOUS
 62
    30
 10
-28.99999996821839
 20
197.9089359986622
 30
0.0
 11
-0.0000000000004547
 21
197.9089359986622
 31
0.0
  0
CIRCLE
  8
SIZE
  6
CONTINUOUS
 62
    30
 10
-28.99999996821839
 20
197.9089359986622
 30
0.0
 40
6.0
  0
LINE
  8
SIZE
  6
CONTINUOUS
 62
    30
 10
-28.99999996821839
 20
197.9089359986622
 30
0.0
 11
-40.99999996821839
 21
197.9089359986622
 31
0.0
  0
CIRCLE
  8
SIZE
  6
CONTINUOUS
 62
    30
 10
-0.0000000000004547
 20
197.9089359986622
 30
0.0
 40
6.0
  0
LINE
  8
SIZE
  6
CONTINUOUS
 62
    30
 10
-0.0000000000004547
 20
197.9089359986622
 30
0.0
 11
11.999999999999551
 21
197.9089359986622
 31
0.0
  0
TEXT
  8
SIZE
  6
CONTINUOUS
 62
    30
 10
-59.757142841252268
 20
222.9089359986622
 30
0.0
 40
64.0
  1
29
 41
0.9
 72
     1
 11
-14.49999998410942
 21
222.9089359986622
 31
0.0
  0
ENDSEC
  0
EOF
