  0
SECTION
  2
HEADER
  9
$ACADVER
  1
AC1009
  9
$DWGCODEPAGE
  3
dos932
  9
$INSBASE
 10
0.0
 20
0.0
 30
0.0
  9
$EXTMIN
 10
-644.43052545472892
 20
-235.8398318009458
 30
-0.0015258207003583
  9
$EXTMAX
 10
735.52094628745726
 20
786.66687836715391
 30
0.0000000349246037
  9
$LIMMIN
 10
-2970.0
 20
-2100.0
  9
$LIMMAX
 10
2970.0
 20
2100.0
  9
$ORTHOMODE
 70
     1
  9
$REGENMODE
 70
     1
  9
$FILLMODE
 70
     1
  9
$QTEXTMODE
 70
     0
  9
$MIRRTEXT
 70
     0
  9
$LTSCALE
 40
20.0
  9
$ATTMODE
 70
     1
  9
$TEXTSIZE
 40
64.0
  9
$TRACEWID
 40
0.05
  9
$TEXTSTYLE
  7
STANDARD
  9
$CLAYER
  8
SIZE
  9
$CELTYPE
  6
CONTINUOUS
  9
$CECOLOR
 62
     7
  9
$DIMSCALE
 40
1.0
  9
$DIMASZ
 40
12.0
  9
$DIMEXO
 40
20.0
  9
$DIMDLI
 40
200.0
  9
$DIMRND
 40
0.0
  9
$DIMDLE
 40
0.0
  9
$DIMEXE
 40
20.0
  9
$DIMTP
 40
0.0
  9
$DIMTM
 40
0.0
  9
$DIMTXT
 40
64.0
  9
$DIMCEN
 40
0.09
  9
$DIMTSZ
 40
0.0
  9
$DIMTOL
 70
     0
  9
$DIMLIM
 70
     0
  9
$DIMTIH
 70
     0
  9
$DIMTOH
 70
     0
  9
$DIMSE1
 70
     0
  9
$DIMSE2
 70
     0
  9
$DIMTAD
 70
     1
  9
$DIMZIN
 70
     8
  9
$DIMBLK
  1

  9
$DIMASO
 70
     1
  9
$DIMSHO
 70
     0
  9
$DIMPOST
  1

  9
$DIMAPOST
  1

  9
$DIMALT
 70
     0
  9
$DIMALTD
 70
     2
  9
$DIMALTF
 40
25.399999999999999
  9
$DIMLFAC
 40
1.0
  9
$DIMTOFL
 70
     1
  9
$DIMTVP
 40
0.0
  9
$DIMTIX
 70
     1
  9
$DIMSOXD
 70
     0
  9
$DIMSAH
 70
     0
  9
$DIMBLK1
  1

  9
$DIMBLK2
  1

  9
$DIMSTYLE
  2
STANDARD
  9
$DIMCLRD
 70
     7
  9
$DIMCLRE
 70
     7
  9
$DIMCLRT
 70
     7
  9
$DIMTFAC
 40
1.0
  9
$DIMGAP
 40
25.0
  9
$LUNITS
 70
     2
  9
$LUPREC
 70
     4
  9
$SKETCHINC
 40
0.1
  9
$FILLETRAD
 40
3.0
  9
$AUNITS
 70
     1
  9
$AUPREC
 70
     3
  9
$MENU
  1
ACAD
  9
$ELEVATION
 40
0.0
  9
$PELEVATION
 40
0.0
  9
$THICKNESS
 40
0.0
  9
$LIMCHECK
 70
     0
  9
$CHAMFERA
 40
0.0
  9
$CHAMFERB
 40
0.0
  9
$SKPOLY
 70
     0
  9
$TDCREATE
 40
2453019.623009259
  9
$TDUPDATE
 40
2459356.668941979
  9
$TDINDWG
 40
1.7264395949
  9
$TDUSRTIMER
 40
1.7264395949
  9
$USRTIMER
 70
     1
  9
$ANGBASE
 50
0.0
  9
$ANGDIR
 70
     0
  9
$PDMODE
 70
     3
  9
$PDSIZE
 40
-2.0
  9
$PLINEWID
 40
0.0
  9
$SPLFRAME
 70
     0
  9
$SPLINETYPE
 70
     6
  9
$SPLINESEGS
 70
     8
  9
$SURFTAB1
 70
     6
  9
$SURFTAB2
 70
     6
  9
$SURFTYPE
 70
     6
  9
$SURFU
 70
     6
  9
$SURFV
 70
     6
  9
$UCSNAME
  2

  9
$UCSORG
 10
0.0
 20
0.0
 30
0.0
  9
$UCSXDIR
 10
1.0
 20
0.0
 30
0.0
  9
$UCSYDIR
 10
0.0
 20
1.0
 30
0.0
  9
$PUCSNAME
  2

  9
$PUCSORG
 10
0.0
 20
0.0
 30
0.0
  9
$PUCSXDIR
 10
1.0
 20
0.0
 30
0.0
  9
$PUCSYDIR
 10
0.0
 20
1.0
 30
0.0
  9
$USERI1
 70
     0
  9
$USERI2
 70
     0
  9
$USERI3
 70
     0
  9
$USERI4
 70
     0
  9
$USERI5
 70
     0
  9
$USERR1
 40
20.0
  9
$USERR2
 40
0.0
  9
$USERR3
 40
0.0
  9
$USERR4
 40
0.0
  9
$USERR5
 40
0.0
  9
$WORLDVIEW
 70
     1
  9
$SHADEDGE
 70
     3
  9
$SHADEDIF
 70
    70
  9
$TILEMODE
 70
     1
  9
$MAXACTVP
 70
    48
  9
$PINSBASE
 10
0.0
 20
0.0
 30
0.0
  9
$PLIMCHECK
 70
     0
  9
$PEXTMIN
 10
-100000000000000000000.0
 20
-100000000000000000000.0
 30
-100000000000000000000.0
  9
$PEXTMAX
 10
100000000000000000000.0
 20
100000000000000000000.0
 30
100000000000000000000.0
  9
$PLIMMIN
 10
0.0
 20
0.0
  9
$PLIMMAX
 10
12.0
 20
9.0
  9
$UNITMODE
 70
     0
  9
$VISRETAIN
 70
     0
  9
$PLINEGEN
 70
     0
  9
$PSLTSCALE
 70
     0
  9
$TREEDEPTH
 70
  3020
  9
$ATTDIA
 70
     0
  9
$ATTREQ
 70
     1
  9
$BLIPMODE
 70
     1
  9
$COORDS
 70
     1
  9
$DRAGMODE
 70
     2
  9
$OSMODE
 70
     0
  9
$HANDLING
 70
     0
  9
$HANDSEED
  5
563
  0
ENDSEC
  0
SECTION
  2
TABLES
  0
TABLE
  2
LTYPE
 70
     3
  0
LTYPE
  2
CONTINUOUS
 70
     0
  3
実線
 72
    65
 73
     0
 40
0.0
  0
LTYPE
  2
DASHDOT
 70
     0
  3
____ _ ____ _ ____ _ ____ _ ____ _ ____ _ ____
 72
    65
 73
     4
 40
5.5
 49
4.0
 49
-0.6
 49
0.3
 49
-0.6
  0
LTYPE
  2
DASHED
 70
     0
  3
-- -- -- -- -- -- -- -- -- -- -- -- -- -- --
 72
    65
 73
     2
 40
0.75
 49
0.5
 49
-0.25
  0
ENDTAB
  0
TABLE
  2
LAYER
 70
    12
  0
LAYER
  2
SIZE
 70
     0
 62
    30
  6
CONTINUOUS
  0
LAYER
  2
BASIS
 70
     0
 62
     6
  6
DASHDOT
  0
LAYER
  2
OUTLINE
 70
     0
 62
     3
  6
CONTINUOUS
  0
LAYER
  2
DETAIL
 70
     0
 62
     5
  6
CONTINUOUS
  0
LAYER
  2
ARRANGE
 70
     0
 62
     1
  6
CONTINUOUS
  0
LAYER
  2
ETC
 70
     0
 62
    61
  6
CONTINUOUS
  0
LAYER
  2
FIX
 70
     0
 62
    11
  6
CONTINUOUS
  0
LAYER
  2
NOTE
 70
     0
 62
     4
  6
CONTINUOUS
  0
LAYER
  2
0
 70
    64
 62
     7
  6
CONTINUOUS
  0
LAYER
  2
DEFPOINTS
 70
    64
 62
     7
  6
CONTINUOUS
  0
LAYER
  2
SERVICESPACE
 70
    64
 62
     2
  6
DASHDOT
  0
LAYER
  2
SYMBOLLINE
 70
    64
 62
    15
  6
CONTINUOUS
  0
ENDTAB
  0
TABLE
  2
STYLE
 70
     1
  0
STYLE
  2
STANDARD
 70
     0
 40
64.0
 41
0.9
 50
0.0
 71
     0
 42
64.0
  3
SIMPLEX.shx
  4
BIGFONT.shx
  0
ENDTAB
  0
TABLE
  2
APPID
 70
    20
  0
APPID
  2
ACAD
 70
     0
  0
APPID
  2
ACADANNOTATIVE
 70
     0
  0
APPID
  2
AUTOCAD_POSTSCRIPT_FIGURE
 70
     0
  0
APPID
  2
ACAD_EXEMPT_FROM_CAD_STANDARDS
 70
     0
  0
APPID
  2
ACAD_PSEXT
 70
     0
  0
APPID
  2
ACAUTHENVIRON
 70
     0
  0
APPID
  2
GENIUS_GENOENT_13
 70
     0
  0
APPID
  2
GENIUS_GENCFG_13
 70
     0
  0
APPID
  2
GENIUS_GENCFG0_13
 70
     0
  0
APPID
  2
GENIUS_GENCFG1_13
 70
     0
  0
APPID
  2
GENIUS_GENCFG2_13
 70
     0
  0
APPID
  2
GENIUS_GENCFG3_13
 70
     0
  0
APPID
  2
GENIUS_GENCFG4_13
 70
     0
  0
APPID
  2
GENIUS_GEVCFG0_13
 70
     0
  0
APPID
  2
CONTENTBLOCKICON
 70
     0
  0
APPID
  2
CONTENTBLOCKDESCRIPTION
 70
     0
  0
APPID
  2
ACAD_NAV_VCDISPLAY
 70
     0
  0
APPID
  2
ACAD_MLEADERVER
 70
     0
  0
APPID
  2
ACDBDYNAMICBLOCKTRUENAME
 70
     0
  0
APPID
  2
ACDBDYNAMICBLOCKGUID
 70
     0
  0
ENDTAB
  0
TABLE
  2
DIMSTYLE
 70
     1
  0
DIMSTYLE
  2
STANDARD
 70
     0
  3

  4

  5

  6

  7

 40
1.0
 41
12.0
 42
20.0
 43
200.0
 44
20.0
 45
0.0
 46
0.0
 47
0.0
 48
0.0
140
64.0
141
0.09
142
0.0
143
25.399999999999999
144
1.0
145
0.0
146
1.0
147
25.0
 71
     0
 72
     0
 73
     0
 74
     0
 75
     0
 76
     0
 77
     1
 78
     8
170
     0
171
     2
172
     1
173
     0
174
     1
175
     0
176
     7
177
     7
178
     7
  0
ENDTAB
  0
TABLE
  2
VIEW
 70
     1
  0
VIEW
  2
ALL
 70
     0
 40
4282.6198079999986
 10
0.0
 20
41.309904000000003
 41
5940.0
 11
0.0
 21
0.0
 31
1.0
 12
0.0
 22
0.0
 32
0.0
 42
50.0
 43
0.0
 44
0.0
 50
0.0
 71
     0
  0
ENDTAB
  0
TABLE
  2
UCS
 70
     0
  0
ENDTAB
  0
TABLE
  2
VPORT
 70
     1
  0
VPORT
  2
*ACTIVE
 70
     0
 10
0.0
 20
0.0
 11
1.0
 21
1.0
 12
45.545210416364171
 22
275.41352328310398
 13
0.0
 23
0.0
 14
1.0
 24
1.0
 15
0.0
 25
0.0
 16
0.0
 26
0.0
 36
1.0
 17
0.0
 27
0.0
 37
0.0
 40
802.78696047101846
 41
2.0172166427546632
 42
50.0
 43
0.0
 44
0.0
 50
0.0
 51
0.0
 71
     0
 72
  1000
 73
     1
 74
     3
 75
     0
 76
     0
 77
     0
 78
     0
  0
ENDTAB
  0
ENDSEC
  0
SECTION
  2
BLOCKS
  0
ENDSEC
  0
SECTION
  2
ENTITIES
  0
TEXT
  8
ETC
  6
CONTINUOUS
 62
    61
 10
126.47422871600109
 20
722.50824119711365
 30
0.0
 40
64.0
  1
V-12PPVS8_5
 41
0.9
  0
TEXT
  8
ETC
  6
CONTINUOUS
 62
    61
 10
122.2882347160007
 20
604.55293118228246
 30
0.0
 40
64.0
  1
換気扇
 41
0.9
  0
LINE
  8
BASIS
  6
DASHDOT
 62
     6
 10
0.0
 20
-123.2481241666499
 30
0.0
 11
0.0
 21
167.84492290466321
 31
0.0
  0
LINE
  8
BASIS
  6
DASHDOT
 62
     6
 10
73.363129061615808
 20
0.0
 30
0.0
 11
-179.2035552388088
 21
0.0
 31
0.0
  0
TEXT
  8
ETC
  6
CONTINUOUS
 62
    61
 10
172.98963296455671
 20
496.40415829605718
 30
0.0
 40
40.0
  1
V-12PPVS8
 41
0.9
  0
LINE
  8
SIZE
  6
CONTINUOUS
 62
    30
 10
0.0
 20
187.84492290466321
 30
0.0
 11
0.0
 21
384.27041737072648
 31
0.0
  0
LINE
  8
SIZE
  6
CONTINUOUS
 62
    30
 10
61.82275957371462
 20
35.410625554748542
 30
0.0
 11
61.82275957371462
 21
384.27041737072648
 31
0.0
  0
LINE
  8
SIZE
  6
CONTINUOUS
 62
    30
 10
-12.0
 20
364.27041737072648
 30
0.0
 11
-24.0
 21
364.27041737072648
 31
0.0
  0
LINE
  8
SIZE
  6
CONTINUOUS
 62
    30
 10
73.822759573714677
 20
364.27041737072648
 30
0.0
 11
229.07990243085749
 21
364.27041737072648
 31
0.0
  0
LINE
  8
SIZE
  6
CONTINUOUS
 62
    30
 10
0.0
 20
364.27041737072648
 30
0.0
 11
61.82275957371462
 21
364.27041737072648
 31
0.0
  0
CIRCLE
  8
SIZE
  6
CONTINUOUS
 62
    30
 10
0.0
 20
364.27041737072648
 30
0.0
 40
6.0
  0
LINE
  8
SIZE
  6
CONTINUOUS
 62
    30
 10
0.0
 20
364.27041737072648
 30
0.0
 11
-12.0
 21
364.27041737072648
 31
0.0
  0
CIRCLE
  8
SIZE
  6
CONTINUOUS
 62
    30
 10
61.82275957371462
 20
364.27041737072648
 30
0.0
 40
6.0
  0
LINE
  8
SIZE
  6
CONTINUOUS
 62
    30
 10
61.82275957371462
 20
364.27041737072648
 30
0.0
 11
73.822759573714677
 21
364.27041737072648
 31
0.0
  0
TEXT
  8
SIZE
  6
CONTINUOUS
 62
    30
 10
110.82275957371471
 20
389.27041737072648
 30
0.0
 40
64.0
  1
62
 41
0.9
 72
     1
 11
157.45133100228611
 21
389.27041737072648
 31
0.0
  0
LINE
  8
NOTE
  6
CONTINUOUS
 62
     4
 10
-59.699999999999761
 20
68.656268211280121
 30
0.0
 11
-59.699999999999847
 21
77.02619973991635
 31
0.0
  0
LINE
  8
SIZE
  6
CONTINUOUS
 62
    30
 10
-59.699999999999818
 20
99.318232138800127
 30
0.0
 11
-59.699999999999818
 21
242.17066438223901
 31
0.0
  0
LINE
  8
SIZE
  6
CONTINUOUS
 62
    30
 10
0.0
 20
187.84492290466321
 30
0.0
 11
0.0
 21
242.17066438223901
 31
0.0
  0
LINE
  8
SIZE
  6
CONTINUOUS
 62
    30
 10
-71.699999999999804
 20
222.17066438223901
 30
0.0
 11
-83.699999999999804
 21
222.17066438223901
 31
0.0
  0
LINE
  8
SIZE
  6
CONTINUOUS
 62
    30
 10
12.0
 20
222.17066438223901
 30
0.0
 11
201.5606186874293
 21
222.17066438223901
 31
0.0
  0
LINE
  8
SIZE
  6
CONTINUOUS
 62
    30
 10
-59.699999999999818
 20
222.17066438223901
 30
0.0
 11
0.0
 21
222.17066438223901
 31
0.0
  0
CIRCLE
  8
SIZE
  6
CONTINUOUS
 62
    30
 10
-59.699999999999818
 20
222.17066438223901
 30
0.0
 40
6.0
  0
LINE
  8
SIZE
  6
CONTINUOUS
 62
    30
 10
-59.699999999999818
 20
222.17066438223901
 30
0.0
 11
-71.699999999999804
 21
222.17066438223901
 31
0.0
  0
CIRCLE
  8
SIZE
  6
CONTINUOUS
 62
    30
 10
0.0
 20
222.17066438223901
 30
0.0
 40
6.0
  0
LINE
  8
SIZE
  6
CONTINUOUS
 62
    30
 10
0.0
 20
222.17066438223901
 30
0.0
 11
12.0
 21
222.17066438223901
 31
0.0
  0
TEXT
  8
SIZE
  6
CONTINUOUS
 62
    30
 10
83.303475830286473
 20
247.17066438223901
 30
0.0
 40
64.0
  1
60
 41
0.9
 72
     1
 11
129.93204725885789
 21
247.17066438223901
 31
0.0
  0
TEXT
  8
NOTE
  6
CONTINUOUS
 62
     4
 10
-289.61180110622888
 20
241.07849150351959
 30
0.0
 40
64.0
  1
EL
 41
0.9
 72
     2
 11
-204.5832296776575
 21
241.07849150351959
 31
0.0
  0
TEXT
  8
NOTE
  6
CONTINUOUS
 62
     4
 10
-492.84608320773413
 20
-189.9737711578683
 30
0.0
 40
64.0
  1
2-φ4×10
 41
0.9
 72
     2
 11
-91.291797493448485
 21
-189.9737711578683
 31
0.0
  0
LINE
  8
NOTE
  6
CONTINUOUS
 62
     4
 10
-4.505660528616545
 20
108.94109620763
 30
0.0
 11
0.0
 21
104.6651492375581
 31
0.0
  0
LINE
  8
NOTE
  6
CONTINUOUS
 62
     4
 10
0.0
 20
104.6651492375581
 30
0.0
 11
-6.03999214908265
 21
106.1153885726405
 31
0.0
  0
LINE
  8
NOTE
  6
CONTINUOUS
 62
     4
 10
0.0
 20
104.6651492375581
 30
0.0
 11
-10.54565267769917
 21
110.3913355427124
 31
0.0
  0
LINE
  8
NOTE
  6
CONTINUOUS
 62
     4
 10
-10.54565267769914
 20
110.3913355427124
 30
0.0
 11
-192.5832296776575
 21
209.0784915035193
 31
0.0
  0
LINE
  8
NOTE
  6
CONTINUOUS
 62
     4
 10
-192.5832296776575
 20
209.0784915035193
 30
0.0
 11
-289.61180110622888
 21
209.0784915035193
 31
0.0
  0
LINE
  8
NOTE
  6
CONTINUOUS
 62
     4
 10
-0.4024975931202164
 20
-0.1986042765717144
 30
0.0
 11
0.0
 21
5.9999999999999432
 31
0.0
  0
LINE
  8
NOTE
  6
CONTINUOUS
 62
     4
 10
0.0
 20
5.9999999999999432
 30
0.0
 11
-3.4478830651136718
 21
0.8331052208020537
 31
0.0
  0
LINE
  8
NOTE
  6
CONTINUOUS
 62
     4
 10
0.0
 20
5.9999999999999432
 30
0.0
 11
-3.8503806582338882
 21
-5.3654990557696038
 31
0.0
  0
LINE
  8
NOTE
  6
CONTINUOUS
 62
     4
 10
-3.8503806582338602
 20
-5.3654990557696038
 30
0.0
 11
-81.599727586295089
 21
-235.57243471021229
 31
0.0
  0
LINE
  8
NOTE
  6
CONTINUOUS
 62
     4
 10
-81.599727586295089
 20
-235.57243471021229
 30
0.0
 11
-486.37687044343772
 21
-235.57243471021229
 31
0.0
  0
LINE
  8
SIZE
  6
CONTINUOUS
 62
    30
 10
-87.199999999999804
 20
87.285565362699813
 30
0.0
 11
-87.199999999999804
 21
384.27041737072648
 31
0.0
  0
LINE
  8
SIZE
  6
CONTINUOUS
 62
    30
 10
0.0
 20
187.84492290466321
 30
0.0
 11
0.0
 21
384.27041737072648
 31
0.0
  0
LINE
  8
SIZE
  6
CONTINUOUS
 62
    30
 10
-75.199999999999804
 20
364.27041737072648
 30
0.0
 11
-12.0
 21
364.27041737072648
 31
0.0
  0
CIRCLE
  8
SIZE
  6
CONTINUOUS
 62
    30
 10
-87.199999999999804
 20
364.27041737072648
 30
0.0
 40
6.0
  0
LINE
  8
SIZE
  6
CONTINUOUS
 62
    30
 10
-87.199999999999804
 20
364.27041737072648
 30
0.0
 11
-75.199999999999804
 21
364.27041737072648
 31
0.0
  0
CIRCLE
  8
SIZE
  6
CONTINUOUS
 62
    30
 10
0.0
 20
364.27041737072648
 30
0.0
 40
6.0
  0
LINE
  8
SIZE
  6
CONTINUOUS
 62
    30
 10
0.0
 20
364.27041737072648
 30
0.0
 11
-12.0
 21
364.27041737072648
 31
0.0
  0
TEXT
  8
SIZE
  6
CONTINUOUS
 62
    30
 10
-90.228571428571342
 20
389.27041737072648
 30
0.0
 40
64.0
  1
87
 41
0.9
 72
     1
 11
-43.599999999999902
 21
389.27041737072648
 31
0.0
  0
LINE
  8
SIZE
  6
CONTINUOUS
 62
    30
 10
-20.0
 20
69.716727307831434
 30
0.0
 11
-564.32930246635158
 21
69.716727307831604
 31
0.0
  0
LINE
  8
SIZE
  6
CONTINUOUS
 62
    30
 10
-20.0
 20
-69.811447054151586
 30
0.0
 11
-564.32930246635158
 21
-69.811447054151429
 31
0.0
  0
LINE
  8
SIZE
  6
CONTINUOUS
 62
    30
 10
-544.32930246635169
 20
-57.811447054151436
 30
0.0
 11
-544.32930246635169
 21
57.716727307831583
 31
0.0
  0
LINE
  8
SIZE
  6
CONTINUOUS
 62
    30
 10
-544.32930246635169
 20
69.716727307831604
 30
0.0
 11
-544.32930246635158
 21
329.20244159354593
 31
0.0
  0
CIRCLE
  8
SIZE
  6
CONTINUOUS
 62
    30
 10
-544.32930246635169
 20
-69.811447054151429
 30
0.0
 40
6.0
  0
LINE
  8
SIZE
  6
CONTINUOUS
 62
    30
 10
-544.32930246635169
 20
-69.811447054151429
 30
0.0
 11
-544.32930246635169
 21
-57.811447054151429
 31
0.0
  0
CIRCLE
  8
SIZE
  6
CONTINUOUS
 62
    30
 10
-544.32930246635169
 20
69.716727307831604
 30
0.0
 40
6.0
  0
LINE
  8
SIZE
  6
CONTINUOUS
 62
    30
 10
-544.32930246635169
 20
69.716727307831604
 30
0.0
 11
-544.32930246635169
 21
57.716727307831597
 31
0.0
  0
TEXT
  8
SIZE
  6
CONTINUOUS
 62
    30
 10
-579.99596913301832
 20
96.568155879260146
 30
0.0
 40
64.0
  1
φ140
 50
90.0
 41
0.9
 72
     1
 11
-579.99596913301832
 21
205.45958445068871
 31
0.0
  0
LINE
  8
SIZE
  6
CONTINUOUS
 62
    30
 10
20.30523572199991
 20
104.96510354610341
 30
0.0
 11
372.47547677674493
 21
104.96510354610329
 31
0.0
  0
LINE
  8
SIZE
  6
CONTINUOUS
 62
    30
 10
20.30523572199991
 20
-105.02424063519651
 30
0.0
 11
372.47547677674493
 21
-105.02424063519661
 31
0.0
  0
LINE
  8
SIZE
  6
CONTINUOUS
 62
    30
 10
352.47547677674493
 20
-93.024240635196648
 30
0.0
 11
352.47547677674493
 21
92.965103546103236
 31
0.0
  0
LINE
  8
SIZE
  6
CONTINUOUS
 62
    30
 10
352.47547677674493
 20
104.96510354610329
 30
0.0
 11
352.47547677674493
 21
369.3879606889605
 31
0.0
  0
CIRCLE
  8
SIZE
  6
CONTINUOUS
 62
    30
 10
352.47547677674493
 20
-105.02424063519661
 30
0.0
 40
6.0
  0
LINE
  8
SIZE
  6
CONTINUOUS
 62
    30
 10
352.47547677674493
 20
-105.02424063519661
 30
0.0
 11
352.47547677674493
 21
-93.024240635196591
 31
0.0
  0
CIRCLE
  8
SIZE
  6
CONTINUOUS
 62
    30
 10
352.47547677674493
 20
104.96510354610329
 30
0.0
 40
6.0
  0
LINE
  8
SIZE
  6
CONTINUOUS
 62
    30
 10
352.47547677674493
 20
104.96510354610329
 30
0.0
 11
352.47547677674493
 21
92.965103546103308
 31
0.0
  0
TEXT
  8
SIZE
  6
CONTINUOUS
 62
    30
 10
327.47547677674493
 20
138.1251035461033
 30
0.0
 40
64.0
  1
□210
 50
90.0
 41
0.9
 72
     1
 11
327.47547677674493
 21
243.17653211753191
 31
0.0
  0
LINE
  8
NOTE
  6
CONTINUOUS
 62
     4
 10
7.9211136146982417
 20
5.9999999999999432
 30
0.0
 11
-7.9211136146982417
 21
5.9999999999999432
 31
0.0
  0
LINE
  8
NOTE
  6
CONTINUOUS
 62
     4
 10
0.0
 20
-2.0000000000000568
 30
0.0
 11
0.0
 21
13.99999999999994
 31
0.0
  0
CIRCLE
  8
FIX
  6
CONTINUOUS
 62
    11
 10
0.0
 20
5.9999999999999432
 30
0.0
 40
5.0
  0
LINE
  8
SIZE
  6
CONTINUOUS
 62
    30
 10
-27.921113614698239
 20
5.9999999999999432
 30
0.0
 11
-334.75768311770292
 21
6.0000000000000426
 31
0.0
  0
LINE
  8
SIZE
  6
CONTINUOUS
 62
    30
 10
-122.33955296210659
 20
0.0
 30
0.0
 11
-334.75768311770292
 21
0.0000000000000711
 31
0.0
  0
LINE
  8
SIZE
  6
CONTINUOUS
 62
    30
 10
-314.75768311770292
 20
-11.99999999999994
 30
0.0
 11
-314.75768311770292
 21
-23.99999999999994
 31
0.0
  0
LINE
  8
SIZE
  6
CONTINUOUS
 62
    30
 10
-314.75768311770292
 20
18.000000000000021
 30
0.0
 11
-314.75768311770292
 21
223.7485003892173
 31
0.0
  0
LINE
  8
SIZE
  6
CONTINUOUS
 62
    30
 10
-314.75768311770292
 20
0.0000000000000568
 30
0.0
 11
-314.75768311770292
 21
6.0000000000000284
 31
0.0
  0
CIRCLE
  8
SIZE
  6
CONTINUOUS
 62
    30
 10
-314.75768311770292
 20
0.0000000000000568
 30
0.0
 40
6.0
  0
LINE
  8
SIZE
  6
CONTINUOUS
 62
    30
 10
-314.75768311770292
 20
0.0000000000000568
 30
0.0
 11
-314.75768311770292
 21
-11.99999999999994
 31
0.0
  0
CIRCLE
  8
SIZE
  6
CONTINUOUS
 62
    30
 10
-314.75768311770292
 20
6.0000000000000284
 30
0.0
 40
6.0
  0
LINE
  8
SIZE
  6
CONTINUOUS
 62
    30
 10
-314.75768311770292
 20
6.0000000000000284
 30
0.0
 11
-314.75768311770292
 21
18.000000000000021
 31
0.0
  0
TEXT
  8
SIZE
  6
CONTINUOUS
 62
    30
 10
-339.75768311770292
 20
163.09135753207431
 30
0.0
 40
64.0
  1
6
 50
90.0
 41
0.9
 72
     1
 11
-339.75768311770292
 21
180.91992896064571
 31
0.0
  0
LINE
  8
SIZE
  6
CONTINUOUS
 62
    30
 10
-19.69476427800009
 20
104.96510354610341
 30
0.0
 11
-454.62251235130719
 21
104.96510354610351
 31
0.0
  0
LINE
  8
SIZE
  6
CONTINUOUS
 62
    30
 10
-122.33955296210659
 20
0.0
 30
0.0
 11
-454.62251235130719
 21
0.0000000000000995
 31
0.0
  0
LINE
  8
SIZE
  6
CONTINUOUS
 62
    30
 10
-434.62251235130719
 20
12.000000000000091
 30
0.0
 11
-434.62251235130719
 21
92.965103546103478
 31
0.0
  0
LINE
  8
SIZE
  6
CONTINUOUS
 62
    30
 10
-434.62251235130719
 20
104.96510354610351
 30
0.0
 11
-434.62251235130719
 21
304.10796068896059
 31
0.0
  0
CIRCLE
  8
SIZE
  6
CONTINUOUS
 62
    30
 10
-434.62251235130719
 20
0.0000000000000995
 30
0.0
 40
6.0
  0
LINE
  8
SIZE
  6
CONTINUOUS
 62
    30
 10
-434.62251235130719
 20
0.0000000000000995
 30
0.0
 11
-434.62251235130719
 21
12.000000000000099
 31
0.0
  0
CIRCLE
  8
SIZE
  6
CONTINUOUS
 62
    30
 10
-434.62251235130719
 20
104.96510354610351
 30
0.0
 40
6.0
  0
LINE
  8
SIZE
  6
CONTINUOUS
 62
    30
 10
-434.62251235130719
 20
104.96510354610351
 30
0.0
 11
-434.62251235130719
 21
92.965103546103478
 31
0.0
  0
TEXT
  8
SIZE
  6
CONTINUOUS
 62
    30
 10
-459.62251235130719
 20
141.96510354610351
 30
0.0
 40
64.0
  1
105
 50
90.0
 41
0.9
 72
     1
 11
-459.62251235130719
 21
210.53653211753209
 31
0.0
  0
LINE
  8
SIZE
  6
CONTINUOUS
 62
    30
 10
-87.199999999999804
 20
87.119439356975136
 30
0.0
 11
-87.199999999999804
 21
384.27041737072648
 31
0.0
  0
LINE
  8
SIZE
  6
CONTINUOUS
 62
    30
 10
-163.4193020268429
 20
1.438613660502142
 30
0.0
 11
-163.41930202684279
 21
384.27041737072648
 31
0.0
  0
LINE
  8
SIZE
  6
CONTINUOUS
 62
    30
 10
-99.19999999999979
 20
364.27041737072648
 30
0.0
 11
-151.41930202684279
 21
364.27041737072648
 31
0.0
  0
LINE
  8
SIZE
  6
CONTINUOUS
 62
    30
 10
-163.41930202684279
 20
364.27041737072648
 30
0.0
 11
-400.41358774112848
 21
364.27041737072648
 31
0.0
  0
CIRCLE
  8
SIZE
  6
CONTINUOUS
 62
    30
 10
-87.199999999999804
 20
364.27041737072648
 30
0.0
 40
6.0
  0
LINE
  8
SIZE
  6
CONTINUOUS
 62
    30
 10
-87.199999999999804
 20
364.27041737072648
 30
0.0
 11
-99.19999999999979
 21
364.27041737072648
 31
0.0
  0
CIRCLE
  8
SIZE
  6
CONTINUOUS
 62
    30
 10
-163.41930202684279
 20
364.27041737072648
 30
0.0
 40
6.0
  0
LINE
  8
SIZE
  6
CONTINUOUS
 62
    30
 10
-163.41930202684279
 20
364.27041737072648
 30
0.0
 11
-151.41930202684279
 21
364.27041737072648
 31
0.0
  0
TEXT
  8
SIZE
  6
CONTINUOUS
 62
    30
 10
-402.29358774112859
 20
389.27041737072648
 30
0.0
 40
64.0
  1
（76）
 41
0.9
 72
     1
 11
-287.91644488398578
 21
389.27041737072648
 31
0.0
  0
CIRCLE
  8
ARRANGE
  6
CONTINUOUS
 62
     1
 10
0.0
 20
0.0
 30
0.0
 40
40.0
  0
POINT
  8
ARRANGE
  6
CONTINUOUS
 62
     1
 10
0.0
 20
0.0
 30
0.0
 50
180.0
  0
ARC
  8
OUTLINE
  6
CONTINUOUS
 62
     3
 10
51.5
 20
103.5714194477036
 30
0.0
 40
0.4999999999997725
 50
51.816191804153959
 51
88.999999999998238
  0
ARC
  8
OUTLINE
  6
CONTINUOUS
 62
     3
 10
53.786003331701068
 20
97.446935516444228
 30
0.0
 40
6.5000000000000107
 50
2.2523727815144801
 51
89.500000000008455
  0
ARC
  8
OUTLINE
  6
CONTINUOUS
 62
     3
 10
0.3000000000001819
 20
104.6651492375581
 30
0.0
 40
0.300000000000065
 50
88.999999999998238
 51
180.0
  0
LINE
  8
OUTLINE
  6
CONTINUOUS
 62
     3
 10
51.50872620329983
 20
104.07134329520341
 30
0.0
 11
0.3052357219999067
 21
104.9651035461038
 31
0.0
  0
ARC
  8
OUTLINE
  6
CONTINUOUS
 62
     3
 10
-1938.173837552441
 20
19.10000000000036
 30
0.0
 40
2000.0
 50
357.17346538262018
 51
2.2523727815144801
  0
ARC
  8
OUTLINE
  6
CONTINUOUS
 62
     3
 10
58.893584944856229
 20
-79.5
 30
0.0
 40
0.5000000000001724
 50
270.0
 51
357.17346538263291
  0
LINE
  8
OUTLINE
  6
CONTINUOUS
 62
     3
 10
56.688124378103112
 20
-80.0
 30
0.0
 11
58.893584944856229
 21
-80.0
 31
0.0
  0
LINE
  8
OUTLINE
  6
CONTINUOUS
 62
     3
 10
58.589158934400068
 20
-81.901034556296509
 30
0.0
 11
56.688124378103574
 21
-80.0
 31
0.0
  0
ARC
  8
OUTLINE
  6
CONTINUOUS
 62
     3
 10
57.174945371999911
 20
-83.315248118696672
 30
0.0
 40
2.0000000000000502
 50
357.06265626601191
 51
45.000020202594882
  0
ARC
  8
OUTLINE
  6
CONTINUOUS
 62
     3
 10
-1938.2
 20
19.070431455503691
 30
0.0
 40
2000.0
 50
356.64416136950649
 51
357.06264376250078
  0
ARC
  8
OUTLINE
  6
CONTINUOUS
 62
     3
 10
51.881630850399688
 20
-97.622981177196351
 30
0.0
 40
6.4999999999999929
 50
271.00000000000182
 51
356.64416136950649
  0
LINE
  8
OUTLINE
  6
CONTINUOUS
 62
     3
 10
51.995071492299758
 20
-104.1219911956964
 30
0.0
 11
0.3052357219999067
 21
-105.02424063519631
 31
0.0
  0
ARC
  8
OUTLINE
  6
CONTINUOUS
 62
     3
 10
0.2999999999997272
 20
-104.724286326596
 30
0.0
 40
0.3000000000000275
 50
180.0
 51
271.00000000000182
  0
LINE
  8
OUTLINE
  6
CONTINUOUS
 62
     3
 10
51.80909314363862
 20
103.964435259797
 30
0.0
 11
53.842725812440683
 21
103.94668801636131
 31
0.0
  0
LINE
  8
OUTLINE
  6
CONTINUOUS
 62
     3
 10
0.0
 20
104.6651492376036
 30
0.0
 11
0.0
 21
-104.724286326596
 31
0.0
  0
LINE
  8
OUTLINE
  6
CONTINUOUS
 62
     3
 10
-87.199999999999818
 20
-69.412629196130695
 30
0.0
 11
0.0
 21
-69.811447054151358
 31
0.0
  0
LINE
  8
OUTLINE
  6
CONTINUOUS
 62
     3
 10
-59.699999999999818
 20
72.712575146118013
 30
0.0
 11
0.0
 21
72.968246354900202
 31
0.0
  0
LINE
  8
OUTLINE
  6
CONTINUOUS
 62
     3
 10
-59.699999999999818
 20
67.285565362700254
 30
0.0
 11
-87.199999999999818
 21
67.285565362700254
 31
0.0
  0
LINE
  8
OUTLINE
  6
CONTINUOUS
 62
     3
 10
-87.199999999999818
 20
-69.412629196130695
 30
0.0
 11
-87.199999999999818
 21
67.285565362700254
 31
0.0
  0
ARC
  8
DETAIL
  6
CONTINUOUS
 62
     5
 10
51.5
 20
103.5714194477036
 30
0.0
 40
0.4999999999997725
 50
0.0
 51
88.999999999998238
  0
ARC
  8
DETAIL
  6
CONTINUOUS
 62
     5
 10
53.786003331701068
 20
97.446935516444228
 30
0.0
 40
6.5000000000000107
 50
2.252372781507971
 51
89.500000000008455
  0
ARC
  8
DETAIL
  6
CONTINUOUS
 62
     5
 10
30.5
 20
102.43774731910339
 30
0.0
 40
2.000000000000012
 50
0.0
 51
88.999999999998238
  0
ARC
  8
DETAIL
  6
CONTINUOUS
 62
     5
 10
0.3000000000001819
 20
104.6651492375581
 30
0.0
 40
0.300000000000065
 50
89.000000000011255
 51
180.0
  0
LINE
  8
DETAIL
  6
CONTINUOUS
 62
     5
 10
51.50872620329983
 20
104.07134329520341
 30
0.0
 11
0.3052357219999067
 21
104.9651035461038
 31
0.0
  0
LINE
  8
DETAIL
  6
CONTINUOUS
 62
     5
 10
32.5
 20
-19.201124402296049
 30
0.0
 11
32.5
 21
102.43774731910339
 31
0.0
  0
ARC
  8
DETAIL
  6
CONTINUOUS
 62
     5
 10
34.5
 20
-19.201141419796389
 30
0.0
 40
1.9999999999999369
 50
179.99951248459149
 51
225.00080928538461
  0
LINE
  8
DETAIL
  6
CONTINUOUS
 62
     5
 10
36.414213562399709
 20
-23.943782106896379
 30
0.0
 11
33.085806412999773
 21
-20.615374957496439
 31
0.0
  0
ARC
  8
DETAIL
  6
CONTINUOUS
 62
     5
 10
35.0
 20
-25.357995669296539
 30
0.0
 40
2.0000000000000351
 50
0.0
 51
44.999999999993953
  0
LINE
  8
DETAIL
  6
CONTINUOUS
 62
     5
 10
37.0
 20
-54.098566888096677
 30
0.0
 11
37.0
 21
-25.357995669296539
 31
0.0
  0
ARC
  8
DETAIL
  6
CONTINUOUS
 62
     5
 10
52.0
 20
-54.09867218639647
 30
0.0
 40
14.99999999999997
 50
179.99959779020031
 51
225.0003867587113
  0
LINE
  8
DETAIL
  6
CONTINUOUS
 62
     5
 10
51.999866900738652
 20
-75.311742522635541
 30
0.0
 11
51.999866900738652
 21
103.5829555452528
 31
0.0
  0
ARC
  8
DETAIL
  6
CONTINUOUS
 62
     5
 10
-1938.173837552441
 20
19.10000000000036
 30
0.0
 40
2000.0
 50
357.17346538262018
 51
2.252372781507971
  0
ARC
  8
DETAIL
  6
CONTINUOUS
 62
     5
 10
58.893584944856229
 20
-79.5
 30
0.0
 40
0.5000000000001724
 50
270.0
 51
357.17346538263291
  0
LINE
  8
DETAIL
  6
CONTINUOUS
 62
     5
 10
56.688124378103112
 20
-80.0
 30
0.0
 11
58.893584944856229
 21
-80.0
 31
0.0
  0
LINE
  8
DETAIL
  6
CONTINUOUS
 62
     5
 10
58.589158934400068
 20
-81.901034556296509
 30
0.0
 11
41.393469879099939
 21
-64.705345500996827
 31
0.0
  0
ARC
  8
DETAIL
  6
CONTINUOUS
 62
     5
 10
57.174945371999911
 20
-83.315248118696672
 30
0.0
 40
2.0000000000000502
 50
357.06265626600572
 51
45.000020202596033
  0
ARC
  8
DETAIL
  6
CONTINUOUS
 62
     5
 10
-1938.2
 20
19.070431455503691
 30
0.0
 40
2000.0
 50
356.64416136949978
 51
357.06264376250078
  0
ARC
  8
DETAIL
  6
CONTINUOUS
 62
     5
 10
51.881630850399688
 20
-97.622981177196351
 30
0.0
 40
6.4999999999999929
 50
271.00000000000182
 51
356.64416136949978
  0
LINE
  8
DETAIL
  6
CONTINUOUS
 62
     5
 10
51.995071492299758
 20
-104.1219911956964
 30
0.0
 11
0.3052357219999067
 21
-105.02424063519631
 31
0.0
  0
ARC
  8
DETAIL
  6
CONTINUOUS
 62
     5
 10
0.2999999999997272
 20
-104.724286326596
 30
0.0
 40
0.3000000000000275
 50
180.0
 51
271.00000000000182
  0
LINE
  8
DETAIL
  6
CONTINUOUS
 62
     5
 10
51.80909314363862
 20
103.964435259797
 30
0.0
 11
53.842725812440683
 21
103.94668801636131
 31
0.0
  0
LINE
  8
DETAIL
  6
CONTINUOUS
 62
     5
 10
51.999866900738652
 20
93.118063937475199
 30
0.0
 11
32.99127379679976
 21
92.786267710603624
 31
0.0
  0
ARC
  8
DETAIL
  6
CONTINUOUS
 62
     5
 10
33.0
 20
92.286343863003367
 30
0.0
 40
0.5000000000000076
 50
91.000000000001776
 51
180.0
  0
LINE
  8
DETAIL
  6
CONTINUOUS
 62
     5
 10
0.0
 20
104.6651492376036
 30
0.0
 11
0.0
 21
-104.724286326596
 31
0.0
  0
LINE
  8
DETAIL
  6
CONTINUOUS
 62
     5
 10
-87.199999999999818
 20
-69.412629196130695
 30
0.0
 11
0.0
 21
-69.811447054151358
 31
0.0
  0
LINE
  8
DETAIL
  6
CONTINUOUS
 62
     5
 10
-59.699999999999818
 20
72.712575146118013
 30
0.0
 11
0.0
 21
72.968246354900202
 31
0.0
  0
LINE
  8
DETAIL
  6
CONTINUOUS
 62
     5
 10
-59.699999999999818
 20
69.317909449790477
 30
0.0
 11
0.0
 21
69.716727307831661
 31
0.0
  0
LINE
  8
DETAIL
  6
CONTINUOUS
 62
     5
 10
-59.699999999999818
 20
67.285565362700254
 30
0.0
 11
-87.199999999999818
 21
67.285565362700254
 31
0.0
  0
LINE
  8
DETAIL
  6
CONTINUOUS
 62
     5
 10
-87.199999999999818
 20
-69.412629196130695
 30
0.0
 11
-87.199999999999818
 21
67.285565362700254
 31
0.0
  0
LINE
  8
DETAIL
  6
CONTINUOUS
 62
     5
 10
-73.200000000000273
 20
31.395699686599979
 30
0.0
 11
-87.199999999999818
 21
31.395699686599979
 31
0.0
  0
LINE
  8
DETAIL
  6
CONTINUOUS
 62
     5
 10
-73.200000000000273
 20
31.395699686599979
 30
0.0
 11
-73.200000000000273
 21
13.696064980099891
 31
0.0
  0
LINE
  8
DETAIL
  6
CONTINUOUS
 62
     5
 10
-87.199999999999818
 20
17.753877674500021
 30
0.0
 11
-73.200000000000273
 21
17.753877674500021
 31
0.0
  0
LINE
  8
DETAIL
  6
CONTINUOUS
 62
     5
 10
-73.200000000000273
 20
13.696064980099891
 30
0.0
 11
-87.199999999999818
 21
13.696064980099891
 31
0.0
  0
LINE
  8
DETAIL
  6
CONTINUOUS
 62
     5
 10
0.0
 20
113.1917401973096
 30
0.0
 11
0.0
 21
104.3929460110003
 31
0.0
  0
LINE
  8
DETAIL
  6
CONTINUOUS
 62
     5
 10
2.7000000000002728
 20
113.1917401973114
 30
0.0
 11
2.6999999999998181
 21
104.7528713247184
 31
0.0
  0
ARC
  8
DETAIL
  6
CONTINUOUS
 62
     5
 10
2.024999999999181
 20
116.35447449435109
 30
0.0
 40
1.350000000000015
 50
240.00000000003041
 51
300.00000000003001
  0
ARC
  8
DETAIL
  6
CONTINUOUS
 62
     5
 10
0.6749999999992724
 20
116.3544744943506
 30
0.0
 40
1.3500000000000349
 50
240.00000000003041
 51
300.00000000003001
  0
ARC
  8
DETAIL
  6
CONTINUOUS
 62
     5
 10
0.6750000000010914
 20
114.0162059041327
 30
0.0
 40
1.349999999999955
 50
60.000000000030383
 51
120.0000000000301
  0
ARC
  8
DETAIL
  6
CONTINUOUS
 62
     5
 10
2.024999999999181
 20
114.36087449242
 30
0.0
 40
1.350000000000003
 50
240.00000000003041
 51
300.00000000004508
  0
ARC
  8
DETAIL
  6
CONTINUOUS
 62
     5
 10
2.0250000000005461
 20
112.022605902202
 30
0.0
 40
1.349999999999973
 50
60.000000000030383
 51
120.0000000000452
  0
ARC
  8
DETAIL
  6
CONTINUOUS
 62
     5
 10
0.6750000000010914
 20
112.02260590220109
 30
0.0
 40
1.349999999999973
 50
60.000000000030383
 51
120.0000000000452
  0
LINE
  8
DETAIL
  6
CONTINUOUS
 62
     5
 10
2.7000000000002728
 20
124.9980642271635
 30
0.0
 11
2.7000000000002728
 21
115.1853401992425
 31
0.0
  0
ARC
  8
DETAIL
  6
CONTINUOUS
 62
     5
 10
1.5
 20
127.7480642271635
 30
0.0
 40
0.7499999999999927
 50
90.0
 51
270.0
  0
ARC
  8
DETAIL
  6
CONTINUOUS
 62
     5
 10
1.5
 20
130.7480642271635
 30
0.0
 40
0.7499999999999927
 50
270.0
 51
90.0
  0
ARC
  8
DETAIL
  6
CONTINUOUS
 62
     5
 10
1.5
 20
133.7480642271635
 30
0.0
 40
0.7499999999999927
 50
90.0
 51
270.0
  0
ARC
  8
DETAIL
  6
CONTINUOUS
 62
     5
 10
1.5
 20
136.7480642271635
 30
0.0
 40
0.7499999999999927
 50
270.0
 51
90.0
  0
ARC
  8
DETAIL
  6
CONTINUOUS
 62
     5
 10
1.5
 20
139.7480642271635
 30
0.0
 40
0.7499999999999927
 50
90.0
 51
270.0
  0
LINE
  8
DETAIL
  6
CONTINUOUS
 62
     5
 10
0.0
 20
124.9980642271635
 30
0.0
 11
0.0
 21
115.1853401992407
 31
0.0
  0
LINE
  8
DETAIL
  6
CONTINUOUS
 62
     5
 10
-0.5
 20
156.9980642271635
 30
0.0
 11
-0.5
 21
147.9980642271635
 31
0.0
  0
LINE
  8
DETAIL
  6
CONTINUOUS
 62
     5
 10
10.5
 20
156.9980642271635
 30
0.0
 11
-0.5
 21
156.9980642271635
 31
0.0
  0
LINE
  8
DETAIL
  6
CONTINUOUS
 62
     5
 10
10.5
 20
147.9980642271635
 30
0.0
 11
-0.5
 21
147.9980642271635
 31
0.0
  0
LINE
  8
DETAIL
  6
CONTINUOUS
 62
     5
 10
2.5
 20
134.4980642271635
 30
0.0
 11
2.5
 21
132.9980642271635
 31
0.0
  0
LINE
  8
DETAIL
  6
CONTINUOUS
 62
     5
 10
2.5
 20
128.4980642271635
 30
0.0
 11
2.5
 21
126.9980642271635
 31
0.0
  0
LINE
  8
DETAIL
  6
CONTINUOUS
 62
     5
 10
0.5
 20
131.4980642271635
 30
0.0
 11
0.5
 21
129.9980642271635
 31
0.0
  0
LINE
  8
DETAIL
  6
CONTINUOUS
 62
     5
 10
2.5
 20
140.4980642271635
 30
0.0
 11
2.5
 21
138.9980642271635
 31
0.0
  0
LINE
  8
DETAIL
  6
CONTINUOUS
 62
     5
 10
0.5
 20
137.4980642271635
 30
0.0
 11
0.5
 21
135.9980642271635
 31
0.0
  0
LINE
  8
DETAIL
  6
CONTINUOUS
 62
     5
 10
6.3235294117648664
 20
140.4980642271635
 30
0.0
 11
1.5
 21
140.4980642271635
 31
0.0
  0
LINE
  8
DETAIL
  6
CONTINUOUS
 62
     5
 10
6.147058823529278
 20
138.9980642271635
 30
0.0
 11
1.5
 21
138.9980642271635
 31
0.0
  0
LINE
  8
DETAIL
  6
CONTINUOUS
 62
     5
 10
1.5
 20
137.4980642271635
 30
0.0
 11
-2.9705882352936901
 21
137.4980642271635
 31
0.0
  0
LINE
  8
DETAIL
  6
CONTINUOUS
 62
     5
 10
1.5
 20
135.9980642271635
 30
0.0
 11
-2.794117647058556
 21
135.9980642271635
 31
0.0
  0
LINE
  8
DETAIL
  6
CONTINUOUS
 62
     5
 10
5.6176470588234224
 20
134.4980642271635
 30
0.0
 11
1.5
 21
134.4980642271635
 31
0.0
  0
LINE
  8
DETAIL
  6
CONTINUOUS
 62
     5
 10
5.4411764705882888
 20
132.9980642271635
 30
0.0
 11
1.5
 21
132.9980642271635
 31
0.0
  0
LINE
  8
DETAIL
  6
CONTINUOUS
 62
     5
 10
1.5
 20
131.4980642271635
 30
0.0
 11
-2.2647058823527
 21
131.4980642271635
 31
0.0
  0
LINE
  8
DETAIL
  6
CONTINUOUS
 62
     5
 10
1.5
 20
129.9980642271635
 30
0.0
 11
-2.0882352941175668
 21
129.9980642271635
 31
0.0
  0
LINE
  8
DETAIL
  6
CONTINUOUS
 62
     5
 10
4.9117647058819784
 20
128.4980642271635
 30
0.0
 11
1.5
 21
128.4980642271635
 31
0.0
  0
LINE
  8
DETAIL
  6
CONTINUOUS
 62
     5
 10
4.7352941176468448
 20
126.9980642271635
 30
0.0
 11
1.5
 21
126.9980642271635
 31
0.0
  0
ARC
  8
DETAIL
  6
CONTINUOUS
 62
     5
 10
4.0553752126879772
 20
125.4980642271635
 30
0.0
 40
0.499999999999885
 50
270.0
 51
353.29016319224081
  0
ARC
  8
DETAIL
  6
CONTINUOUS
 62
     5
 10
-1.055375212687522
 20
125.4980642271635
 30
0.0
 40
0.5000000000000076
 50
186.70983680775919
 51
270.0
  0
ARC
  8
DETAIL
  6
CONTINUOUS
 62
     5
 10
7.5
 20
144.18361300579591
 30
0.0
 40
1.0000000000000151
 50
86.423665625008368
 51
180.0
  0
ARC
  8
DETAIL
  6
CONTINUOUS
 62
     5
 10
-4.5
 20
145.04853954515241
 30
0.0
 40
0.9999999999999176
 50
0.0
 51
70.52877936551387
  0
LINE
  8
DETAIL
  6
CONTINUOUS
 62
     5
 10
6.5
 20
141.9980642271635
 30
0.0
 11
4.5519505148486132
 21
125.43964360337991
 31
0.0
  0
LINE
  8
DETAIL
  6
CONTINUOUS
 62
     5
 10
-3.5
 20
141.9980642271635
 30
0.0
 11
-1.551950514849068
 21
125.43964360337991
 31
0.0
  0
LINE
  8
DETAIL
  6
CONTINUOUS
 62
     5
 10
6.5
 20
141.9980642271635
 30
0.0
 11
-3.5
 21
141.9980642271635
 31
0.0
  0
LINE
  8
DETAIL
  6
CONTINUOUS
 62
     5
 10
4.0553752126879772
 20
124.9980642271635
 30
0.0
 11
-1.055375212687522
 21
124.9980642271635
 31
0.0
  0
LINE
  8
DETAIL
  6
CONTINUOUS
 62
     5
 10
6.5
 20
144.18361300579591
 30
0.0
 11
6.5
 21
141.9980642271635
 31
0.0
  0
LINE
  8
DETAIL
  6
CONTINUOUS
 62
     5
 10
-3.5
 20
145.04853954515241
 30
0.0
 11
-3.5
 21
141.9980642271635
 31
0.0
  0
ARC
  8
DETAIL
  6
CONTINUOUS
 62
     5
 10
-3.5
 20
147.87696666989859
 30
0.0
 40
1.9999999999999929
 50
180.0
 51
266.42366562499529
  0
ARC
  8
DETAIL
  6
CONTINUOUS
 62
     5
 10
-3.5
 20
157.11916178442829
 30
0.0
 40
1.9999999999999929
 50
93.576334375004691
 51
180.0
  0
LINE
  8
DETAIL
  6
CONTINUOUS
 62
     5
 10
26.606613359164839
 20
155.64806422716359
 30
0.0
 11
26.606613359164839
 21
149.34806422716341
 31
0.0
  0
ARC
  8
DETAIL
  6
CONTINUOUS
 62
     5
 10
21.5
 20
152.4980642271635
 30
0.0
 40
5.9999999999998641
 50
328.33175674645582
 51
31.668243253544279
  0
CIRCLE
  8
DETAIL
  6
CONTINUOUS
 62
     5
 10
22.199999999999822
 20
152.4980642271635
 30
0.0
 40
1.9499999999999851
  0
CIRCLE
  8
DETAIL
  6
CONTINUOUS
 62
     5
 10
22.199999999999822
 20
152.4980642271635
 30
0.0
 40
1.550000000000012
  0
LINE
  8
DETAIL
  6
CONTINUOUS
 62
     5
 10
26.606613359164839
 20
149.34806422716341
 30
0.0
 11
10.5
 21
149.34806422716341
 31
0.0
  0
LINE
  8
DETAIL
  6
CONTINUOUS
 62
     5
 10
26.606613359164839
 20
155.64806422716359
 30
0.0
 11
10.5
 21
155.64806422716359
 31
0.0
  0
LINE
  8
DETAIL
  6
CONTINUOUS
 62
     5
 10
10.5
 20
159.9980642271635
 30
0.0
 11
-3.6247565723106159
 21
159.11526694139411
 31
0.0
  0
LINE
  8
DETAIL
  6
CONTINUOUS
 62
     5
 10
-3.6247565723106159
 20
145.8808615129328
 30
0.0
 11
10.5
 21
144.9980642271635
 31
0.0
  0
LINE
  8
DETAIL
  6
CONTINUOUS
 62
     5
 10
-5.5
 20
157.11916178442829
 30
0.0
 11
-5.5
 21
147.87696666989859
 31
0.0
  0
LINE
  8
DETAIL
  6
CONTINUOUS
 62
     5
 10
10.5
 20
159.9980642271635
 30
0.0
 11
10.5
 21
144.9980642271635
 31
0.0
  0
ARC
  8
DETAIL
  6
DASHED
 62
     5
 10
-78.199999999999818
 20
40.0
 30
0.0
 40
103.5081639292282
 50
217.76370376798829
 51
265.9254526403347
  0
LINE
  8
DETAIL
  6
CONTINUOUS
 62
     5
 10
-91.006198108199897
 20
15.13948451709985
 30
0.0
 11
-91.179982459899747
 21
15.36927538949976
 31
0.0
  0
LINE
  8
DETAIL
  6
CONTINUOUS
 62
     5
 10
-91.006198108199897
 20
10.22408932899998
 30
0.0
 11
-91.006198108199897
 21
15.13948451709985
 31
0.0
  0
LINE
  8
DETAIL
  6
CONTINUOUS
 62
     5
 10
-91.179982459899747
 20
10.073371112727729
 30
0.0
 11
-91.179982459899747
 21
15.36927538949976
 31
0.0
  0
LINE
  8
DETAIL
  6
CONTINUOUS
 62
     5
 10
-91.006198108199897
 20
15.13948451709985
 30
0.0
 11
-87.199999999999818
 21
17.68128182949977
 31
0.0
  0
LINE
  8
DETAIL
  6
CONTINUOUS
 62
     5
 10
-87.199999999999818
 20
18.027126723599849
 30
0.0
 11
-91.179982459899747
 21
15.36927538949976
 31
0.0
  0
LINE
  8
DETAIL
  6
CONTINUOUS
 62
     5
 10
-87.199999999999818
 20
48.124899336299897
 30
0.0
 11
-91.179982459899747
 21
45.467048002200038
 31
0.0
  0
LINE
  8
DETAIL
  6
CONTINUOUS
 62
     5
 10
-91.006198108199897
 20
50.152652317999809
 30
0.0
 11
-91.179982459899747
 21
50.382443190399947
 31
0.0
  0
LINE
  8
DETAIL
  6
CONTINUOUS
 62
     5
 10
-91.006198108199897
 20
50.152652317999809
 30
0.0
 11
-91.006198108199897
 21
45.583102024000027
 31
0.0
  0
LINE
  8
DETAIL
  6
CONTINUOUS
 62
     5
 10
-91.179982459899747
 20
50.382443190399947
 30
0.0
 11
-91.179982459899747
 21
45.467048002200038
 31
0.0
  0
ARC
  8
DETAIL
  6
CONTINUOUS
 62
     5
 10
-2.0116507476991501
 20
-127.2679918687431
 30
0.0
 40
198.77290674797669
 50
116.65351165466841
 51
140.1881708429768
  0
ARC
  8
DETAIL
  6
CONTINUOUS
 62
     5
 10
-123.50459148691129
 20
-26.940845069131679
 30
0.0
 40
41.217965772391722
 50
139.1849829355273
 51
163.429003779135
  0
ARC
  8
DETAIL
  6
CONTINUOUS
 62
     5
 10
-157.00629249205329
 20
-17.624888937823471
 30
0.0
 40
6.4810275941894684
 50
157.88835428926049
 51
266.45854859155941
  0
ARC
  8
DETAIL
  6
CONTINUOUS
 62
     5
 10
-155.15077441813699
 20
5.6239595758838732
 30
0.0
 40
29.80299774100601
 50
265.65900292622479
 51
290.40463230811599
  0
ARC
  8
DETAIL
  6
CONTINUOUS
 62
     5
 10
-212.1889453352633
 20
149.77727137643569
 30
0.0
 40
184.82518455303421
 50
291.39683770567461
 51
310.96982312004479
  0
LINE
  8
OUTLINE
  6
CONTINUOUS
 62
     3
 10
-59.699999305081747
 20
67.285565018636589
 30
0.0
 11
-59.699999305081747
 21
72.712575149094107
 31
0.0
  0
LINE
  8
DETAIL
  6
CONTINUOUS
 62
     5
 10
-59.699999305081747
 20
67.285565018636589
 30
0.0
 11
-59.699999305081747
 21
72.712575149094107
 31
0.0
  0
ENDSEC
  0
EOF
