  0
SECTION
  2
HEADER
  9
$ACADVER
  1
AC1009
  9
$INSBASE
 10
0.0
 20
0.0
 30
0.0
  9
$EXTMIN
 10
-991.7301730896628
 20
-309.88333689759202
 30
0.0
  9
$EXTMAX
 10
791.96743853066152
 20
513.02399438955706
 30
0.0
  9
$LIMMIN
 10
-4200.0
 20
-2970.0
  9
$LIMMAX
 10
4200.0
 20
2970.0
  9
$ORTHOMODE
 70
     1
  9
$REGENMODE
 70
     0
  9
$FILLMODE
 70
     1
  9
$QTEXTMODE
 70
     0
  9
$MIRRTEXT
 70
     0
  9
$DRAGMODE
 70
     2
  9
$LTSCALE
 40
20.0
  9
$OSMODE
 70
    39
  9
$ATTMODE
 70
     1
  9
$TEXTSIZE
 40
64.0
  9
$TRACEWID
 40
0.05
  9
$TEXTSTYLE
  7
STANDARD
  9
$CLAYER
  8
OUTLINE
  9
$CELTYPE
  6
CONTINUOUS
  9
$CECOLOR
 62
     3
  9
$DIMSCALE
 40
1.0
  9
$DIMASZ
 40
2.0
  9
$DIMEXO
 40
20.0
  9
$DIMDLI
 40
200.0
  9
$DIMRND
 40
0.0
  9
$DIMDLE
 40
0.0
  9
$DIMEXE
 40
30.0
  9
$DIMTP
 40
0.0
  9
$DIMTM
 40
0.0
  9
$DIMTXT
 40
64.0
  9
$DIMCEN
 40
0.09
  9
$DIMTSZ
 40
0.0
  9
$DIMTOL
 70
     0
  9
$DIMLIM
 70
     0
  9
$DIMTIH
 70
     0
  9
$DIMTOH
 70
     0
  9
$DIMSE1
 70
     0
  9
$DIMSE2
 70
     0
  9
$DIMTAD
 70
     1
  9
$DIMZIN
 70
     8
  9
$DIMBLK
  1

  9
$DIMASO
 70
     1
  9
$DIMSHO
 70
     0
  9
$DIMPOST
  1

  9
$DIMAPOST
  1

  9
$DIMALT
 70
     0
  9
$DIMALTD
 70
     2
  9
$DIMALTF
 40
25.399999999999999
  9
$DIMLFAC
 40
1.0
  9
$DIMTOFL
 70
     1
  9
$DIMTVP
 40
0.0
  9
$DIMTIX
 70
     1
  9
$DIMSOXD
 70
     0
  9
$DIMSAH
 70
     0
  9
$DIMBLK1
  1

  9
$DIMBLK2
  1

  9
$DIMSTYLE
  2
STANDARD
  9
$DIMCLRD
 70
     0
  9
$DIMCLRE
 70
     0
  9
$DIMCLRT
 70
     0
  9
$DIMTFAC
 40
1.0
  9
$DIMGAP
 40
0.09
  9
$LUNITS
 70
     2
  9
$LUPREC
 70
     4
  9
$SKETCHINC
 40
0.1
  9
$FILLETRAD
 40
5.0
  9
$AUNITS
 70
     1
  9
$AUPREC
 70
     3
  9
$MENU
  1
ACAD
  9
$ELEVATION
 40
0.0
  9
$PELEVATION
 40
0.0
  9
$THICKNESS
 40
0.0
  9
$LIMCHECK
 70
     1
  9
$BLIPMODE
 70
     0
  9
$CHAMFERA
 40
0.0
  9
$CHAMFERB
 40
0.0
  9
$SKPOLY
 70
     0
  9
$TDCREATE
 40
2451821.7023726851
  9
$TDUPDATE
 40
2455044.8483628011
  9
$TDINDWG
 40
0.0798603819
  9
$TDUSRTIMER
 40
0.0798596759
  9
$USRTIMER
 70
     1
  9
$ANGBASE
 50
0.0
  9
$ANGDIR
 70
     0
  9
$PDMODE
 70
     3
  9
$PDSIZE
 40
-2.0
  9
$PLINEWID
 40
0.0
  9
$COORDS
 70
     2
  9
$SPLFRAME
 70
     0
  9
$SPLINETYPE
 70
     6
  9
$SPLINESEGS
 70
     8
  9
$ATTDIA
 70
     0
  9
$ATTREQ
 70
     1
  9
$HANDLING
 70
 22529
  9
$HANDSEED
  5
67C
  9
$SURFTAB1
 70
     6
  9
$SURFTAB2
 70
     6
  9
$SURFTYPE
 70
     6
  9
$SURFU
 70
     6
  9
$SURFV
 70
     6
  9
$UCSNAME
  2

  9
$UCSORG
 10
0.0
 20
0.0
 30
0.0
  9
$UCSXDIR
 10
1.0
 20
0.0
 30
0.0
  9
$UCSYDIR
 10
0.0
 20
1.0
 30
0.0
  9
$PUCSNAME
  2

  9
$PUCSORG
 10
0.0
 20
0.0
 30
0.0
  9
$PUCSXDIR
 10
1.0
 20
0.0
 30
0.0
  9
$PUCSYDIR
 10
0.0
 20
1.0
 30
0.0
  9
$USERI1
 70
     0
  9
$USERI2
 70
     0
  9
$USERI3
 70
     0
  9
$USERI4
 70
     0
  9
$USERI5
 70
     0
  9
$USERR1
 40
20.0
  9
$USERR2
 40
0.0
  9
$USERR3
 40
0.0
  9
$USERR4
 40
0.0
  9
$USERR5
 40
0.0
  9
$WORLDVIEW
 70
     1
  9
$SHADEDGE
 70
     3
  9
$SHADEDIF
 70
    70
  9
$TILEMODE
 70
     1
  9
$MAXACTVP
 70
    64
  9
$PLIMCHECK
 70
     0
  9
$PEXTMIN
 10
1.0000000000000000E+020
 20
1.0000000000000000E+020
 30
1.0000000000000000E+020
  9
$PEXTMAX
 10
-1.0000000000000000E+020
 20
-1.0000000000000000E+020
 30
-1.0000000000000000E+020
  9
$PLIMMIN
 10
0.0
 20
0.0
  9
$PLIMMAX
 10
12.0
 20
9.0
  9
$UNITMODE
 70
     0
  9
$VISRETAIN
 70
     1
  9
$PLINEGEN
 70
     0
  9
$PSLTSCALE
 70
     1
  0
ENDSEC
  0
SECTION
  2
TABLES
  0
TABLE
  2
VPORT
 70
     3
  0
VPORT
  2
*ACTIVE
 70
     0
 10
0.0
 20
0.0
 11
1.0
 21
1.0
 12
-163.87436203079019
 22
109.0863354407697
 13
0.0
 23
0.0
 14
400.0
 24
400.0
 15
400.0
 25
400.0
 16
0.0
 26
0.0
 36
1.0
 17
0.0
 27
0.0
 37
0.0
 40
1167.068183533326
 41
1.493654822335025
 42
50.0
 43
0.0
 44
0.0
 50
0.0
 51
0.0
 71
     0
 72
   500
 73
     1
 74
     0
 75
     0
 76
     0
 77
     0
 78
     1
  0
ENDTAB
  0
TABLE
  2
LTYPE
 70
     8
  0
LTYPE
  2
CONTINUOUS
 70
     0
  3
実線
 72
    65
 73
     0
 40
0.0
  0
LTYPE
  2
DOT
 70
     0
  3
...............................................
 72
    65
 73
     2
 40
0.8
 49
0.5
 49
-0.3
  0
LTYPE
  2
DASHED
 70
     0
  3
_ _ _ _ _ _ _ _ _ _ _ _ _ _ _ _ _ _ _ _ _ _ _
 72
    65
 73
     2
 40
2.0
 49
1.1999999999999991
 49
-0.8
  0
LTYPE
  2
DASHDOT
 70
     0
  3
____ _ ____ _ ____ _ ____ _ ____ _ ____ _ ____
 72
    65
 73
     4
 40
5.5
 49
4.0
 49
-0.6
 49
0.3
 49
-0.6
  0
LTYPE
  2
DASHDOT1
 70
     0
  3
____ _ ____ _ ____ _ ____ _ ____ _ ____ _ ____
 72
    65
 73
     4
 40
2.0
 49
1.5
 49
-0.2
 49
0.1
 49
-0.2
  0
LTYPE
  2
DIVIDE
 70
     0
  3
_____ _ _ _____ _ _ _____ _ _ _____ _ _ ____
 72
    65
 73
     6
 40
6.4000000000000004
 49
4.0
 49
-0.6
 49
0.3
 49
-0.6
 49
0.3
 49
-0.6
  0
LTYPE
  2
DIVIDE1
 70
     0
  3
_____ _ _ _____ _ _ _____ _ _ _____ _ _ ____
 72
    65
 73
     6
 40
3.2000000000000002
 49
2.0
 49
-0.3
 49
0.15
 49
-0.3
 49
0.15
 49
-0.3
  0
LTYPE
  2
HIDDEN
 70
     0
  3
Hidden __ __ __ __ __ __ __ __ __ __ __ __ __ _
 72
    65
 73
     2
 40
0.375
 49
0.25
 49
-0.125
  0
ENDTAB
  0
TABLE
  2
LAYER
 70
    12
  0
LAYER
  2
0
 70
     0
 62
     7
  6
CONTINUOUS
  0
LAYER
  2
OUTLINE
 70
     0
 62
     3
  6
CONTINUOUS
  0
LAYER
  2
DETAIL
 70
     0
 62
     5
  6
CONTINUOUS
  0
LAYER
  2
BASIS
 70
     0
 62
     6
  6
DASHDOT
  0
LAYER
  2
SIZE
 70
     0
 62
    30
  6
CONTINUOUS
  0
LAYER
  2
NOTE
 70
     0
 62
     4
  6
CONTINUOUS
  0
LAYER
  2
ARRANGE
 70
     0
 62
     1
  6
CONTINUOUS
  0
LAYER
  2
FIX
 70
     0
 62
    11
  6
CONTINUOUS
  0
LAYER
  2
ETC
 70
     0
 62
    61
  6
CONTINUOUS
  0
LAYER
  2
DEFPOINTS
 70
     0
 62
     7
  6
CONTINUOUS
  0
LAYER
  2
SERVICESPACE
 70
     0
 62
     2
  6
DASHDOT
  0
LAYER
  2
SYMBOLLINE
 70
     0
 62
    15
  6
CONTINUOUS
  0
ENDTAB
  0
TABLE
  2
STYLE
 70
     2
  0
STYLE
  2
STANDARD
 70
     0
 40
0.0
 41
0.9
 50
0.0
 71
     0
 42
64.0
  3
SIMPLEX
  4
BIGFONT
  0
STYLE
  2

 70
     1
 40
0.0
 41
1.0
 50
0.0
 71
     0
 42
64.0
  3
ltypeshp.shx
  4

  0
ENDTAB
  0
TABLE
  2
VIEW
 70
     1
  0
VIEW
  2
ALL
 70
     0
 40
6374.9789810000002
 10
0.0
 20
58.11501599999999
 41
8842.1052629999976
 11
0.0
 21
0.0
 31
1.0
 12
0.0
 22
0.0
 32
0.0
 42
50.0
 43
0.0
 44
0.0
 50
0.0
 71
     0
  0
ENDTAB
  0
TABLE
  2
UCS
 70
     0
  0
ENDTAB
  0
TABLE
  2
APPID
 70
     1
  0
APPID
  2
ACAD
 70
     0
  0
ENDTAB
  0
TABLE
  2
DIMSTYLE
 70
     1
  0
DIMSTYLE
  2
STANDARD
 70
     0
  3

  4

  5

  6

  7

 40
1.0
 41
0.18
 42
0.0625
 43
0.38
 44
0.18
 45
0.0
 46
0.0
 47
0.0
 48
0.0
140
0.18
141
0.09
142
0.0
143
25.399999999999999
144
1.0
145
0.0
146
1.0
147
0.09
 71
     0
 72
     0
 73
     1
 74
     1
 75
     0
 76
     0
 77
     0
 78
     0
170
     0
171
     2
172
     0
173
     0
174
     0
175
     0
176
     0
177
     0
178
     0
  0
ENDTAB
  0
ENDSEC
  0
SECTION
  2
BLOCKS
  0
BLOCK
  8
0
  2
$MODEL_SPACE
 70
     0
 10
0.0
 20
0.0
 30
0.0
  3
$MODEL_SPACE
  1

  0
ENDBLK
  5
5A0
  8
0
  0
BLOCK
 67
     1
  8
0
  2
$PAPER_SPACE
 70
     0
 10
0.0
 20
0.0
 30
0.0
  3
$PAPER_SPACE
  1

  0
ENDBLK
  5
59C
 67
     1
  8
0
  0
BLOCK
  8
0
  2
DOT1
 70
     0
 10
0.0
 20
0.0
 30
0.0
  3
DOT1
  1

  0
CIRCLE
  5
5C3
  8
SIZE
  6
CONTINUOUS
 62
     7
 10
0.0
 20
0.0
 30
0.0
 40
3.0
  0
ENDBLK
  5
5C4
  8
0
  0
BLOCK
  8
0
  2
_ORIGIN
 70
     0
 10
0.0
 20
0.0
 30
0.0
  3
_ORIGIN
  1

  0
CIRCLE
  5
5C7
  8
0
  6
CONTINUOUS
 62
     7
 10
0.0
 20
0.0
 30
0.0
 40
0.5
  0
LINE
  5
5C8
  8
0
  6
CONTINUOUS
 62
     7
 10
0.0
 20
0.0
 30
0.0
 11
-1.0
 21
0.0
 31
0.0
  0
ENDBLK
  5
5C9
  8
0
  0
BLOCK
  8
0
 62
     4
  2
_NONE
 70
     0
 10
0.0
 20
0.0
 30
0.0
  3
_NONE
  1

  0
ENDBLK
  5
5CC
  8
0
 62
     4
  0
ENDSEC
  0
SECTION
  2
ENTITIES
  0
TEXT
  5
5CD
  8
ETC
  6
CONTINUOUS
 62
    61
 10
165.53886710209031
 20
463.02399438955712
 30
0.0
 40
50.0
  1
V-12PPVSD6_1
 41
0.9
  0
LINE
  5
5CE
  8
NOTE
  6
CONTINUOUS
 62
     4
 10
-168.12830999999991
 20
160.17524499999999
 30
0.0
 11
-95.0
 21
0.0
 31
0.0
  0
LINE
  5
5CF
  8
NOTE
  6
CONTINUOUS
 62
     4
 10
291.92861499999992
 20
112.1419909999999
 30
0.0
 11
188.24112699999981
 21
112.1419909999999
 31
0.0
  0
TEXT
  5
5D0
  8
NOTE
  6
CONTINUOUS
 62
     4
 10
196.0886473581858
 20
139.8128989999999
 30
0.0
 40
64.0
  1
EL
 41
0.9
  0
LINE
  5
5D1
  8
DETAIL
  6
CONTINUOUS
 62
     5
 10
64.499999999999446
 20
60.0
 30
0.0
 11
64.499999999999446
 21
87.0
 31
0.0
  0
LINE
  5
5D2
  8
DETAIL
  6
CONTINUOUS
 62
     5
 10
-64.5
 20
60.0
 30
0.0
 11
-64.5
 21
87.0
 31
0.0
  0
LINE
  5
5D3
  8
NOTE
  6
CONTINUOUS
 62
     4
 10
-168.12830999999991
 20
160.17524499999999
 30
0.0
 11
-988.15899481817246
 21
160.17524499999999
 31
0.0
  0
LINE
  5
5D4
  8
SIZE
  6
CONTINUOUS
 62
    30
 10
389.01838199999992
 20
0.0
 30
0.0
 11
389.01838199999992
 21
-136.75402323226211
 31
0.0
  0
POINT
  5
5D5
  8
ARRANGE
  6
CONTINUOUS
 62
     1
 10
0.0
 20
0.0
 30
0.0
  0
LINE
  5
5D6
  8
DETAIL
  6
CONTINUOUS
 62
     5
 10
-70.0
 20
0.0
 30
0.0
 11
-70.0
 21
60.0
 31
0.0
  0
LINE
  5
5D7
  8
DETAIL
  6
CONTINUOUS
 62
     5
 10
70.0
 20
0.0
 30
0.0
 11
70.0
 21
60.0
 31
0.0
  0
LINE
  5
5D8
  8
DETAIL
  6
CONTINUOUS
 62
     5
 10
-70.0
 20
60.0
 30
0.0
 11
70.0
 21
60.0
 31
0.0
  0
LINE
  5
5D9
  8
DETAIL
  6
CONTINUOUS
 62
     5
 10
-105.0
 20
-54.271689291351521
 30
0.0
 11
-105.0
 21
0.0
 31
0.0
  0
LINE
  5
5DA
  8
DETAIL
  6
CONTINUOUS
 62
     5
 10
105.0
 20
-54.271689291351521
 30
0.0
 11
105.0
 21
0.0
 31
0.0
  0
LINE
  5
5DB
  8
DETAIL
  6
CONTINUOUS
 62
     5
 10
-105.0
 20
0.0
 30
0.0
 11
105.0
 21
0.0
 31
0.0
  0
LINE
  5
5DC
  8
BASIS
  6
DASHDOT
 62
     6
 10
0.0
 20
-85.454239999999999
 30
0.0
 11
0.0
 21
170.90848199999991
 31
0.0
  0
LINE
  5
5DD
  8
NOTE
  6
CONTINUOUS
 62
     4
 10
-95.0
 20
20.0
 30
0.0
 11
-95.0
 21
-20.0
 31
0.0
  0
LINE
  5
5DE
  8
NOTE
  6
CONTINUOUS
 62
     4
 10
-115.0
 20
0.0
 30
0.0
 11
-75.0
 21
0.0
 31
0.0
  0
LINE
  5
5DF
  8
NOTE
  6
CONTINUOUS
 62
     4
 10
95.0
 20
20.0
 30
0.0
 11
95.0
 21
-20.0
 31
0.0
  0
LINE
  5
5E0
  8
NOTE
  6
CONTINUOUS
 62
     4
 10
75.0
 20
0.0
 30
0.0
 11
115.0
 21
0.0
 31
0.0
  0
TEXT
  5
5E1
  8
ETC
  6
CONTINUOUS
 62
    61
 10
162.0872489526308
 20
387.64603606934031
 30
0.0
 40
50.0
  1
換気扇
 41
0.9
  0
CIRCLE
  5
5E2
  8
ARRANGE
  6
CONTINUOUS
 62
     1
 10
0.0
 20
0.0
 30
0.0
 40
40.0
  0
LINE
  5
5EA
  8
DETAIL
  6
CONTINUOUS
 62
     5
 10
-104.94987399999989
 20
-53.0
 30
0.0
 11
104.94987399999989
 21
-53.0
 31
0.0
  0
CIRCLE
  5
5EB
  8
FIX
  6
CONTINUOUS
 62
    11
 10
95.0
 20
0.0
 30
0.0
 40
2.5
  0
CIRCLE
  5
5EC
  8
FIX
  6
CONTINUOUS
 62
    11
 10
-95.0
 20
0.0
 30
0.0
 40
2.5
  0
LINE
  5
5ED
  8
DETAIL
  6
CONTINUOUS
 62
     5
 10
-64.5
 20
87.0
 30
0.0
 11
64.499999999999446
 21
87.0
 31
0.0
  0
LINE
  5
5EE
  8
SIZE
  6
CONTINUOUS
 62
    30
 10
524.64600299999995
 20
2.0
 30
0.0
 11
524.64600299999995
 21
-138.69846799999991
 31
0.0
  0
LINE
  5
5EF
  8
NOTE
  6
CONTINUOUS
 62
     4
 10
85.0
 20
-17.599999999999991
 30
0.0
 11
188.24112699999981
 21
112.1419909999999
 31
0.0
  0
LINE
  5
5F0
  8
SIZE
  6
BYBLOCK
 62
    30
 10
125.0
 20
0.0
 30
0.0
 11
554.64600299999995
 21
0.0
 31
0.0
  0
LINE
  5
5F1
  8
SIZE
  6
BYBLOCK
 62
    30
 10
84.500000000000014
 20
87.0
 30
0.0
 11
554.64600299999995
 21
87.0
 31
0.0
  0
LINE
  5
5F2
  8
SIZE
  6
BYBLOCK
 62
    30
 10
524.64600299999995
 20
2.0
 30
0.0
 11
524.64600299999995
 21
49.5
 31
0.0
  0
LINE
  5
5F3
  8
SIZE
  6
BYBLOCK
 62
    30
 10
524.64600299999995
 20
87.0
 30
0.0
 11
524.64600299999995
 21
49.5
 31
0.0
  0
TEXT
  5
5F4
  8
SIZE
  6
BYBLOCK
 62
    30
 10
492.64600300000018
 20
-130.2098609999999
 30
0.0
 40
64.0
  1
87
 50
90.0
 41
0.9
  0
LINE
  5
5F5
  8
SIZE
  6
BYBLOCK
 62
    30
 10
130.0
 20
0.0
 30
0.0
 11
419.01838199999992
 21
0.0
 31
0.0
  0
LINE
  5
5F6
  8
SIZE
  6
BYBLOCK
 62
    30
 10
90.0
 20
60.0
 30
0.0
 11
419.01838199999992
 21
60.0
 31
0.0
  0
LINE
  5
5F7
  8
SIZE
  6
BYBLOCK
 62
    30
 10
389.01838199999992
 20
-2.0
 30
0.0
 11
389.01838199999992
 21
-4.0
 31
0.0
  0
LINE
  5
5F8
  8
SIZE
  6
BYBLOCK
 62
    30
 10
389.01838199999992
 20
60.0
 30
0.0
 11
389.01838199999992
 21
0.0
 31
0.0
  0
TEXT
  5
5F9
  8
SIZE
  6
BYBLOCK
 62
    30
 10
357.01838199999992
 20
-129.7390716246681
 30
0.0
 40
64.0
  1
60
 50
90.0
 41
0.9
  0
LINE
  5
5FA
  8
SIZE
  6
BYBLOCK
 62
    30
 10
-70.0
 20
91.5
 30
0.0
 11
-70.0
 21
256.61837700000001
 31
0.0
  0
LINE
  5
5FB
  8
SIZE
  6
BYBLOCK
 62
    30
 10
70.0
 20
91.5
 30
0.0
 11
70.0
 21
256.61837700000001
 31
0.0
  0
LINE
  5
5FC
  8
SIZE
  6
BYBLOCK
 62
    30
 10
-70.0
 20
226.61837700000001
 30
0.0
 11
0.0
 21
226.61837700000001
 31
0.0
  0
LINE
  5
5FD
  8
SIZE
  6
BYBLOCK
 62
    30
 10
70.0
 20
226.61837700000001
 30
0.0
 11
0.0
 21
226.61837700000001
 31
0.0
  0
TEXT
  5
5FE
  8
SIZE
  6
BYBLOCK
 62
    30
 10
-97.37142900000002
 20
258.61837700000001
 30
0.0
 40
64.0
  1
φ140
 41
0.9
  0
LINE
  5
5FF
  8
SIZE
  6
BYBLOCK
 62
    30
 10
-130.0
 20
0.000001
 30
0.0
 11
-334.47272599999991
 21
0.000001
 31
0.0
  0
LINE
  5
600
  8
SIZE
  6
BYBLOCK
 62
    30
 10
-0.0000159913047924
 20
-62.0
 30
0.0
 11
-334.47272599999991
 21
-61.999999000000003
 31
0.0
  0
LINE
  5
601
  8
SIZE
  6
BYBLOCK
 62
    30
 10
-304.47272599999991
 20
-61.999999000000003
 30
0.0
 11
-304.47272599999991
 21
0.000001
 31
0.0
  0
TEXT
  5
602
  8
SIZE
  6
BYBLOCK
 62
    30
 10
-336.47272599999991
 20
-74.999999000000003
 30
0.0
 40
64.0
  1
62
 50
90.0
 41
0.9
  0
LINE
  5
603
  8
SIZE
  6
BYBLOCK
 62
    30
 10
-105.0
 20
-70.318271999999993
 30
0.0
 11
-105.0
 21
-308.40553674500501
 31
0.0
  0
LINE
  5
604
  8
SIZE
  6
BYBLOCK
 62
    30
 10
105.0
 20
-70.318271999999993
 30
0.0
 11
105.0
 21
-309.88333689759202
 31
0.0
  0
LINE
  5
605
  8
SIZE
  6
BYBLOCK
 62
    30
 10
-105.0
 20
-283.99254957805022
 30
0.0
 11
0.0
 21
-283.99254957805022
 31
0.0
  0
LINE
  5
606
  8
SIZE
  6
BYBLOCK
 62
    30
 10
105.0
 20
-283.99254957805022
 30
0.0
 11
0.0
 21
-283.99254957805022
 31
0.0
  0
TEXT
  5
607
  8
SIZE
  6
BYBLOCK
 62
    30
 10
-104.67380799999999
 20
-251.9925495780503
 30
0.0
 40
64.0
  1
□210
 41
0.9
  0
LINE
  5
608
  8
SIZE
  6
BYBLOCK
 62
    30
 10
-95.0
 20
41.653308999999993
 30
0.0
 11
-95.0
 21
395.83579500000002
 31
0.0
  0
LINE
  5
609
  8
SIZE
  6
BYBLOCK
 62
    30
 10
95.0
 20
41.653308999999993
 30
0.0
 11
95.0
 21
395.83579500000002
 31
0.0
  0
LINE
  5
60A
  8
SIZE
  6
BYBLOCK
 62
    30
 10
-95.0
 20
365.83579500000002
 30
0.0
 11
0.0
 21
365.83579500000002
 31
0.0
  0
LINE
  5
60B
  8
SIZE
  6
BYBLOCK
 62
    30
 10
95.0
 20
365.83579500000002
 30
0.0
 11
0.0
 21
365.83579500000002
 31
0.0
  0
TEXT
  5
60C
  8
SIZE
  6
BYBLOCK
 62
    30
 10
-72.777252134312221
 20
393.55231145123832
 30
0.0
 40
64.0
  1
190
 41
0.9
  0
CIRCLE
  5
60D
  8
SIZE
  6
CONTINUOUS
 62
    30
 10
95.0
 20
365.83579500000002
 30
0.0
 40
6.0
  0
CIRCLE
  5
60E
  8
SIZE
  6
CONTINUOUS
 62
    30
 10
-95.0
 20
365.83579500000002
 30
0.0
 40
6.0
  0
CIRCLE
  5
60F
  8
SIZE
  6
CONTINUOUS
 62
    30
 10
105.0
 20
-283.99254957805022
 30
0.0
 40
6.0
  0
CIRCLE
  5
610
  8
SIZE
  6
CONTINUOUS
 62
    30
 10
-105.0
 20
-283.99254957805022
 30
0.0
 40
6.0
  0
CIRCLE
  5
611
  8
SIZE
  6
CONTINUOUS
 62
    30
 10
-304.47272599999991
 20
0.000001
 30
0.0
 40
6.0
  0
CIRCLE
  5
612
  8
SIZE
  6
CONTINUOUS
 62
    30
 10
-304.47272599999991
 20
-61.999999000000003
 30
0.0
 40
6.0
  0
CIRCLE
  5
613
  8
SIZE
  6
CONTINUOUS
 62
    30
 10
70.0
 20
226.61837700000001
 30
0.0
 40
6.0
  0
CIRCLE
  5
614
  8
SIZE
  6
CONTINUOUS
 62
    30
 10
-70.0
 20
226.61837700000001
 30
0.0
 40
6.0
  0
CIRCLE
  5
615
  8
SIZE
  6
CONTINUOUS
 62
    30
 10
389.01838199999992
 20
0.0
 30
0.0
 40
6.0
  0
CIRCLE
  5
616
  8
SIZE
  6
CONTINUOUS
 62
    30
 10
389.01838199999992
 20
60.0
 30
0.0
 40
6.0
  0
CIRCLE
  5
617
  8
SIZE
  6
CONTINUOUS
 62
    30
 10
524.64600299999995
 20
87.0
 30
0.0
 40
6.0
  0
CIRCLE
  5
618
  8
SIZE
  6
CONTINUOUS
 62
    30
 10
524.64600299999995
 20
0.0
 30
0.0
 40
6.0
  0
LINE
  5
619
  8
NOTE
  6
CONTINUOUS
 62
     4
 10
85.0
 20
-37.599999999999959
 30
0.0
 11
85.0
 21
2.400000000000003
 31
0.0
  0
LINE
  5
61A
  8
NOTE
  6
CONTINUOUS
 62
     4
 10
65.0
 20
-17.599999999999991
 30
0.0
 11
105.0
 21
-17.599999999999991
 31
0.0
  0
TEXT
  5
61B
  8
ETC
  6
CONTINUOUS
 62
    61
 10
269.92188216120701
 20
325.96238137776271
 30
0.0
 40
40.0
  1
V-12PPVSD6
 41
0.9
  0
TEXT
  5
61C
  8
NOTE
  6
CONTINUOUS
 62
     4
 10
-991.7301730896628
 20
185.35199449139191
 30
0.0
 40
64.0
  1
2ヶ所×4×10取付用長穴
 41
0.9
  0
LINE
  5
61D
  8
NOTE
  6
CONTINUOUS
 62
     4
 10
-121.1709699999999
 20
30.250295000000001
 30
0.0
 11
-95.0
 21
0.0
 31
0.0
  0
LINE
  5
61E
  8
NOTE
  6
CONTINUOUS
 62
     4
 10
-95.0
 20
0.0
 30
0.0
 11
-102.53957799999991
 21
39.283008999999993
 31
0.0
  0
LINE
  5
61F
  8
NOTE
  6
CONTINUOUS
 62
     4
 10
102.6713239999998
 20
18.284876000000001
 30
0.0
 11
85.0
 21
-17.599999999999991
 31
0.0
  0
LINE
  5
620
  8
NOTE
  6
CONTINUOUS
 62
     4
 10
85.0
 20
-17.599999999999991
 30
0.0
 11
118.2462529999999
 21
4.6415519999999972
 31
0.0
  0
ARC
  5
622
  8
DETAIL
  6
CONTINUOUS
 62
     5
 10
0.0
 20
1777.0
 30
0.0
 40
1839.0
 50
266.87436161165959
 51
273.12563838834012
  0
ARC
  5
623
  8
DETAIL
  6
CONTINUOUS
 62
     5
 10
-100.0
 20
-54.271689291351521
 30
0.0
 40
5.0
 50
180.0
 51
266.87436161165522
  0
ARC
  5
624
  8
DETAIL
  6
CONTINUOUS
 62
     5
 10
100.0
 20
-54.271689291351521
 30
0.0
 40
5.0
 50
273.12563838833711
 51
0.0
  0
LINE
  5
62A
  8
DETAIL
  6
HIDDEN
 62
     5
 39
50.0
 10
71.0
 20
-13.09999999999998
 30
0.0
 11
71.0
 21
-22.09999999999998
 31
0.0
  0
LINE
  5
62B
  8
DETAIL
  6
HIDDEN
 62
     5
 39
50.0
 10
71.0
 20
-22.09999999999998
 30
0.0
 11
99.0
 21
-22.09999999999998
 31
0.0
  0
LINE
  5
62C
  8
DETAIL
  6
HIDDEN
 62
     5
 39
50.0
 10
99.0
 20
-22.09999999999998
 30
0.0
 11
99.0
 21
-13.09999999999998
 31
0.0
  0
LINE
  5
62D
  8
DETAIL
  6
HIDDEN
 62
     5
 39
50.0
 10
99.0
 20
-13.09999999999998
 30
0.0
 11
71.0
 21
-13.09999999999993
 31
0.0
  0
LINE
  5
62F
  8
OUTLINE
  6
CONTINUOUS
 62
     3
 10
70.0
 20
0.0
 30
0.0
 11
70.0
 21
60.0
 31
0.0
  0
LINE
  5
630
  8
OUTLINE
  6
CONTINUOUS
 62
     3
 10
-70.0
 20
0.0
 30
0.0
 11
-70.0
 21
60.0
 31
0.0
  0
LINE
  5
631
  8
OUTLINE
  6
CONTINUOUS
 62
     3
 10
-105.0
 20
0.0
 30
0.0
 11
105.0
 21
0.0
 31
0.0
  0
ARC
  5
632
  8
OUTLINE
  6
CONTINUOUS
 62
     3
 10
0.0000000000010232
 20
1777.0000000000309
 30
0.0
 40
1839.00000000003
 50
266.87436161165959
 51
273.12563838834012
  0
ARC
  5
633
  8
OUTLINE
  6
CONTINUOUS
 62
     3
 10
-100.0
 20
-54.271689291351286
 30
0.0
 40
5.0
 50
180.0
 51
266.87436161166829
  0
LINE
  5
634
  8
OUTLINE
  6
CONTINUOUS
 62
     3
 10
-105.0
 20
0.0
 30
0.0
 11
-105.0
 21
-54.271689291351286
 31
0.0
  0
ARC
  5
635
  8
OUTLINE
  6
CONTINUOUS
 62
     3
 10
100.0
 20
-54.271689291351521
 30
0.0
 40
5.0
 50
273.12563838833182
 51
0.0
  0
LINE
  5
636
  8
OUTLINE
  6
CONTINUOUS
 62
     3
 10
105.0
 20
0.0
 30
0.0
 11
105.0
 21
-54.271689291351521
 31
0.0
  0
LINE
  5
637
  8
OUTLINE
  6
CONTINUOUS
 62
     3
 10
70.0
 20
0.0
 30
0.0
 11
105.0
 21
0.0
 31
0.0
  0
LINE
  5
638
  8
OUTLINE
  6
CONTINUOUS
 62
     3
 10
-64.5
 20
87.0
 30
0.0
 11
64.499999999999446
 21
87.0
 31
0.0
  0
LINE
  5
639
  8
OUTLINE
  6
CONTINUOUS
 62
     3
 10
-70.0
 20
60.0
 30
0.0
 11
70.0
 21
60.0
 31
0.0
  0
LINE
  5
63A
  8
OUTLINE
  6
CONTINUOUS
 62
     3
 10
-64.5
 20
60.0
 30
0.0
 11
-64.5
 21
87.0
 31
0.0
  0
LINE
  5
63B
  8
OUTLINE
  6
CONTINUOUS
 62
     3
 10
64.499999999999446
 20
60.0
 30
0.0
 11
64.499999999999446
 21
87.0
 31
0.0
  0
ENDSEC
  0
EOF
