  0
SECTION
  2
HEADER
  9
$ACADVER
  1
AC1009
  9
$INSBASE
 10
0.0
 20
0.0
 30
0.0
  9
$EXTMIN
 10
-1034.7923209999999
 20
-397.34896800000001
 30
0.0
  9
$EXTMAX
 10
577.52046147798558
 20
486.7587404665328
 30
50.0
  9
$LIMMIN
 10
-2970.0
 20
-2100.0
  9
$LIMMAX
 10
2970.0
 20
2100.0
  9
$ORTHOMODE
 70
     1
  9
$REGENMODE
 70
     1
  9
$FILLMODE
 70
     1
  9
$QTEXTMODE
 70
     0
  9
$MIRRTEXT
 70
     0
  9
$DRAGMODE
 70
     2
  9
$LTSCALE
 40
20.0
  9
$OSMODE
 70
   423
  9
$ATTMODE
 70
     1
  9
$TEXTSIZE
 40
64.0
  9
$TRACEWID
 40
0.05
  9
$TEXTSTYLE
  7
STANDARD
  9
$CLAYER
  8
DETAIL
  9
$CELTYPE
  6
CONTINUOUS
  9
$CECOLOR
 62
     5
  9
$DIMSCALE
 40
1.0
  9
$DIMASZ
 40
12.0
  9
$DIMEXO
 40
20.0
  9
$DIMDLI
 40
200.0
  9
$DIMRND
 40
0.0
  9
$DIMDLE
 40
0.0
  9
$DIMEXE
 40
20.0
  9
$DIMTP
 40
0.0
  9
$DIMTM
 40
0.0
  9
$DIMTXT
 40
64.0
  9
$DIMCEN
 40
0.09
  9
$DIMTSZ
 40
0.0
  9
$DIMTOL
 70
     0
  9
$DIMLIM
 70
     0
  9
$DIMTIH
 70
     0
  9
$DIMTOH
 70
     0
  9
$DIMSE1
 70
     0
  9
$DIMSE2
 70
     0
  9
$DIMTAD
 70
     1
  9
$DIMZIN
 70
     8
  9
$DIMBLK
  1
DOT1
  9
$DIMASO
 70
     1
  9
$DIMSHO
 70
     0
  9
$DIMPOST
  1

  9
$DIMAPOST
  1

  9
$DIMALT
 70
     0
  9
$DIMALTD
 70
     2
  9
$DIMALTF
 40
25.399999999999999
  9
$DIMLFAC
 40
1.0
  9
$DIMTOFL
 70
     1
  9
$DIMTVP
 40
0.0
  9
$DIMTIX
 70
     1
  9
$DIMSOXD
 70
     0
  9
$DIMSAH
 70
     1
  9
$DIMBLK1
  1
ORIGIN
  9
$DIMBLK2
  1
ORIGIN
  9
$DIMSTYLE
  2
STANDARD
  9
$DIMCLRD
 70
     7
  9
$DIMCLRE
 70
     7
  9
$DIMCLRT
 70
     7
  9
$DIMTFAC
 40
1.0
  9
$DIMGAP
 40
25.0
  9
$LUNITS
 70
     2
  9
$LUPREC
 70
     4
  9
$SKETCHINC
 40
0.1
  9
$FILLETRAD
 40
10.0
  9
$AUNITS
 70
     1
  9
$AUPREC
 70
     3
  9
$MENU
  1
ACAD
  9
$ELEVATION
 40
0.0
  9
$PELEVATION
 40
0.0
  9
$THICKNESS
 40
50.0
  9
$LIMCHECK
 70
     0
  9
$BLIPMODE
 70
     0
  9
$CHAMFERA
 40
0.0
  9
$CHAMFERB
 40
0.0
  9
$SKPOLY
 70
     0
  9
$TDCREATE
 40
2453019.6230103699
  9
$TDUPDATE
 40
2454724.928514536
  9
$TDINDWG
 40
0.38407375
  9
$TDUSRTIMER
 40
0.38407375
  9
$USRTIMER
 70
     1
  9
$ANGBASE
 50
0.0
  9
$ANGDIR
 70
     0
  9
$PDMODE
 70
     3
  9
$PDSIZE
 40
-2.0
  9
$PLINEWID
 40
0.0
  9
$COORDS
 70
     2
  9
$SPLFRAME
 70
     0
  9
$SPLINETYPE
 70
     6
  9
$SPLINESEGS
 70
     8
  9
$ATTDIA
 70
     0
  9
$ATTREQ
 70
     1
  9
$HANDLING
 70
 22529
  9
$HANDSEED
  5
5FD
  9
$SURFTAB1
 70
     6
  9
$SURFTAB2
 70
     6
  9
$SURFTYPE
 70
     6
  9
$SURFU
 70
     6
  9
$SURFV
 70
     6
  9
$UCSNAME
  2

  9
$UCSORG
 10
0.0
 20
0.0
 30
0.0
  9
$UCSXDIR
 10
1.0
 20
0.0
 30
0.0
  9
$UCSYDIR
 10
0.0
 20
1.0
 30
0.0
  9
$PUCSNAME
  2

  9
$PUCSORG
 10
0.0
 20
0.0
 30
0.0
  9
$PUCSXDIR
 10
1.0
 20
0.0
 30
0.0
  9
$PUCSYDIR
 10
0.0
 20
1.0
 30
0.0
  9
$USERI1
 70
     0
  9
$USERI2
 70
     0
  9
$USERI3
 70
     0
  9
$USERI4
 70
     0
  9
$USERI5
 70
     0
  9
$USERR1
 40
20.0
  9
$USERR2
 40
0.0
  9
$USERR3
 40
0.0
  9
$USERR4
 40
0.0
  9
$USERR5
 40
0.0
  9
$WORLDVIEW
 70
     1
  9
$SHADEDGE
 70
     3
  9
$SHADEDIF
 70
    70
  9
$TILEMODE
 70
     1
  9
$MAXACTVP
 70
    48
  9
$PLIMCHECK
 70
     0
  9
$PEXTMIN
 10
-1.0000000000000000E+020
 20
-1.0000000000000000E+020
 30
-1.0000000000000000E+020
  9
$PEXTMAX
 10
1.0000000000000000E+020
 20
1.0000000000000000E+020
 30
1.0000000000000000E+020
  9
$PLIMMIN
 10
0.0
 20
0.0
  9
$PLIMMAX
 10
12.0
 20
9.0
  9
$UNITMODE
 70
     0
  9
$VISRETAIN
 70
     0
  9
$PLINEGEN
 70
     0
  9
$PSLTSCALE
 70
     0
  0
ENDSEC
  0
SECTION
  2
TABLES
  0
TABLE
  2
VPORT
 70
     3
  0
VPORT
  2
*ACTIVE
 70
     0
 10
0.0
 20
0.0
 11
1.0
 21
1.0
 12
-228.6367081372303
 22
47.985006910808117
 13
0.0
 23
0.0
 14
1.0
 24
1.0
 15
0.0
 25
0.0
 16
0.0
 26
0.0
 36
1.0
 17
0.0
 27
0.0
 37
0.0
 40
1125.1017137638389
 41
1.493654822335025
 42
50.0
 43
0.0
 44
0.0
 50
0.0
 51
0.0
 71
     0
 72
  1000
 73
     1
 74
     0
 75
     0
 76
     0
 77
     0
 78
     0
  0
ENDTAB
  0
TABLE
  2
LTYPE
 70
     2
  0
LTYPE
  2
CONTINUOUS
 70
     0
  3
実線
 72
    65
 73
     0
 40
0.0
  0
LTYPE
  2
DASHDOT
 70
     0
  3
____ _ ____ _ ____ _ ____ _ ____ _ ____ _ ____
 72
    65
 73
     4
 40
5.5
 49
4.0
 49
-0.6
 49
0.3
 49
-0.6
  0
ENDTAB
  0
TABLE
  2
LAYER
 70
    12
  0
LAYER
  2
0
 70
     0
 62
     7
  6
CONTINUOUS
  0
LAYER
  2
OUTLINE
 70
     0
 62
     3
  6
CONTINUOUS
  0
LAYER
  2
DETAIL
 70
     0
 62
     5
  6
CONTINUOUS
  0
LAYER
  2
NOTE
 70
     0
 62
     4
  6
CONTINUOUS
  0
LAYER
  2
BASIS
 70
     0
 62
     6
  6
DASHDOT
  0
LAYER
  2
SIZE
 70
     0
 62
    30
  6
CONTINUOUS
  0
LAYER
  2
ARRANGE
 70
     0
 62
     1
  6
CONTINUOUS
  0
LAYER
  2
DEFPOINTS
 70
     0
 62
     7
  6
CONTINUOUS
  0
LAYER
  2
ETC
 70
     0
 62
    61
  6
CONTINUOUS
  0
LAYER
  2
FIX
 70
     0
 62
    11
  6
CONTINUOUS
  0
LAYER
  2
SERVICESPACE
 70
     0
 62
     2
  6
DASHDOT
  0
LAYER
  2
SYMBOLLINE
 70
     0
 62
    15
  6
CONTINUOUS
  0
ENDTAB
  0
TABLE
  2
STYLE
 70
     1
  0
STYLE
  2
STANDARD
 70
     0
 40
64.0
 41
0.9
 50
0.0
 71
     0
 42
64.0
  3
SIMPLEX.shx
  4
BIGFONT.shx
  0
ENDTAB
  0
TABLE
  2
VIEW
 70
     1
  0
VIEW
  2
ALL
 70
     0
 40
4282.6198079999967
 10
0.0
 20
41.309903999999989
 41
5940.0
 11
0.0
 21
0.0
 31
1.0
 12
0.0
 22
0.0
 32
0.0
 42
50.0
 43
0.0
 44
0.0
 50
0.0
 71
     0
  0
ENDTAB
  0
TABLE
  2
UCS
 70
     0
  0
ENDTAB
  0
TABLE
  2
APPID
 70
     2
  0
APPID
  2
ACAD
 70
     0
  0
APPID
  2
AUTOCAD_POSTSCRIPT_FIGURE
 70
     0
  0
ENDTAB
  0
TABLE
  2
DIMSTYLE
 70
     1
  0
DIMSTYLE
  2
STANDARD
 70
     0
  3

  4

  5

  6

  7

 40
1.0
 41
0.18
 42
0.0625
 43
0.38
 44
0.18
 45
0.0
 46
0.0
 47
0.0
 48
0.0
140
0.18
141
0.09
142
0.0
143
25.399999999999999
144
1.0
145
0.0
146
1.0
147
0.09
 71
     0
 72
     0
 73
     1
 74
     1
 75
     0
 76
     0
 77
     0
 78
     0
170
     0
171
     2
172
     0
173
     0
174
     0
175
     0
176
     7
177
     7
178
     7
  0
ENDTAB
  0
ENDSEC
  0
SECTION
  2
BLOCKS
  0
BLOCK
  8
0
  2
$MODEL_SPACE
 70
     0
 10
0.0
 20
0.0
 30
0.0
  3
$MODEL_SPACE
  1

  0
ENDBLK
  5
4FE
  8
0
  0
BLOCK
 67
     1
  8
0
  2
$PAPER_SPACE
 70
     0
 10
0.0
 20
0.0
 30
0.0
  3
$PAPER_SPACE
  1

  0
ENDBLK
  5
4FA
 67
     1
  8
0
  0
BLOCK
  8
0
  2
DOT1
 70
     0
 10
0.0
 20
0.0
 30
0.0
  3
DOT1
  1

  0
CIRCLE
  5
51A
  8
SIZE
  6
CONTINUOUS
 62
     7
 10
0.0
 20
0.0
 30
0.0
 40
3.0
  0
ENDBLK
  5
51B
  8
0
  0
BLOCK
  8
0
  2
_ORIGIN
 70
     0
 10
0.0
 20
0.0
 30
0.0
  3
_ORIGIN
  1

  0
CIRCLE
  5
51E
  8
0
  6
CONTINUOUS
 62
     7
 10
0.0
 20
0.0
 30
0.0
 40
0.5
  0
LINE
  5
51F
  8
0
  6
CONTINUOUS
 62
     7
 10
0.0
 20
0.0
 30
0.0
 11
-1.0
 21
0.0
 31
0.0
  0
ENDBLK
  5
520
  8
0
  0
ENDSEC
  0
SECTION
  2
ENTITIES
  0
LINE
  5
521
  8
BASIS
  6
DASHDOT
 62
     6
 39
50.0
 10
0.0
 20
136.39604046793099
 30
0.0
 11
0.0
 21
-129.92572100000001
 31
0.0
  0
POINT
  5
522
  8
ARRANGE
  6
CONTINUOUS
 62
     1
 10
0.0
 20
0.0
 30
0.0
 39
50.0
  0
CIRCLE
  5
523
  8
ARRANGE
  6
CONTINUOUS
 62
     1
 39
50.0
 10
0.0
 20
0.0
 30
0.0
 40
40.0
  0
LINE
  5
524
  8
DETAIL
  6
CONTINUOUS
 62
     5
 39
50.0
 10
95.0
 20
-105.0
 30
0.0
 11
-95.0
 21
-105.0
 31
0.0
  0
LINE
  5
525
  8
DETAIL
  6
CONTINUOUS
 62
     5
 39
50.0
 10
-105.0
 20
-95.0
 30
0.0
 11
-105.0
 21
95.0
 31
0.0
  0
LINE
  5
526
  8
DETAIL
  6
CONTINUOUS
 62
     5
 39
50.0
 10
-95.0
 20
105.0
 30
0.0
 11
95.0
 21
105.0
 31
0.0
  0
LINE
  5
527
  8
DETAIL
  6
CONTINUOUS
 62
     5
 39
50.0
 10
105.0
 20
95.0
 30
0.0
 11
105.0
 21
-95.0
 31
0.0
  0
ARC
  5
528
  8
DETAIL
  6
CONTINUOUS
 62
     5
 39
50.0
 10
95.0
 20
95.0
 30
0.0
 40
10.0
 50
0.0
 51
90.0
  0
ARC
  5
529
  8
DETAIL
  6
CONTINUOUS
 62
     5
 39
50.0
 10
-95.0
 20
95.0
 30
0.0
 40
10.0
 50
90.0
 51
180.0
  0
ARC
  5
52A
  8
DETAIL
  6
CONTINUOUS
 62
     5
 39
50.0
 10
-95.0
 20
-95.0
 30
0.0
 40
10.0
 50
180.0
 51
270.0
  0
ARC
  5
52B
  8
DETAIL
  6
CONTINUOUS
 62
     5
 39
50.0
 10
95.0
 20
-95.0
 30
0.0
 40
10.0
 50
270.0
 51
0.0
  0
LINE
  5
52C
  8
BASIS
  6
DASHDOT
 62
     6
 39
50.0
 10
152.9295195282001
 20
0.0
 30
0.0
 11
-153.78561193163659
 21
0.0
 31
0.0
  0
ARC
  5
52D
  8
FIX
  6
CONTINUOUS
 62
    11
 39
50.0
 10
95.0
 20
6.0
 30
0.0
 40
2.0
 50
0.0
 51
180.0
  0
ARC
  5
52E
  8
FIX
  6
CONTINUOUS
 62
    11
 39
50.0
 10
95.0
 20
0.0
 30
0.0
 40
2.0
 50
180.0
 51
0.0
  0
LINE
  5
52F
  8
FIX
  6
CONTINUOUS
 62
    11
 39
50.0
 10
93.0
 20
6.0
 30
0.0
 11
93.0
 21
0.0
 31
0.0
  0
LINE
  5
530
  8
FIX
  6
CONTINUOUS
 62
    11
 39
50.0
 10
97.0
 20
6.0
 30
0.0
 11
97.0
 21
0.0
 31
0.0
  0
LINE
  5
531
  8
NOTE
  6
CONTINUOUS
 62
     4
 39
50.0
 10
95.0
 20
-2.0
 30
0.0
 11
95.0
 21
0.0
 31
0.0
  0
LINE
  5
532
  8
NOTE
  6
CONTINUOUS
 62
     4
 10
95.0
 20
-20.0
 30
0.0
 11
95.0
 21
20.0
 31
0.0
  0
LINE
  5
533
  8
NOTE
  6
CONTINUOUS
 62
     4
 10
115.0
 20
0.0
 30
0.0
 11
75.0
 21
0.0
 31
0.0
  0
LINE
  5
534
  8
NOTE
  6
CONTINUOUS
 62
     4
 39
50.0
 10
95.0
 20
0.0
 30
0.0
 11
95.0
 21
6.0
 31
0.0
  0
LINE
  5
535
  8
NOTE
  6
CONTINUOUS
 62
     4
 10
95.0
 20
-14.0
 30
0.0
 11
95.0
 21
26.0
 31
0.0
  0
LINE
  5
536
  8
NOTE
  6
CONTINUOUS
 62
     4
 10
115.0
 20
6.0
 30
0.0
 11
75.0
 21
6.0
 31
0.0
  0
LINE
  5
537
  8
NOTE
  6
CONTINUOUS
 62
     4
 39
50.0
 10
-95.0
 20
0.0
 30
0.0
 11
-95.0
 21
6.0
 31
0.0
  0
LINE
  5
538
  8
NOTE
  6
CONTINUOUS
 62
     4
 39
50.0
 10
-95.0
 20
0.0
 30
0.0
 11
-109.9799949999999
 21
0.0
 31
0.0
  0
LINE
  5
539
  8
NOTE
  6
CONTINUOUS
 62
     4
 39
50.0
 10
-95.0
 20
-2.0
 30
0.0
 11
-95.0
 21
0.0
 31
0.0
  0
ARC
  5
53A
  8
FIX
  6
CONTINUOUS
 62
    11
 39
50.0
 10
-95.0
 20
0.0
 30
0.0
 40
2.0
 50
180.0
 51
0.0
  0
ARC
  5
53B
  8
FIX
  6
CONTINUOUS
 62
    11
 39
50.0
 10
-95.0
 20
6.0
 30
0.0
 40
2.0
 50
0.0
 51
180.0
  0
LINE
  5
53C
  8
FIX
  6
CONTINUOUS
 62
    11
 39
50.0
 10
-93.0
 20
6.0
 30
0.0
 11
-93.0
 21
0.0
 31
0.0
  0
LINE
  5
53D
  8
FIX
  6
CONTINUOUS
 62
    11
 39
50.0
 10
-97.0
 20
6.0
 30
0.0
 11
-97.0
 21
0.0
 31
0.0
  0
LINE
  5
53E
  8
NOTE
  6
CONTINUOUS
 62
     4
 10
-95.0
 20
-14.0
 30
0.0
 11
-95.0
 21
26.0
 31
0.0
  0
LINE
  5
53F
  8
NOTE
  6
CONTINUOUS
 62
     4
 10
-75.0
 20
6.0
 30
0.0
 11
-115.0
 21
6.0
 31
0.0
  0
LINE
  5
540
  8
NOTE
  6
CONTINUOUS
 62
     4
 10
-95.0
 20
-20.0
 30
0.0
 11
-95.0
 21
20.0
 31
0.0
  0
LINE
  5
541
  8
NOTE
  6
CONTINUOUS
 62
     4
 10
-75.0
 20
0.0
 30
0.0
 11
-115.0
 21
0.0
 31
0.0
  0
LINE
  5
542
  8
OUTLINE
  6
CONTINUOUS
 62
     3
 39
50.0
 10
-95.0
 20
105.0
 30
0.0
 11
95.0
 21
105.0
 31
0.0
  0
LINE
  5
543
  8
OUTLINE
  6
CONTINUOUS
 62
     3
 39
50.0
 10
105.0
 20
95.0
 30
0.0
 11
105.0
 21
-95.0
 31
0.0
  0
ARC
  5
544
  8
OUTLINE
  6
CONTINUOUS
 62
     3
 39
50.0
 10
95.0
 20
95.0
 30
0.0
 40
10.0
 50
0.0
 51
90.0
  0
LINE
  5
545
  8
OUTLINE
  6
CONTINUOUS
 62
     3
 39
50.0
 10
-105.0
 20
-95.0
 30
0.0
 11
-105.0
 21
95.0
 31
0.0
  0
ARC
  5
546
  8
OUTLINE
  6
CONTINUOUS
 62
     3
 39
50.0
 10
-95.0
 20
95.0
 30
0.0
 40
10.0
 50
90.0
 51
180.0
  0
LINE
  5
547
  8
OUTLINE
  6
CONTINUOUS
 62
     3
 39
50.0
 10
95.0
 20
-105.0
 30
0.0
 11
-95.0
 21
-105.0
 31
0.0
  0
ARC
  5
548
  8
OUTLINE
  6
CONTINUOUS
 62
     3
 39
50.0
 10
-95.0
 20
-95.0
 30
0.0
 40
10.0
 50
180.0
 51
270.0
  0
ARC
  5
549
  8
OUTLINE
  6
CONTINUOUS
 62
     3
 39
50.0
 10
95.0
 20
-95.0
 30
0.0
 40
10.0
 50
270.0
 51
0.0
  0
LINE
  5
54A
  8
SIZE
  6
CONTINUOUS
 62
    30
 10
95.0
 20
-20.0
 30
0.0
 11
95.0
 21
-255.33233599999991
 31
0.0
  0
LINE
  5
54B
  8
SIZE
  6
CONTINUOUS
 62
    30
 10
-95.0
 20
-20.0
 30
0.0
 11
-95.0
 21
-255.33233599999991
 31
0.0
  0
LINE
  5
54C
  8
SIZE
  6
CONTINUOUS
 62
    30
 10
83.0
 20
-235.332336
 30
0.0
 11
-83.0
 21
-235.332336
 31
0.0
  0
CIRCLE
  5
54D
  8
SIZE
  6
CONTINUOUS
 62
    30
 10
95.0
 20
-235.332336
 30
0.0
 40
6.0
  0
LINE
  5
54E
  8
SIZE
  6
CONTINUOUS
 62
    30
 10
95.0
 20
-235.332336
 30
0.0
 11
83.0
 21
-235.332336
 31
0.0
  0
CIRCLE
  5
54F
  8
SIZE
  6
CONTINUOUS
 62
    30
 10
-95.0
 20
-235.332336
 30
0.0
 40
6.0
  0
LINE
  5
550
  8
SIZE
  6
CONTINUOUS
 62
    30
 10
-95.0
 20
-235.332336
 30
0.0
 11
-83.0
 21
-235.332336
 31
0.0
  0
TEXT
  5
551
  8
SIZE
  6
CONTINUOUS
 62
    30
 10
-68.571428571428569
 20
-210.332336
 30
0.0
 40
64.0
  1
190
 41
0.9
 72
     1
 11
0.0
 21
-210.332336
 31
0.0
  0
LINE
  5
552
  8
SIZE
  6
CONTINUOUS
 62
    30
 10
105.0
 20
-115.0
 30
0.0
 11
105.0
 21
-397.34896800000001
 31
0.0
  0
LINE
  5
553
  8
SIZE
  6
CONTINUOUS
 62
    30
 10
-105.0
 20
-115.0
 30
0.0
 11
-105.0
 21
-397.34896800000001
 31
0.0
  0
LINE
  5
554
  8
SIZE
  6
CONTINUOUS
 62
    30
 10
105.0
 20
-377.34896800000001
 30
0.0
 11
-105.0
 21
-377.34896800000001
 31
0.0
  0
CIRCLE
  5
555
  8
SIZE
  6
CONTINUOUS
 62
    30
 10
105.0
 20
-377.34896800000001
 30
0.0
 40
6.0
  0
CIRCLE
  5
556
  8
SIZE
  6
CONTINUOUS
 62
    30
 10
-105.0
 20
-377.34896800000001
 30
0.0
 40
6.0
  0
TEXT
  5
557
  8
SIZE
  6
CONTINUOUS
 62
    30
 10
-105.0514285714285
 20
-352.34896800000001
 30
0.0
 40
64.0
  1
□210
 41
0.9
 72
     1
 11
0.0
 21
-352.34896800000001
 31
0.0
  0
LINE
  5
558
  8
SIZE
  6
CONTINUOUS
 62
    30
 10
-115.0
 20
0.0
 30
0.0
 11
-249.9782549999999
 21
0.0
 31
0.0
  0
LINE
  5
559
  8
SIZE
  6
CONTINUOUS
 62
    30
 10
-115.0
 20
6.0
 30
0.0
 11
-249.9782549999999
 21
6.0
 31
0.0
  0
LINE
  5
55A
  8
SIZE
  6
CONTINUOUS
 62
    30
 10
-229.9782549999999
 20
18.0
 30
0.0
 11
-229.9782549999999
 21
30.0
 31
0.0
  0
LINE
  5
55B
  8
SIZE
  6
CONTINUOUS
 62
    30
 10
-229.9782549999999
 20
-12.0
 30
0.0
 11
-229.9782549999999
 21
-109.657143
 31
0.0
  0
LINE
  5
55C
  8
SIZE
  6
CONTINUOUS
 62
    30
 10
-229.9782549999999
 20
6.0
 30
0.0
 11
-229.9782549999999
 21
0.0
 31
0.0
  0
CIRCLE
  5
55D
  8
SIZE
  6
CONTINUOUS
 62
    30
 10
-229.9782549999999
 20
6.0
 30
0.0
 40
6.0
  0
LINE
  5
55E
  8
SIZE
  6
CONTINUOUS
 62
    30
 10
-229.9782549999999
 20
6.0
 30
0.0
 11
-229.9782549999999
 21
18.0
 31
0.0
  0
CIRCLE
  5
55F
  8
SIZE
  6
CONTINUOUS
 62
    30
 10
-229.9782549999999
 20
0.0
 30
0.0
 40
6.0
  0
LINE
  5
560
  8
SIZE
  6
CONTINUOUS
 62
    30
 10
-229.9782549999999
 20
0.0
 30
0.0
 11
-229.9782549999999
 21
-12.0
 31
0.0
  0
TEXT
  5
561
  8
SIZE
  6
CONTINUOUS
 62
    30
 10
-254.9782549999999
 20
-84.657142428571419
 30
0.0
 40
64.0
  1
6
 50
90.0
 41
0.9
 72
     1
 11
-254.9782549999999
 21
-66.828570999999997
 31
0.0
  0
LINE
  5
562
  8
NOTE
  6
CONTINUOUS
 62
     4
 10
-111.4801109999997
 20
42.447302999999991
 30
0.0
 11
-95.0
 21
6.0
 31
0.0
  0
LINE
  5
563
  8
NOTE
  6
CONTINUOUS
 62
     4
 10
-95.0
 20
6.0
 30
0.0
 11
-127.495847
 21
29.324235000000002
 31
0.0
  0
TEXT
  5
564
  8
NOTE
  6
CONTINUOUS
 62
     4
 10
-1026.442244999999
 20
150.574015
 30
0.0
 40
64.0
  1
2ヶ所×4×10取付用長穴
 41
0.9
  0
LINE
  5
565
  8
NOTE
  6
CONTINUOUS
 62
     4
 39
50.0
 10
-95.0
 20
6.0
 30
0.0
 11
-194.1407189999999
 21
128.79038600000001
 31
0.0
  0
LINE
  5
566
  8
NOTE
  6
CONTINUOUS
 62
     4
 39
50.0
 10
-194.1407189999999
 20
128.79038600000001
 30
0.0
 11
-1034.7923209999999
 21
128.79038600000001
 31
0.0
  0
ARC
  5
567
  8
DETAIL
  6
CONTINUOUS
 62
     5
 10
107.28104399999999
 20
-42.562059999999981
 30
0.0
 40
0.394841
 50
183.93255999999991
 51
258.81831599999992
  0
ARC
  5
568
  8
DETAIL
  6
CONTINUOUS
 62
     5
 10
107.28104399999999
 20
-44.534320999999991
 30
0.0
 40
0.394841
 50
101.1816839999999
 51
176.06744
  0
ARC
  5
569
  8
DETAIL
  6
CONTINUOUS
 62
     5
 10
107.841354
 20
-43.477781
 30
0.0
 40
0.394841
 50
0.0
 51
78.818316000000024
  0
ARC
  5
56A
  8
DETAIL
  6
CONTINUOUS
 62
     5
 10
107.841354
 20
-43.618600000000001
 30
0.0
 40
0.394841
 50
281.1816839999999
 51
0.0
  0
ARC
  5
56B
  8
DETAIL
  6
CONTINUOUS
 62
     5
 10
105.4075709999999
 20
-48.945087999999998
 30
0.0
 40
0.394841
 50
271.14999999999998
 51
336.59996999999993
  0
ARC
  5
56C
  8
DETAIL
  6
CONTINUOUS
 62
     5
 10
92.936094999999995
 20
-43.548190999999989
 30
0.0
 40
13.98396299999999
 50
3.9325599999999992
 51
23.40002999999998
  0
ARC
  5
56D
  8
DETAIL
  6
CONTINUOUS
 62
     5
 10
92.936094999999995
 20
-43.548190999999989
 30
0.0
 40
13.98396299999999
 50
336.59996999999993
 51
356.06743999999992
  0
LINE
  5
56E
  8
DETAIL
  6
CONTINUOUS
 62
     5
 10
107.91792199999971
 20
-44.005946000000002
 30
0.0
 11
107.204476
 21
-44.146974999999991
 31
0.0
  0
LINE
  5
56F
  8
DETAIL
  6
CONTINUOUS
 62
     5
 10
107.204476
 20
-42.949406000000003
 30
0.0
 11
107.91792199999971
 21
-43.090434999999999
 31
0.0
  0
LINE
  5
570
  8
DETAIL
  6
CONTINUOUS
 62
     5
 10
108.23619599999979
 20
-43.477781
 30
0.0
 11
108.23619599999979
 21
-43.618600000000001
 31
0.0
  0
LINE
  5
571
  8
DETAIL
  6
CONTINUOUS
 62
     5
 10
105.41549599999991
 20
-49.339849999999991
 30
0.0
 11
105.0
 21
-49.348191
 31
0.0
  0
CIRCLE
  5
572
  8
DETAIL
  6
CONTINUOUS
 62
     5
 39
50.0
 10
0.0
 20
0.0
 30
0.0
 40
70.0
  0
LINE
  5
573
  8
SIZE
  6
CONTINUOUS
 62
    30
 10
389.06729065249829
 20
-220.4037456577079
 30
0.0
 11
71.347145116819533
 21
-40.41763045403475
 31
0.0
  0
LINE
  5
574
  8
SIZE
  6
CONTINUOUS
 62
    30
 10
-71.347145116819533
 20
40.41763045403475
 30
0.0
 11
-81.788191245325251
 21
46.332405666388638
 31
0.0
  0
TEXT
  5
575
  8
SIZE
  6
CONTINUOUS
 62
    30
 10
202.5574417339445
 20
-86.014466766348136
 30
0.0
 40
64.0
  1
φ140
 50
330.46873367585761
 41
0.9
 72
     1
 11
297.30244188538222
 21
-139.68688205232709
 31
0.0
  0
LINE
  5
576
  8
SIZE
  6
CONTINUOUS
 62
    30
 10
-60.90609898831385
 20
34.502855241680862
 30
0.0
 11
60.90609898831385
 21
-34.502855241680862
 31
0.0
  0
CIRCLE
  5
577
  8
SIZE
  6
CONTINUOUS
 62
    30
 10
-60.90609898831385
 20
34.502855241680862
 30
0.0
 40
6.0
  0
LINE
  5
578
  8
SIZE
  6
CONTINUOUS
 62
    30
 10
-60.90609898831385
 20
34.502855241680862
 30
0.0
 11
-71.347145116819533
 21
40.41763045403475
 31
0.0
  0
CIRCLE
  5
579
  8
SIZE
  6
CONTINUOUS
 62
    30
 10
60.90609898831385
 20
-34.502855241680862
 30
0.0
 40
6.0
  0
LINE
  5
57A
  8
SIZE
  6
CONTINUOUS
 62
    30
 10
60.90609898831385
 20
-34.502855241680862
 30
0.0
 11
71.347145116819533
 21
-40.41763045403475
 31
0.0
  0
LINE
  5
57B
  8
DETAIL
  6
CONTINUOUS
 62
     5
 10
-97.998824000000013
 20
64.388234999999995
 30
0.0
 11
-96.258824000000004
 21
64.388234999999995
 31
0.0
  0
LINE
  5
57C
  8
DETAIL
  6
CONTINUOUS
 62
     5
 10
-89.605882999999949
 20
77.694118000000003
 30
0.0
 11
-97.282353000000015
 21
77.694118000000003
 31
0.0
  0
LINE
  5
57D
  8
DETAIL
  6
CONTINUOUS
 62
     5
 10
-97.282353000000015
 20
82.811764999999994
 30
0.0
 11
-89.605882999999949
 21
82.811764999999994
 31
0.0
  0
LINE
  5
57E
  8
DETAIL
  6
CONTINUOUS
 62
     5
 10
-96.258824000000004
 20
86.905881999999963
 30
0.0
 11
-97.998824000000013
 21
86.905881999999963
 31
0.0
  0
LINE
  5
57F
  8
DETAIL
  6
CONTINUOUS
 62
     5
 10
-75.174118000000007
 20
70.529411999999994
 30
0.0
 11
-75.174118000000007
 21
60.294117999999997
 31
0.0
  0
LINE
  5
580
  8
DETAIL
  6
CONTINUOUS
 62
     5
 10
-79.472941000000006
 20
70.529411999999994
 30
0.0
 11
-79.472941000000006
 21
60.294117999999997
 31
0.0
  0
LINE
  5
581
  8
DETAIL
  6
CONTINUOUS
 62
     5
 10
-85.0
 20
62.955293999999988
 30
0.0
 11
-85.0
 21
88.338824000000002
 31
0.0
  0
LINE
  5
582
  8
DETAIL
  6
CONTINUOUS
 62
     5
 10
-87.558824000000001
 20
91.0
 30
0.0
 11
-87.558824000000001
 21
60.294117999999997
 31
0.0
  0
LINE
  5
583
  8
DETAIL
  6
CONTINUOUS
 62
     5
 10
-89.503530000000012
 20
70.529411999999994
 30
0.0
 11
-89.503530000000012
 21
60.294117999999997
 31
0.0
  0
LINE
  5
584
  8
DETAIL
  6
CONTINUOUS
 62
     5
 10
-93.802352999999997
 20
70.529411999999994
 30
0.0
 11
-93.802352999999997
 21
60.294117999999997
 31
0.0
  0
LINE
  5
585
  8
DETAIL
  6
CONTINUOUS
 62
     5
 10
-73.229411999999982
 20
60.294117999999997
 30
0.0
 11
-81.110588000000007
 21
60.294117999999997
 31
0.0
  0
LINE
  5
586
  8
DETAIL
  6
CONTINUOUS
 62
     5
 10
-75.276471000000001
 20
62.341176000000011
 30
0.0
 11
-81.110588000000007
 21
62.341176000000011
 31
0.0
  0
LINE
  5
587
  8
DETAIL
  6
CONTINUOUS
 62
     5
 10
-81.110588000000007
 20
63.876470999999981
 30
0.0
 11
-75.276471000000001
 21
63.876470999999981
 31
0.0
  0
LINE
  5
588
  8
DETAIL
  6
CONTINUOUS
 62
     5
 10
-75.276471000000001
 20
63.876470999999981
 30
0.0
 11
-75.276471000000001
 21
62.341176000000011
 31
0.0
  0
LINE
  5
589
  8
DETAIL
  6
CONTINUOUS
 62
     5
 10
-87.558824000000001
 20
60.294117999999997
 30
0.0
 11
-95.439999999999998
 21
60.294117999999997
 31
0.0
  0
LINE
  5
58A
  8
DETAIL
  6
CONTINUOUS
 62
     5
 10
-81.110588000000007
 20
63.569412
 30
0.0
 11
-81.929411999999985
 21
64.388234999999995
 31
0.0
  0
LINE
  5
58B
  8
DETAIL
  6
CONTINUOUS
 62
     5
 10
-85.0
 20
62.955293999999988
 30
0.0
 11
-83.669411999999966
 21
62.955293999999988
 31
0.0
  0
LINE
  5
58C
  8
DETAIL
  6
CONTINUOUS
 62
     5
 10
-83.669411999999966
 20
64.388234999999995
 30
0.0
 11
-81.929411999999985
 21
64.388234999999995
 31
0.0
  0
LINE
  5
58D
  8
DETAIL
  6
CONTINUOUS
 62
     5
 10
-81.110588000000007
 20
60.294117999999997
 30
0.0
 11
-81.110588000000007
 21
63.876470999999981
 31
0.0
  0
LINE
  5
58E
  8
DETAIL
  6
CONTINUOUS
 62
     5
 10
-83.669411999999966
 20
62.955293999999988
 30
0.0
 11
-83.669411999999966
 21
64.388234999999995
 31
0.0
  0
LINE
  5
58F
  8
DETAIL
  6
CONTINUOUS
 62
     5
 10
-95.439999999999998
 20
63.569412
 30
0.0
 11
-96.258824000000004
 21
64.388234999999995
 31
0.0
  0
LINE
  5
590
  8
DETAIL
  6
CONTINUOUS
 62
     5
 10
-89.605882999999949
 20
62.341176000000011
 30
0.0
 11
-95.439999999999998
 21
62.341176000000011
 31
0.0
  0
LINE
  5
591
  8
DETAIL
  6
CONTINUOUS
 62
     5
 10
-95.439999999999998
 20
63.876470999999981
 30
0.0
 11
-89.605882999999949
 21
63.876470999999981
 31
0.0
  0
LINE
  5
592
  8
DETAIL
  6
CONTINUOUS
 62
     5
 10
-89.605882999999949
 20
63.876470999999981
 30
0.0
 11
-89.605882999999949
 21
62.341176000000011
 31
0.0
  0
LINE
  5
593
  8
DETAIL
  6
CONTINUOUS
 62
     5
 10
-95.439999999999998
 20
60.294117999999997
 30
0.0
 11
-95.439999999999998
 21
63.876470999999981
 31
0.0
  0
LINE
  5
594
  8
DETAIL
  6
CONTINUOUS
 62
     5
 10
-75.276471000000001
 20
77.694118000000003
 30
0.0
 11
-82.952941000000024
 21
77.694118000000003
 31
0.0
  0
LINE
  5
595
  8
DETAIL
  6
CONTINUOUS
 62
     5
 10
-82.952941000000024
 20
82.811764999999994
 30
0.0
 11
-75.276471000000001
 21
82.811764999999994
 31
0.0
  0
LINE
  5
596
  8
DETAIL
  6
CONTINUOUS
 62
     5
 10
-81.110588000000007
 20
91.0
 30
0.0
 11
-71.387058999999994
 21
91.0
 31
0.0
  0
LINE
  5
597
  8
DETAIL
  6
CONTINUOUS
 62
     5
 10
-75.276471000000001
 20
82.811764999999994
 30
0.0
 11
-75.276471000000001
 21
77.694118000000003
 31
0.0
  0
LINE
  5
598
  8
DETAIL
  6
CONTINUOUS
 62
     5
 10
-79.471679000000023
 20
70.529411999999994
 30
0.0
 11
-75.175380000000004
 21
70.529411999999994
 31
0.0
  0
LINE
  5
599
  8
DETAIL
  6
CONTINUOUS
 62
     5
 10
-73.229411999999982
 20
89.157646999999983
 30
0.0
 11
-71.387058999999994
 21
89.157646999999983
 31
0.0
  0
LINE
  5
59A
  8
DETAIL
  6
CONTINUOUS
 62
     5
 10
-71.387058999999994
 20
89.157646999999983
 30
0.0
 11
-71.387058999999994
 21
91.0
 31
0.0
  0
LINE
  5
59B
  8
DETAIL
  6
CONTINUOUS
 62
     5
 10
-82.952941000000024
 20
77.694118000000003
 30
0.0
 11
-82.952941000000024
 21
82.811764999999994
 31
0.0
  0
LINE
  5
59C
  8
DETAIL
  6
CONTINUOUS
 62
     5
 10
-89.605882999999949
 20
82.811764999999994
 30
0.0
 11
-89.605882999999949
 21
77.694118000000003
 31
0.0
  0
LINE
  5
59D
  8
DETAIL
  6
CONTINUOUS
 62
     5
 10
-93.801091
 20
70.529411999999994
 30
0.0
 11
-89.504792000000009
 21
70.529411999999994
 31
0.0
  0
LINE
  5
59E
  8
DETAIL
  6
CONTINUOUS
 62
     5
 10
-95.439999999999998
 20
91.0
 30
0.0
 11
-85.716470999999984
 21
91.0
 31
0.0
  0
LINE
  5
59F
  8
DETAIL
  6
CONTINUOUS
 62
     5
 10
-81.110588000000007
 20
91.0
 30
0.0
 11
-81.110588000000007
 21
87.724706000000026
 31
0.0
  0
LINE
  5
5A0
  8
DETAIL
  6
CONTINUOUS
 62
     5
 10
-83.669411999999966
 20
86.905881999999963
 30
0.0
 11
-83.669411999999966
 21
88.338824000000002
 31
0.0
  0
LINE
  5
5A1
  8
DETAIL
  6
CONTINUOUS
 62
     5
 10
-85.716470999999984
 20
89.157646999999983
 30
0.0
 11
-85.716470999999984
 21
91.0
 31
0.0
  0
LINE
  5
5A2
  8
DETAIL
  6
CONTINUOUS
 62
     5
 10
-81.929411999999985
 20
86.905881999999963
 30
0.0
 11
-83.669411999999966
 21
86.905881999999963
 31
0.0
  0
LINE
  5
5A3
  8
DETAIL
  6
CONTINUOUS
 62
     5
 10
-85.0
 20
88.338824000000002
 30
0.0
 11
-83.669411999999966
 21
88.338824000000002
 31
0.0
  0
LINE
  5
5A4
  8
DETAIL
  6
CONTINUOUS
 62
     5
 10
-87.558824000000001
 20
89.157646999999983
 30
0.0
 11
-85.716470999999984
 21
89.157646999999983
 31
0.0
  0
LINE
  5
5A5
  8
DETAIL
  6
CONTINUOUS
 62
     5
 10
-81.929411999999985
 20
86.905881999999963
 30
0.0
 11
-81.110588000000007
 21
87.724706000000026
 31
0.0
  0
LINE
  5
5A6
  8
DETAIL
  6
CONTINUOUS
 62
     5
 10
-95.439999999999998
 20
91.0
 30
0.0
 11
-95.439999999999998
 21
87.724706000000026
 31
0.0
  0
LINE
  5
5A7
  8
DETAIL
  6
CONTINUOUS
 62
     5
 10
-96.258824000000004
 20
86.905881999999963
 30
0.0
 11
-95.439999999999998
 21
87.724706000000026
 31
0.0
  0
LINE
  5
5A8
  8
DETAIL
  6
CONTINUOUS
 62
     5
 10
-99.329412000000005
 20
62.955293999999988
 30
0.0
 11
-99.329412000000005
 21
88.338824000000002
 31
0.0
  0
LINE
  5
5A9
  8
DETAIL
  6
CONTINUOUS
 62
     5
 10
-99.329412000000005
 20
62.955293999999988
 30
0.0
 11
-97.998824000000013
 21
62.955293999999988
 31
0.0
  0
LINE
  5
5AA
  8
DETAIL
  6
CONTINUOUS
 62
     5
 10
-97.998824000000013
 20
62.955293999999988
 30
0.0
 11
-97.998824000000013
 21
64.388234999999995
 31
0.0
  0
LINE
  5
5AB
  8
DETAIL
  6
CONTINUOUS
 62
     5
 10
-97.282353000000015
 20
77.694118000000003
 30
0.0
 11
-97.282353000000015
 21
82.811764999999994
 31
0.0
  0
LINE
  5
5AC
  8
DETAIL
  6
CONTINUOUS
 62
     5
 10
-99.329412000000005
 20
88.338824000000002
 30
0.0
 11
-97.998824000000013
 21
88.338824000000002
 31
0.0
  0
LINE
  5
5AD
  8
DETAIL
  6
CONTINUOUS
 62
     5
 10
-97.998824000000013
 20
86.905881999999963
 30
0.0
 11
-97.998824000000013
 21
88.338824000000002
 31
0.0
  0
LINE
  5
5AE
  8
NOTE
  6
CONTINUOUS
 62
     4
 10
-114.74857900000001
 20
102.203591
 30
0.0
 11
-84.836196000000001
 21
75.647058999999985
 31
0.0
  0
LINE
  5
5AF
  8
NOTE
  6
CONTINUOUS
 62
     4
 10
-84.836196000000001
 20
75.647058999999985
 30
0.0
 11
-97.462812999999997
 21
113.60188100000001
 31
0.0
  0
TEXT
  5
5B0
  8
NOTE
  6
CONTINUOUS
 62
     4
 10
-308.87971499999992
 20
321.20911599999988
 30
0.0
 40
64.0
  1
EL
 41
0.9
  0
LINE
  5
5B1
  8
NOTE
  6
CONTINUOUS
 62
     4
 39
50.0
 10
-322.39995008007719
 20
290.44966299999999
 30
0.0
 11
-227.5092819999999
 21
290.44966299999999
 31
0.0
  0
LINE
  5
5B2
  8
NOTE
  6
CONTINUOUS
 62
     4
 39
50.0
 10
-227.5092819999999
 20
290.44966299999999
 30
0.0
 11
-85.0
 21
76.139442999999986
 31
0.0
  0
LINE
  5
5B3
  8
NOTE
  6
CONTINUOUS
 62
     4
 10
-85.0
 20
55.647058999999992
 30
0.0
 11
-85.0
 21
95.647058999999985
 31
0.0
  0
LINE
  5
5B4
  8
NOTE
  6
CONTINUOUS
 62
     4
 10
-105.0
 20
75.647058999999985
 30
0.0
 11
-65.0
 21
75.647058999999985
 31
0.0
  0
TEXT
  5
5B5
  8
ETC
  6
CONTINUOUS
 62
    61
 10
56.806175763700068
 20
436.75874046653269
 30
0.0
 40
50.0
  1
V-12PPVSD6_3
 41
0.9
  0
TEXT
  5
5B6
  8
ETC
  6
CONTINUOUS
 62
    61
 10
161.18919082281661
 20
299.69712745473851
 30
0.0
 40
40.0
  1
V-12PPVSD6
 41
0.9
  0
TEXT
  5
5B7
  8
ETC
  6
CONTINUOUS
 62
    61
 10
53.354557614240541
 20
361.38078214631599
 30
0.0
 40
50.0
  1
換気扇
 41
0.9
  0
CIRCLE
  5
5B8
  8
DETAIL
  6
CONTINUOUS
 62
     5
 39
50.0
 10
0.0
 20
0.0
 30
0.0
 40
31.5
  0
CIRCLE
  5
5B9
  8
OUTLINE
  6
CONTINUOUS
 62
     3
 39
50.0
 10
0.0
 20
0.0
 30
0.0
 40
70.0
  0
LINE
  5
5BB
  8
DETAIL
  6
CONTINUOUS
 62
     5
 39
50.0
 10
-73.229411999999982
 20
60.294117999999997
 30
0.0
 11
-73.229411999999982
 21
91.0
 31
0.0
  0
ENDSEC
  0
EOF
