  0
SECTION
  2
HEADER
  9
$ACADVER
  1
AC1009
  9
$INSBASE
 10
0.0
 20
0.0
 30
0.0
  9
$EXTMIN
 10
-998.46219813521361
 20
-312.76572291456512
 30
0.0
  9
$EXTMAX
 10
686.08153133941437
 20
555.47339713477129
 30
50.0
  9
$LIMMIN
 10
-4200.0
 20
-2970.0
  9
$LIMMAX
 10
4200.0
 20
2970.0
  9
$ORTHOMODE
 70
     1
  9
$REGENMODE
 70
     0
  9
$FILLMODE
 70
     1
  9
$QTEXTMODE
 70
     0
  9
$MIRRTEXT
 70
     0
  9
$DRAGMODE
 70
     2
  9
$LTSCALE
 40
20.0
  9
$OSMODE
 70
   423
  9
$ATTMODE
 70
     1
  9
$TEXTSIZE
 40
64.0
  9
$TRACEWID
 40
0.05
  9
$TEXTSTYLE
  7
STANDARD
  9
$CLAYER
  8
OUTLINE
  9
$CELTYPE
  6
CONTINUOUS
  9
$CECOLOR
 62
     3
  9
$DIMSCALE
 40
1.0
  9
$DIMASZ
 40
2.0
  9
$DIMEXO
 40
20.0
  9
$DIMDLI
 40
200.0
  9
$DIMRND
 40
0.0
  9
$DIMDLE
 40
0.0
  9
$DIMEXE
 40
30.0
  9
$DIMTP
 40
0.0
  9
$DIMTM
 40
0.0
  9
$DIMTXT
 40
64.0
  9
$DIMCEN
 40
0.09
  9
$DIMTSZ
 40
0.0
  9
$DIMTOL
 70
     0
  9
$DIMLIM
 70
     0
  9
$DIMTIH
 70
     0
  9
$DIMTOH
 70
     0
  9
$DIMSE1
 70
     0
  9
$DIMSE2
 70
     0
  9
$DIMTAD
 70
     1
  9
$DIMZIN
 70
     8
  9
$DIMBLK
  1

  9
$DIMASO
 70
     1
  9
$DIMSHO
 70
     0
  9
$DIMPOST
  1

  9
$DIMAPOST
  1

  9
$DIMALT
 70
     0
  9
$DIMALTD
 70
     2
  9
$DIMALTF
 40
25.399999999999999
  9
$DIMLFAC
 40
1.0
  9
$DIMTOFL
 70
     1
  9
$DIMTVP
 40
0.0
  9
$DIMTIX
 70
     1
  9
$DIMSOXD
 70
     0
  9
$DIMSAH
 70
     0
  9
$DIMBLK1
  1

  9
$DIMBLK2
  1

  9
$DIMSTYLE
  2
STANDARD
  9
$DIMCLRD
 70
     0
  9
$DIMCLRE
 70
     0
  9
$DIMCLRT
 70
     0
  9
$DIMTFAC
 40
1.0
  9
$DIMGAP
 40
0.09
  9
$LUNITS
 70
     2
  9
$LUPREC
 70
     4
  9
$SKETCHINC
 40
0.1
  9
$FILLETRAD
 40
5.0
  9
$AUNITS
 70
     1
  9
$AUPREC
 70
     3
  9
$MENU
  1
ACAD
  9
$ELEVATION
 40
0.0
  9
$PELEVATION
 40
0.0
  9
$THICKNESS
 40
0.0
  9
$LIMCHECK
 70
     1
  9
$BLIPMODE
 70
     0
  9
$CHAMFERA
 40
0.0
  9
$CHAMFERB
 40
0.0
  9
$SKPOLY
 70
     0
  9
$TDCREATE
 40
2451821.7024537032
  9
$TDUPDATE
 40
2454724.9322672449
  9
$TDINDWG
 40
0.1310498032
  9
$TDUSRTIMER
 40
0.131049456
  9
$USRTIMER
 70
     1
  9
$ANGBASE
 50
0.0
  9
$ANGDIR
 70
     0
  9
$PDMODE
 70
     3
  9
$PDSIZE
 40
-2.0
  9
$PLINEWID
 40
0.0
  9
$COORDS
 70
     2
  9
$SPLFRAME
 70
     0
  9
$SPLINETYPE
 70
     6
  9
$SPLINESEGS
 70
     8
  9
$ATTDIA
 70
     0
  9
$ATTREQ
 70
     1
  9
$HANDLING
 70
 22529
  9
$HANDSEED
  5
611
  9
$SURFTAB1
 70
     6
  9
$SURFTAB2
 70
     6
  9
$SURFTYPE
 70
     6
  9
$SURFU
 70
     6
  9
$SURFV
 70
     6
  9
$UCSNAME
  2

  9
$UCSORG
 10
0.0
 20
0.0
 30
0.0
  9
$UCSXDIR
 10
1.0
 20
0.0
 30
0.0
  9
$UCSYDIR
 10
0.0
 20
1.0
 30
0.0
  9
$PUCSNAME
  2

  9
$PUCSORG
 10
0.0
 20
0.0
 30
0.0
  9
$PUCSXDIR
 10
1.0
 20
0.0
 30
0.0
  9
$PUCSYDIR
 10
0.0
 20
1.0
 30
0.0
  9
$USERI1
 70
     0
  9
$USERI2
 70
     0
  9
$USERI3
 70
     0
  9
$USERI4
 70
     0
  9
$USERI5
 70
     0
  9
$USERR1
 40
20.0
  9
$USERR2
 40
0.0
  9
$USERR3
 40
0.0
  9
$USERR4
 40
0.0
  9
$USERR5
 40
0.0
  9
$WORLDVIEW
 70
     1
  9
$SHADEDGE
 70
     3
  9
$SHADEDIF
 70
    70
  9
$TILEMODE
 70
     1
  9
$MAXACTVP
 70
    64
  9
$PLIMCHECK
 70
     0
  9
$PEXTMIN
 10
1.0000000000000000E+020
 20
1.0000000000000000E+020
 30
1.0000000000000000E+020
  9
$PEXTMAX
 10
-1.0000000000000000E+020
 20
-1.0000000000000000E+020
 30
-1.0000000000000000E+020
  9
$PLIMMIN
 10
0.0
 20
0.0
  9
$PLIMMAX
 10
12.0
 20
9.0
  9
$UNITMODE
 70
     0
  9
$VISRETAIN
 70
     1
  9
$PLINEGEN
 70
     0
  9
$PSLTSCALE
 70
     1
  0
ENDSEC
  0
SECTION
  2
TABLES
  0
TABLE
  2
VPORT
 70
     3
  0
VPORT
  2
*ACTIVE
 70
     0
 10
0.0
 20
0.0
 11
1.0
 21
1.0
 12
-156.19216398278331
 22
120.2111160661545
 13
0.0
 23
0.0
 14
400.0
 24
400.0
 15
400.0
 25
400.0
 16
0.0
 26
0.0
 36
1.0
 17
0.0
 27
0.0
 37
0.0
 40
1166.455592789976
 41
1.493654822335025
 42
50.0
 43
0.0
 44
0.0
 50
0.0
 51
0.0
 71
     0
 72
   500
 73
     1
 74
     0
 75
     0
 76
     0
 77
     0
 78
     1
  0
ENDTAB
  0
TABLE
  2
LTYPE
 70
     8
  0
LTYPE
  2
CONTINUOUS
 70
     0
  3
実線
 72
    65
 73
     0
 40
0.0
  0
LTYPE
  2
DOT
 70
     0
  3
...............................................
 72
    65
 73
     2
 40
0.8
 49
0.5
 49
-0.3
  0
LTYPE
  2
DASHED
 70
     0
  3
_ _ _ _ _ _ _ _ _ _ _ _ _ _ _ _ _ _ _ _ _ _ _
 72
    65
 73
     2
 40
2.0
 49
1.1999999999999991
 49
-0.8
  0
LTYPE
  2
DASHDOT
 70
     0
  3
____ _ ____ _ ____ _ ____ _ ____ _ ____ _ ____
 72
    65
 73
     4
 40
5.5
 49
4.0
 49
-0.6
 49
0.3
 49
-0.6
  0
LTYPE
  2
DASHDOT1
 70
     0
  3
____ _ ____ _ ____ _ ____ _ ____ _ ____ _ ____
 72
    65
 73
     4
 40
2.0
 49
1.5
 49
-0.2
 49
0.1
 49
-0.2
  0
LTYPE
  2
DIVIDE
 70
     0
  3
_____ _ _ _____ _ _ _____ _ _ _____ _ _ ____
 72
    65
 73
     6
 40
6.4000000000000004
 49
4.0
 49
-0.6
 49
0.3
 49
-0.6
 49
0.3
 49
-0.6
  0
LTYPE
  2
DIVIDE1
 70
     0
  3
_____ _ _ _____ _ _ _____ _ _ _____ _ _ ____
 72
    65
 73
     6
 40
3.2000000000000002
 49
2.0
 49
-0.3
 49
0.15
 49
-0.3
 49
0.15
 49
-0.3
  0
LTYPE
  2
HIDDEN
 70
     0
  3
Hidden __ __ __ __ __ __ __ __ __ __ __ __ __ _
 72
    65
 73
     2
 40
0.375
 49
0.25
 49
-0.125
  0
ENDTAB
  0
TABLE
  2
LAYER
 70
    12
  0
LAYER
  2
0
 70
     0
 62
     7
  6
CONTINUOUS
  0
LAYER
  2
OUTLINE
 70
     0
 62
     3
  6
CONTINUOUS
  0
LAYER
  2
DETAIL
 70
     0
 62
     5
  6
CONTINUOUS
  0
LAYER
  2
BASIS
 70
     0
 62
     6
  6
DASHDOT
  0
LAYER
  2
SIZE
 70
     0
 62
    30
  6
CONTINUOUS
  0
LAYER
  2
NOTE
 70
     0
 62
     4
  6
CONTINUOUS
  0
LAYER
  2
ARRANGE
 70
     0
 62
     1
  6
CONTINUOUS
  0
LAYER
  2
FIX
 70
     0
 62
    11
  6
CONTINUOUS
  0
LAYER
  2
ETC
 70
     0
 62
    61
  6
CONTINUOUS
  0
LAYER
  2
DEFPOINTS
 70
     0
 62
     7
  6
CONTINUOUS
  0
LAYER
  2
SERVICESPACE
 70
     0
 62
     2
  6
DASHDOT
  0
LAYER
  2
SYMBOLLINE
 70
     0
 62
    15
  6
CONTINUOUS
  0
ENDTAB
  0
TABLE
  2
STYLE
 70
     2
  0
STYLE
  2
STANDARD
 70
     0
 40
0.0
 41
0.9
 50
0.0
 71
     0
 42
64.0
  3
SIMPLEX
  4
BIGFONT
  0
STYLE
  2

 70
     1
 40
0.0
 41
1.0
 50
0.0
 71
     0
 42
64.0
  3
ltypeshp.shx
  4

  0
ENDTAB
  0
TABLE
  2
VIEW
 70
     1
  0
VIEW
  2
ALL
 70
     0
 40
6374.9789810000002
 10
0.0
 20
58.11501599999999
 41
8842.1052629999976
 11
0.0
 21
0.0
 31
1.0
 12
0.0
 22
0.0
 32
0.0
 42
50.0
 43
0.0
 44
0.0
 50
0.0
 71
     0
  0
ENDTAB
  0
TABLE
  2
UCS
 70
     0
  0
ENDTAB
  0
TABLE
  2
APPID
 70
     1
  0
APPID
  2
ACAD
 70
     0
  0
ENDTAB
  0
TABLE
  2
DIMSTYLE
 70
     1
  0
DIMSTYLE
  2
STANDARD
 70
     0
  3

  4

  5

  6

  7

 40
1.0
 41
0.18
 42
0.0625
 43
0.38
 44
0.18
 45
0.0
 46
0.0
 47
0.0
 48
0.0
140
0.18
141
0.09
142
0.0
143
25.399999999999999
144
1.0
145
0.0
146
1.0
147
0.09
 71
     0
 72
     0
 73
     1
 74
     1
 75
     0
 76
     0
 77
     0
 78
     0
170
     0
171
     2
172
     0
173
     0
174
     0
175
     0
176
     0
177
     0
178
     0
  0
ENDTAB
  0
ENDSEC
  0
SECTION
  2
BLOCKS
  0
BLOCK
  8
0
  2
$MODEL_SPACE
 70
     0
 10
0.0
 20
0.0
 30
0.0
  3
$MODEL_SPACE
  1

  0
ENDBLK
  5
525
  8
0
  0
BLOCK
 67
     1
  8
0
  2
$PAPER_SPACE
 70
     0
 10
0.0
 20
0.0
 30
0.0
  3
$PAPER_SPACE
  1

  0
ENDBLK
  5
521
 67
     1
  8
0
  0
BLOCK
  8
0
  2
DOT1
 70
     0
 10
0.0
 20
0.0
 30
0.0
  3
DOT1
  1

  0
CIRCLE
  5
545
  8
SIZE
  6
CONTINUOUS
 62
     7
 10
0.0
 20
0.0
 30
0.0
 40
3.0
  0
ENDBLK
  5
546
  8
0
  0
BLOCK
  8
0
  2
_ORIGIN
 70
     0
 10
0.0
 20
0.0
 30
0.0
  3
_ORIGIN
  1

  0
CIRCLE
  5
549
  8
0
  6
CONTINUOUS
 62
     7
 10
0.0
 20
0.0
 30
0.0
 40
0.5
  0
LINE
  5
54A
  8
0
  6
CONTINUOUS
 62
     7
 10
0.0
 20
0.0
 30
0.0
 11
-1.0
 21
0.0
 31
0.0
  0
ENDBLK
  5
54B
  8
0
  0
BLOCK
  8
0
 62
    30
  2
_NONE
 70
     0
 10
0.0
 20
0.0
 30
0.0
  3
_NONE
  1

  0
ENDBLK
  5
54E
  8
0
 62
    30
  0
BLOCK
  8
0
 62
     8
  2
A$C47E2253A
 70
     0
 10
0.0
 20
0.0
 30
0.0
  3
A$C47E2253A
  1

  0
ARC
  5
551
  8
FIX
  6
CONTINUOUS
 62
    11
 39
50.0
 10
20.00000086051703
 20
19.99999921969173
 30
0.0
 40
2.0
 50
180.0
 51
0.0
  0
ARC
  5
552
  8
FIX
  6
CONTINUOUS
 62
    11
 39
50.0
 10
20.00000086051703
 20
25.99999921969173
 30
0.0
 40
2.0
 50
0.0
 51
180.0
  0
LINE
  5
553
  8
NOTE
  6
CONTINUOUS
 62
     4
 10
0.0000008605170478
 20
19.99999921969173
 30
0.0
 11
40.000000860517048
 21
19.99999921969173
 31
0.0
  0
LINE
  5
554
  8
NOTE
  6
CONTINUOUS
 62
     4
 10
0.0000008605170478
 20
25.99999921969173
 30
0.0
 11
40.000000860517048
 21
25.99999921969173
 31
0.0
  0
POINT
  5
555
  8
ARRANGE
  6
CONTINUOUS
 62
     1
 10
20.00000086051703
 20
19.99999921969173
 30
0.0
  0
LINE
  5
556
  8
FIX
  6
CONTINUOUS
 62
    11
 39
50.0
 10
18.000000860517041
 20
25.99999921969173
 30
0.0
 11
18.000000860517041
 21
19.99999921969173
 31
0.0
  0
LINE
  5
557
  8
NOTE
  6
CONTINUOUS
 62
     4
 10
20.00000086051703
 20
-0.0000007803082553
 30
0.0
 11
20.00000086051703
 21
39.999999219691723
 31
0.0
  0
LINE
  5
558
  8
NOTE
  6
CONTINUOUS
 62
     4
 39
50.0
 10
20.00000086051703
 20
19.99999921969173
 30
0.0
 11
20.00000086051703
 21
25.99999921969173
 31
0.0
  0
LINE
  5
559
  8
NOTE
  6
CONTINUOUS
 62
     4
 10
20.00000086051703
 20
5.999999219691742
 30
0.0
 11
20.00000086051703
 21
45.999999219691738
 31
0.0
  0
POINT
  5
55A
  8
DEFPOINTS
  6
CONTINUOUS
 62
    30
 10
20.00000086051703
 20
19.99999921969173
 30
0.0
  0
LINE
  5
55B
  8
FIX
  6
CONTINUOUS
 62
    11
 39
50.0
 10
22.000000860517051
 20
25.99999921969173
 30
0.0
 11
22.000000860517051
 21
19.99999921969173
 31
0.0
  0
POINT
  5
55C
  8
DEFPOINTS
  6
CONTINUOUS
 62
    30
 10
40.000000860517048
 20
25.99999921969173
 30
0.0
  0
ENDBLK
  5
55D
  8
0
 62
     8
  0
ENDSEC
  0
SECTION
  2
ENTITIES
  0
LINE
  5
55E
  8
NOTE
  6
CONTINUOUS
 62
     4
 10
-168.12830999999991
 20
160.17524499999999
 30
0.0
 11
-95.0
 21
0.0
 31
0.0
  0
LINE
  5
55F
  8
DETAIL
  6
CONTINUOUS
 62
     5
 10
64.5
 20
60.0
 30
0.0
 11
64.5
 21
87.0
 31
0.0
  0
LINE
  5
560
  8
DETAIL
  6
CONTINUOUS
 62
     5
 10
-64.5
 20
60.0
 30
0.0
 11
-64.5
 21
87.0
 31
0.0
  0
LINE
  5
561
  8
NOTE
  6
CONTINUOUS
 62
     4
 10
-168.12830999999991
 20
160.17524499999999
 30
0.0
 11
-998.46219813521361
 21
160.17524499999999
 31
0.0
  0
LINE
  5
562
  8
SIZE
  6
CONTINUOUS
 62
    30
 10
389.01838199999992
 20
60.0
 30
0.0
 11
389.01838199999992
 21
-141.07584402517881
 31
0.0
  0
POINT
  5
563
  8
ARRANGE
  6
CONTINUOUS
 62
     1
 10
0.0
 20
0.0
 30
0.0
  0
LINE
  5
564
  8
DETAIL
  6
CONTINUOUS
 62
     5
 10
-70.0
 20
0.0
 30
0.0
 11
-70.0
 21
60.0
 31
0.0
  0
LINE
  5
565
  8
DETAIL
  6
CONTINUOUS
 62
     5
 10
70.0
 20
0.0
 30
0.0
 11
70.0
 21
60.0
 31
0.0
  0
LINE
  5
566
  8
DETAIL
  6
CONTINUOUS
 62
     5
 10
-70.0
 20
60.0
 30
0.0
 11
70.0
 21
60.0
 31
0.0
  0
LINE
  5
567
  8
DETAIL
  6
CONTINUOUS
 62
     5
 10
-105.0
 20
-54.271689291351521
 30
0.0
 11
-105.0
 21
0.0
 31
0.0
  0
LINE
  5
568
  8
DETAIL
  6
CONTINUOUS
 62
     5
 10
105.0
 20
-54.271689291351521
 30
0.0
 11
105.0
 21
0.0
 31
0.0
  0
LINE
  5
569
  8
DETAIL
  6
CONTINUOUS
 62
     5
 10
-105.0
 20
0.0
 30
0.0
 11
105.0
 21
0.0
 31
0.0
  0
LINE
  5
56A
  8
BASIS
  6
DASHDOT
 62
     6
 10
0.0
 20
-85.454239999999999
 30
0.0
 11
0.0
 21
129.987523697721
 31
0.0
  0
LINE
  5
56B
  8
NOTE
  6
CONTINUOUS
 62
     4
 10
-95.0
 20
20.0
 30
0.0
 11
-95.0
 21
-20.0
 31
0.0
  0
LINE
  5
56C
  8
NOTE
  6
CONTINUOUS
 62
     4
 10
-115.0
 20
0.0
 30
0.0
 11
-75.0
 21
0.0
 31
0.0
  0
LINE
  5
56D
  8
NOTE
  6
CONTINUOUS
 62
     4
 10
95.0
 20
20.0
 30
0.0
 11
95.0
 21
-20.0
 31
0.0
  0
LINE
  5
56E
  8
NOTE
  6
CONTINUOUS
 62
     4
 10
75.0
 20
0.0
 30
0.0
 11
115.0
 21
0.0
 31
0.0
  0
CIRCLE
  5
56F
  8
ARRANGE
  6
CONTINUOUS
 62
     1
 10
0.0
 20
0.0
 30
0.0
 40
40.0
  0
LINE
  5
570
  8
OUTLINE
  6
CONTINUOUS
 62
     3
 10
-105.0
 20
0.0
 30
0.0
 11
105.0
 21
0.0
 31
0.0
  0
LINE
  5
571
  8
OUTLINE
  6
CONTINUOUS
 62
     3
 10
-70.0
 20
60.0
 30
0.0
 11
70.0
 21
60.0
 31
0.0
  0
LINE
  5
572
  8
OUTLINE
  6
CONTINUOUS
 62
     3
 10
70.0
 20
0.0
 30
0.0
 11
70.0
 21
60.0
 31
0.0
  0
LINE
  5
573
  8
OUTLINE
  6
CONTINUOUS
 62
     3
 10
-70.0
 20
0.0
 30
0.0
 11
-70.0
 21
60.0
 31
0.0
  0
LINE
  5
574
  8
OUTLINE
  6
CONTINUOUS
 62
     3
 10
-64.5
 20
60.0
 30
0.0
 11
-64.5
 21
87.0
 31
0.0
  0
LINE
  5
575
  8
OUTLINE
  6
CONTINUOUS
 62
     3
 10
64.5
 20
60.0
 30
0.0
 11
64.5
 21
87.0
 31
0.0
  0
LINE
  5
576
  8
OUTLINE
  6
CONTINUOUS
 62
     3
 10
70.0
 20
0.0
 30
0.0
 11
105.0
 21
0.0
 31
0.0
  0
CIRCLE
  5
577
  8
FIX
  6
CONTINUOUS
 62
    11
 10
95.0
 20
0.0
 30
0.0
 40
2.5
  0
CIRCLE
  5
578
  8
FIX
  6
CONTINUOUS
 62
    11
 10
-95.0
 20
0.0
 30
0.0
 40
2.5
  0
LINE
  5
579
  8
DETAIL
  6
CONTINUOUS
 62
     5
 10
-64.5
 20
87.0
 30
0.0
 11
64.5
 21
87.0
 31
0.0
  0
LINE
  5
57A
  8
SIZE
  6
CONTINUOUS
 62
    30
 10
524.64600299999995
 20
2.0
 30
0.0
 11
524.64600299999995
 21
-138.69846799999991
 31
0.0
  0
LINE
  5
57B
  8
SIZE
  6
BYBLOCK
 62
    30
 10
125.0
 20
0.0
 30
0.0
 11
554.64600299999995
 21
0.0
 31
0.0
  0
LINE
  5
57C
  8
SIZE
  6
BYBLOCK
 62
    30
 10
84.500000000000014
 20
87.0
 30
0.0
 11
554.64600299999995
 21
87.0
 31
0.0
  0
LINE
  5
57D
  8
SIZE
  6
BYBLOCK
 62
    30
 10
524.64600299999995
 20
2.0
 30
0.0
 11
524.64600299999995
 21
87.0
 31
0.0
  0
TEXT
  5
57E
  8
SIZE
  6
BYBLOCK
 62
    30
 10
492.64600300000001
 20
-130.2098609999999
 30
0.0
 40
64.0
  1
87
 50
90.0
 41
0.9
  0
LINE
  5
57F
  8
SIZE
  6
BYBLOCK
 62
    30
 10
130.0
 20
0.0
 30
0.0
 11
419.01838199999992
 21
0.0
 31
0.0
  0
LINE
  5
580
  8
SIZE
  6
BYBLOCK
 62
    30
 10
90.0
 20
60.0
 30
0.0
 11
419.01838199999992
 21
60.0
 31
0.0
  0
LINE
  5
581
  8
SIZE
  6
BYBLOCK
 62
    30
 10
389.01838199999992
 20
-2.0
 30
0.0
 11
389.01838199999992
 21
-4.0
 31
0.0
  0
TEXT
  5
582
  8
SIZE
  6
BYBLOCK
 62
    30
 10
357.01838199999997
 20
-132.94613122414361
 30
0.0
 40
64.0
  1
60
 50
90.0
 41
0.9
  0
LINE
  5
583
  8
SIZE
  6
BYBLOCK
 62
    30
 10
-70.0
 20
91.5
 30
0.0
 11
-70.0
 21
256.61837700000001
 31
0.0
  0
LINE
  5
584
  8
SIZE
  6
BYBLOCK
 62
    30
 10
70.0
 20
91.5
 30
0.0
 11
70.0
 21
256.61837700000001
 31
0.0
  0
LINE
  5
585
  8
SIZE
  6
BYBLOCK
 62
    30
 10
-70.0
 20
226.61837700000001
 30
0.0
 11
0.0
 21
226.61837700000001
 31
0.0
  0
LINE
  5
586
  8
SIZE
  6
BYBLOCK
 62
    30
 10
70.0
 20
226.61837700000001
 30
0.0
 11
0.0
 21
226.61837700000001
 31
0.0
  0
TEXT
  5
587
  8
SIZE
  6
BYBLOCK
 62
    30
 10
-97.37142900000002
 20
258.61837700000001
 30
0.0
 40
64.0
  1
φ140
 41
0.9
  0
LINE
  5
588
  8
SIZE
  6
BYBLOCK
 62
    30
 10
-130.0
 20
0.000001
 30
0.0
 11
-334.47272599999991
 21
0.000001
 31
0.0
  0
LINE
  5
589
  8
SIZE
  6
BYBLOCK
 62
    30
 10
0.0
 20
-62.0
 30
0.0
 11
-334.47272599999991
 21
-61.999999000000003
 31
0.0
  0
LINE
  5
58A
  8
SIZE
  6
BYBLOCK
 62
    30
 10
-304.47272599999991
 20
-61.999999000000003
 30
0.0
 11
-304.47272599999991
 21
0.000001
 31
0.0
  0
TEXT
  5
58B
  8
SIZE
  6
BYBLOCK
 62
    30
 10
-336.47272599999991
 20
-74.999999000000003
 30
0.0
 40
64.0
  1
62
 50
90.0
 41
0.9
  0
LINE
  5
58C
  8
SIZE
  6
BYBLOCK
 62
    30
 10
-105.0
 20
-70.318271999999993
 30
0.0
 11
-105.0
 21
-309.81050588688549
 31
0.0
  0
LINE
  5
58D
  8
SIZE
  6
BYBLOCK
 62
    30
 10
105.0
 20
-70.318271999999993
 30
0.0
 11
105.0
 21
-312.76572291456512
 31
0.0
  0
LINE
  5
58E
  8
SIZE
  6
BYBLOCK
 62
    30
 10
-105.0
 20
-283.2135526377669
 30
0.0
 11
0.0
 21
-283.2135526377669
 31
0.0
  0
LINE
  5
58F
  8
SIZE
  6
BYBLOCK
 62
    30
 10
105.0
 20
-283.2135526377669
 30
0.0
 11
0.0
 21
-283.2135526377669
 31
0.0
  0
TEXT
  5
590
  8
SIZE
  6
BYBLOCK
 62
    30
 10
-104.6738079999997
 20
-251.2135526377669
 30
0.0
 40
64.0
  1
□210
 41
0.9
  0
LINE
  5
591
  8
SIZE
  6
BYBLOCK
 62
    30
 10
-95.0
 20
41.653308999999993
 30
0.0
 11
-95.0
 21
395.83579500000002
 31
0.0
  0
LINE
  5
592
  8
SIZE
  6
BYBLOCK
 62
    30
 10
95.0
 20
41.653308999999993
 30
0.0
 11
95.0
 21
395.83579500000002
 31
0.0
  0
LINE
  5
593
  8
SIZE
  6
BYBLOCK
 62
    30
 10
-95.0
 20
365.83579500000002
 30
0.0
 11
0.0
 21
365.83579500000002
 31
0.0
  0
LINE
  5
594
  8
SIZE
  6
BYBLOCK
 62
    30
 10
95.0
 20
365.83579500000002
 30
0.0
 11
0.0
 21
365.83579500000002
 31
0.0
  0
TEXT
  5
595
  8
SIZE
  6
BYBLOCK
 62
    30
 10
-73.846131615302511
 20
396.27200227267758
 30
0.0
 40
64.0
  1
190
 41
0.9
  0
CIRCLE
  5
596
  8
SIZE
  6
CONTINUOUS
 62
    30
 10
95.0
 20
365.83579500000002
 30
0.0
 40
6.0
  0
CIRCLE
  5
597
  8
SIZE
  6
CONTINUOUS
 62
    30
 10
-95.0
 20
365.83579500000002
 30
0.0
 40
6.0
  0
CIRCLE
  5
598
  8
SIZE
  6
CONTINUOUS
 62
    30
 10
105.0
 20
-283.2135526377669
 30
0.0
 40
6.0
  0
CIRCLE
  5
599
  8
SIZE
  6
CONTINUOUS
 62
    30
 10
-105.0
 20
-283.2135526377669
 30
0.0
 40
6.0
  0
CIRCLE
  5
59A
  8
SIZE
  6
CONTINUOUS
 62
    30
 10
-304.47272599999991
 20
0.000001
 30
0.0
 40
6.0
  0
CIRCLE
  5
59B
  8
SIZE
  6
CONTINUOUS
 62
    30
 10
-304.47272599999991
 20
-61.999999000000003
 30
0.0
 40
6.0
  0
CIRCLE
  5
59C
  8
SIZE
  6
CONTINUOUS
 62
    30
 10
70.0
 20
226.61837700000001
 30
0.0
 40
6.0
  0
CIRCLE
  5
59D
  8
SIZE
  6
CONTINUOUS
 62
    30
 10
-70.0
 20
226.61837700000001
 30
0.0
 40
6.0
  0
CIRCLE
  5
59E
  8
SIZE
  6
CONTINUOUS
 62
    30
 10
389.01838199999992
 20
0.0
 30
0.0
 40
6.0
  0
CIRCLE
  5
59F
  8
SIZE
  6
CONTINUOUS
 62
    30
 10
389.01838199999992
 20
60.0
 30
0.0
 40
6.0
  0
CIRCLE
  5
5A0
  8
SIZE
  6
CONTINUOUS
 62
    30
 10
524.64600299999995
 20
87.0
 30
0.0
 40
6.0
  0
CIRCLE
  5
5A1
  8
SIZE
  6
CONTINUOUS
 62
    30
 10
524.64600299999995
 20
0.0
 30
0.0
 40
6.0
  0
TEXT
  5
5A2
  8
NOTE
  6
CONTINUOUS
 62
     4
 10
-988.52140246448062
 20
187.83452257267771
 30
0.0
 40
64.0
  1
2ヶ所×4×10取付用長穴
 41
0.9
  0
TEXT
  5
5A3
  8
ETC
  6
CONTINUOUS
 62
    61
 10
167.5101027679859
 20
505.47339713477129
 30
0.0
 40
50.0
  1
V-12PPVSD6_6
 41
0.9
  0
TEXT
  5
5A4
  8
ETC
  6
CONTINUOUS
 62
    61
 10
271.8931178271024
 20
368.41178412297722
 30
0.0
 40
40.0
  1
V-12PPVSD6
 41
0.9
  0
TEXT
  5
5A5
  8
ETC
  6
CONTINUOUS
 62
    61
 10
164.05848461852611
 20
430.09543881455448
 30
0.0
 40
50.0
  1
換気扇
 41
0.9
  0
LINE
  5
5A6
  8
NOTE
  6
CONTINUOUS
 62
     4
 10
-121.1709699999999
 20
30.250295000000001
 30
0.0
 11
-95.0
 21
0.0
 31
0.0
  0
LINE
  5
5A7
  8
NOTE
  6
CONTINUOUS
 62
     4
 10
-95.0
 20
0.0
 30
0.0
 11
-102.53957799999991
 21
39.283008999999993
 31
0.0
  0
LINE
  5
5A8
  8
OUTLINE
  6
CONTINUOUS
 62
     3
 10
-64.5
 20
87.0
 30
0.0
 11
64.5
 21
87.0
 31
0.0
  0
ARC
  5
5A9
  8
DETAIL
  6
CONTINUOUS
 62
     5
 10
0.0
 20
1777.0
 30
0.0
 40
1839.0
 50
266.87436161165959
 51
273.12563838834012
  0
ARC
  5
5AA
  8
DETAIL
  6
CONTINUOUS
 62
     5
 10
-100.0
 20
-54.271689291351521
 30
0.0
 40
5.0
 50
180.0
 51
266.87436161165522
  0
ARC
  5
5AB
  8
DETAIL
  6
CONTINUOUS
 62
     5
 10
100.0
 20
-54.271689291351521
 30
0.0
 40
5.0
 50
273.12563838833699
 51
0.0
  0
LINE
  5
5AC
  8
OUTLINE
  6
CONTINUOUS
 62
     3
 10
-105.0
 20
0.0
 30
0.0
 11
-105.0
 21
-54.271689291351521
 31
0.0
  0
LINE
  5
5AD
  8
OUTLINE
  6
CONTINUOUS
 62
     3
 10
105.0
 20
0.0
 30
0.0
 11
105.0
 21
-54.271689291351521
 31
0.0
  0
ARC
  5
5AE
  8
OUTLINE
  6
CONTINUOUS
 62
     3
 10
0.0000000000011505
 20
1777.00000000003
 30
0.0
 40
1839.00000000003
 50
266.87436161165959
 51
273.12563838834012
  0
ARC
  5
5AF
  8
OUTLINE
  6
CONTINUOUS
 62
     3
 10
-100.0
 20
-54.271689291351521
 30
0.0
 40
5.0
 50
180.0
 51
266.87436161166772
  0
ARC
  5
5B0
  8
OUTLINE
  6
CONTINUOUS
 62
     3
 10
100.0
 20
-54.271689291351521
 30
0.0
 40
5.0
 50
273.12563838833182
 51
0.0
  0
LINE
  5
5B2
  8
NOTE
  6
CONTINUOUS
 62
     4
 10
85.0
 20
-17.600000000000019
 30
0.0
 11
188.24112699999981
 21
112.1419909999999
 31
0.0
  0
LINE
  5
5B3
  8
NOTE
  6
CONTINUOUS
 62
     4
 10
85.0
 20
-37.599999999999959
 30
0.0
 11
85.0
 21
2.399999999999975
 31
0.0
  0
LINE
  5
5B4
  8
NOTE
  6
CONTINUOUS
 62
     4
 10
65.0
 20
-17.600000000000019
 30
0.0
 11
105.0
 21
-17.600000000000019
 31
0.0
  0
LINE
  5
5B5
  8
NOTE
  6
CONTINUOUS
 62
     4
 10
102.6713239999996
 20
18.284875999999969
 30
0.0
 11
85.0
 21
-17.600000000000019
 31
0.0
  0
LINE
  5
5B6
  8
NOTE
  6
CONTINUOUS
 62
     4
 10
85.0
 20
-17.600000000000019
 30
0.0
 11
118.2462529999999
 21
4.6415519999999901
 31
0.0
  0
TEXT
  5
5B7
  8
NOTE
  6
CONTINUOUS
 62
     4
 10
196.0886473581858
 20
139.8128989999999
 30
0.0
 40
64.0
  1
EL
 41
0.9
  0
LINE
  5
5B8
  8
NOTE
  6
CONTINUOUS
 62
     4
 10
291.92861499999992
 20
112.1419909999999
 30
0.0
 11
188.24112699999981
 21
112.1419909999999
 31
0.0
  0
LINE
  5
5CD
  8
DETAIL
  6
HIDDEN
 62
     5
 39
50.0
 10
71.0
 20
-13.100000000000019
 30
0.0
 11
71.0
 21
-22.100000000000019
 31
0.0
  0
LINE
  5
5CE
  8
DETAIL
  6
HIDDEN
 62
     5
 39
50.0
 10
99.0
 20
-22.100000000000019
 30
0.0
 11
99.0
 21
-13.100000000000019
 31
0.0
  0
LINE
  5
5CF
  8
DETAIL
  6
HIDDEN
 62
     5
 39
50.0
 10
71.0
 20
-22.100000000000019
 30
0.0
 11
99.0
 21
-22.100000000000019
 31
0.0
  0
LINE
  5
5D0
  8
DETAIL
  6
HIDDEN
 62
     5
 39
50.0
 10
99.0
 20
-13.100000000000019
 30
0.0
 11
71.0
 21
-13.099999999999961
 31
0.0
  0
ENDSEC
  0
EOF
