  0
SECTION
  2
HEADER
  9
$ACADVER
  1
AC1009
  9
$INSBASE
 10
0.0
 20
0.0
 30
0.0
  9
$EXTMIN
 10
-225.68662848287209
 20
-386.44408002314589
 30
-0.0015257624927045
  9
$EXTMAX
 10
956.67573170116509
 20
461.10535455064922
 30
50.001525995323327
  9
$LIMMIN
 10
-2970.0
 20
-2100.0
  9
$LIMMAX
 10
2970.0
 20
2100.0
  9
$ORTHOMODE
 70
     1
  9
$REGENMODE
 70
     1
  9
$FILLMODE
 70
     1
  9
$QTEXTMODE
 70
     0
  9
$MIRRTEXT
 70
     0
  9
$DRAGMODE
 70
     2
  9
$LTSCALE
 40
20.0
  9
$OSMODE
 70
    47
  9
$ATTMODE
 70
     1
  9
$TEXTSIZE
 40
64.0
  9
$TRACEWID
 40
0.05
  9
$TEXTSTYLE
  7
STANDARD
  9
$CLAYER
  8
OUTLINE
  9
$CELTYPE
  6
CONTINUOUS
  9
$CECOLOR
 62
     7
  9
$DIMSCALE
 40
1.0
  9
$DIMASZ
 40
12.0
  9
$DIMEXO
 40
20.0
  9
$DIMDLI
 40
200.0
  9
$DIMRND
 40
0.0
  9
$DIMDLE
 40
0.0
  9
$DIMEXE
 40
20.0
  9
$DIMTP
 40
0.0
  9
$DIMTM
 40
0.0
  9
$DIMTXT
 40
64.0
  9
$DIMCEN
 40
0.09
  9
$DIMTSZ
 40
0.0
  9
$DIMTOL
 70
     0
  9
$DIMLIM
 70
     0
  9
$DIMTIH
 70
     0
  9
$DIMTOH
 70
     0
  9
$DIMSE1
 70
     0
  9
$DIMSE2
 70
     0
  9
$DIMTAD
 70
     1
  9
$DIMZIN
 70
     8
  9
$DIMBLK
  1
DOT1
  9
$DIMASO
 70
     1
  9
$DIMSHO
 70
     0
  9
$DIMPOST
  1

  9
$DIMAPOST
  1

  9
$DIMALT
 70
     0
  9
$DIMALTD
 70
     2
  9
$DIMALTF
 40
25.399999999999999
  9
$DIMLFAC
 40
1.0
  9
$DIMTOFL
 70
     1
  9
$DIMTVP
 40
0.0
  9
$DIMTIX
 70
     1
  9
$DIMSOXD
 70
     0
  9
$DIMSAH
 70
     1
  9
$DIMBLK1
  1
ORIGIN
  9
$DIMBLK2
  1
ORIGIN
  9
$DIMSTYLE
  2
STANDARD
  9
$DIMCLRD
 70
     7
  9
$DIMCLRE
 70
     7
  9
$DIMCLRT
 70
     7
  9
$DIMTFAC
 40
1.0
  9
$DIMGAP
 40
25.0
  9
$LUNITS
 70
     2
  9
$LUPREC
 70
     4
  9
$SKETCHINC
 40
0.1
  9
$FILLETRAD
 40
5.0
  9
$AUNITS
 70
     1
  9
$AUPREC
 70
     3
  9
$MENU
  1
ACAD
  9
$ELEVATION
 40
0.0
  9
$PELEVATION
 40
0.0
  9
$THICKNESS
 40
50.0
  9
$LIMCHECK
 70
     0
  9
$BLIPMODE
 70
     0
  9
$CHAMFERA
 40
0.0
  9
$CHAMFERB
 40
0.0
  9
$SKPOLY
 70
     0
  9
$TDCREATE
 40
2453019.6230103709
  9
$TDUPDATE
 40
2455068.4607290048
  9
$TDINDWG
 40
0.3638136574
  9
$TDUSRTIMER
 40
0.3638136574
  9
$USRTIMER
 70
     1
  9
$ANGBASE
 50
0.0
  9
$ANGDIR
 70
     0
  9
$PDMODE
 70
     3
  9
$PDSIZE
 40
-2.0
  9
$PLINEWID
 40
0.0
  9
$COORDS
 70
     0
  9
$SPLFRAME
 70
     0
  9
$SPLINETYPE
 70
     6
  9
$SPLINESEGS
 70
     8
  9
$ATTDIA
 70
     0
  9
$ATTREQ
 70
     1
  9
$HANDLING
 70
     1
  9
$HANDSEED
  5
2F7
  9
$SURFTAB1
 70
     6
  9
$SURFTAB2
 70
     6
  9
$SURFTYPE
 70
     6
  9
$SURFU
 70
     6
  9
$SURFV
 70
     6
  9
$UCSNAME
  2

  9
$UCSORG
 10
0.0
 20
0.0
 30
0.0
  9
$UCSXDIR
 10
1.0
 20
0.0
 30
0.0
  9
$UCSYDIR
 10
0.0
 20
1.0
 30
0.0
  9
$PUCSNAME
  2

  9
$PUCSORG
 10
0.0
 20
0.0
 30
0.0
  9
$PUCSXDIR
 10
1.0
 20
0.0
 30
0.0
  9
$PUCSYDIR
 10
0.0
 20
1.0
 30
0.0
  9
$USERI1
 70
     0
  9
$USERI2
 70
     0
  9
$USERI3
 70
     0
  9
$USERI4
 70
     0
  9
$USERI5
 70
     0
  9
$USERR1
 40
20.0
  9
$USERR2
 40
0.0
  9
$USERR3
 40
0.0
  9
$USERR4
 40
0.0
  9
$USERR5
 40
0.0
  9
$WORLDVIEW
 70
     1
  9
$SHADEDGE
 70
     3
  9
$SHADEDIF
 70
    70
  9
$TILEMODE
 70
     1
  9
$MAXACTVP
 70
    48
  9
$PLIMCHECK
 70
     0
  9
$PEXTMIN
 10
-1.0000000000000000E+020
 20
-1.0000000000000000E+020
 30
-1.0000000000000000E+020
  9
$PEXTMAX
 10
1.0000000000000000E+020
 20
1.0000000000000000E+020
 30
1.0000000000000000E+020
  9
$PLIMMIN
 10
0.0
 20
0.0
  9
$PLIMMAX
 10
12.0
 20
9.0
  9
$UNITMODE
 70
     0
  9
$VISRETAIN
 70
     0
  9
$PLINEGEN
 70
     0
  9
$PSLTSCALE
 70
     0
  0
ENDSEC
  0
SECTION
  2
TABLES
  0
TABLE
  2
VPORT
 70
     1
  0
VPORT
  2
*ACTIVE
 70
     0
 10
0.0
 20
0.0
 11
1.0
 21
1.0
 12
390.1777968261635
 22
-6.8066301824590019
 13
0.0
 23
0.0
 14
1.0
 24
1.0
 15
0.0
 25
0.0
 16
0.0
 26
0.0
 36
1.0
 17
0.0
 27
0.0
 37
0.0
 40
1072.6316075899811
 41
1.2435374149659859
 42
50.0
 43
0.0
 44
0.0
 50
0.0
 51
0.0
 71
     0
 72
  1000
 73
     1
 74
     0
 75
     0
 76
     0
 77
     0
 78
     0
  0
ENDTAB
  0
TABLE
  2
LTYPE
 70
     2
  0
LTYPE
  2
CONTINUOUS
 70
     0
  3
実線
 72
    65
 73
     0
 40
0.0
  0
LTYPE
  2
DASHDOT
 70
     0
  3
____ _ ____ _ ____ _ ____ _ ____ _ ____ _ ____
 72
    65
 73
     4
 40
5.5
 49
4.0
 49
-0.6
 49
0.3
 49
-0.6
  0
ENDTAB
  0
TABLE
  2
LAYER
 70
    12
  0
LAYER
  2
0
 70
     0
 62
     7
  6
CONTINUOUS
  0
LAYER
  2
OUTLINE
 70
     0
 62
     3
  6
CONTINUOUS
  0
LAYER
  2
BASIS
 70
     0
 62
     6
  6
DASHDOT
  0
LAYER
  2
DETAIL
 70
     0
 62
     5
  6
CONTINUOUS
  0
LAYER
  2
SIZE
 70
     0
 62
    30
  6
CONTINUOUS
  0
LAYER
  2
ARRANGE
 70
     0
 62
     1
  6
CONTINUOUS
  0
LAYER
  2
DEFPOINTS
 70
     0
 62
     7
  6
CONTINUOUS
  0
LAYER
  2
ETC
 70
     0
 62
    61
  6
CONTINUOUS
  0
LAYER
  2
FIX
 70
     0
 62
    11
  6
CONTINUOUS
  0
LAYER
  2
NOTE
 70
     0
 62
     4
  6
CONTINUOUS
  0
LAYER
  2
SERVICESPACE
 70
     0
 62
     2
  6
DASHDOT
  0
LAYER
  2
SYMBOLLINE
 70
     0
 62
    15
  6
CONTINUOUS
  0
ENDTAB
  0
TABLE
  2
STYLE
 70
     2
  0
STYLE
  2
STANDARD
 70
     0
 40
64.0
 41
0.9
 50
0.0
 71
     0
 42
64.0
  3
SIMPLEX.shx
  4
BIGFONT.shx
  0
STYLE
  2
ANNOTATIVE
 70
     0
 40
0.0
 41
1.0
 50
0.0
 71
     0
 42
0.2
  3
txt
  4

  0
ENDTAB
  0
TABLE
  2
VIEW
 70
     1
  0
VIEW
  2
ALL
 70
     0
 40
4282.6198079999967
 10
0.0
 20
41.309903999999989
 41
5940.0
 11
0.0
 21
0.0
 31
1.0
 12
0.0
 22
0.0
 32
0.0
 42
50.0
 43
0.0
 44
0.0
 50
0.0
 71
     0
  0
ENDTAB
  0
TABLE
  2
UCS
 70
     0
  0
ENDTAB
  0
TABLE
  2
APPID
 70
     4
  0
APPID
  2
ACAD
 70
     0
  0
APPID
  2
ACADANNOTATIVE
 70
     0
  0
APPID
  2
ACAD_MLEADERVER
 70
     0
  0
APPID
  2
AUTOCAD_POSTSCRIPT_FIGURE
 70
     0
  0
ENDTAB
  0
TABLE
  2
DIMSTYLE
 70
     2
  0
DIMSTYLE
  2
STANDARD
 70
     0
  3

  4

  5

  6

  7

 40
1.0
 41
0.18
 42
0.0625
 43
0.38
 44
0.18
 45
0.0
 46
0.0
 47
0.0
 48
0.0
140
0.18
141
0.09
142
0.0
143
25.399999999999999
144
1.0
145
0.0
146
1.0
147
0.09
 71
     0
 72
     0
 73
     1
 74
     1
 75
     0
 76
     0
 77
     0
 78
     0
170
     0
171
     2
172
     0
173
     0
174
     0
175
     0
176
     7
177
     7
178
     7
  0
DIMSTYLE
  2
ANNOTATIVE
 70
     0
  3

  4

  5

  6

  7

 40
1.0
 41
0.18
 42
0.0625
 43
0.38
 44
0.18
 45
0.0
 46
0.0
 47
0.0
 48
0.0
140
0.18
141
0.09
142
0.0
143
25.399999999999999
144
1.0
145
0.0
146
1.0
147
0.09
 71
     0
 72
     0
 73
     1
 74
     1
 75
     0
 76
     0
 77
     0
 78
     0
170
     0
171
     2
172
     0
173
     0
174
     0
175
     0
176
     0
177
     0
178
     0
  0
ENDTAB
  0
ENDSEC
  0
SECTION
  2
BLOCKS
  0
BLOCK
  8
0
  2
$MODEL_SPACE
 70
     0
 10
0.0
 20
0.0
 30
0.0
  3
$MODEL_SPACE
  1

  0
ENDBLK
  5
2A3
  8
0
  0
BLOCK
 67
     1
  8
0
  2
$PAPER_SPACE
 70
     0
 10
0.0
 20
0.0
 30
0.0
  3
$PAPER_SPACE
  1

  0
ENDBLK
  5
29F
 67
     1
  8
0
  0
BLOCK
  8
0
  2
DOT1
 70
     0
 10
0.0
 20
0.0
 30
0.0
  3
DOT1
  1

  0
CIRCLE
  5
16B
  8
SIZE
  6
CONTINUOUS
 62
     7
 10
0.0
 20
0.0
 30
0.0
 40
3.0
  0
ENDBLK
  5
16C
  8
0
  0
BLOCK
  8
0
  2
_ORIGIN
 70
     0
 10
0.0
 20
0.0
 30
0.0
  3
_ORIGIN
  1

  0
CIRCLE
  5
16F
  8
0
  6
CONTINUOUS
 62
     7
 10
0.0
 20
0.0
 30
0.0
 40
0.5
  0
LINE
  5
170
  8
0
  6
CONTINUOUS
 62
     7
 10
0.0
 20
0.0
 30
0.0
 11
-1.0
 21
0.0
 31
0.0
  0
ENDBLK
  5
171
  8
0
  0
ENDSEC
  0
SECTION
  2
ENTITIES
  0
LINE
  5
172
  8
BASIS
  6
DASHDOT
 62
     6
 39
50.0
 10
-90.887010000000004
 20
0.0
 30
0.0
 11
152.08586199999999
 21
0.0
 31
0.0
  0
POINT
  5
173
  8
ARRANGE
  6
CONTINUOUS
 62
     1
 10
0.0
 20
0.0
 30
0.0
 39
50.0
  0
CIRCLE
  5
174
  8
ARRANGE
  6
CONTINUOUS
 62
     1
 39
50.0
 10
0.0
 20
0.0
 30
0.0
 40
40.0
  0
LINE
  5
175
  8
DETAIL
  6
CONTINUOUS
 62
     5
 39
50.0
 10
0.0
 20
105.0
 30
0.0
 11
0.0
 21
-105.0
 31
0.0
  0
LINE
  5
176
  8
DETAIL
  6
CONTINUOUS
 62
     5
 39
50.0
 10
0.0
 20
-105.0
 30
0.0
 11
-36.171613000000001
 21
-105.0
 31
0.0
  0
LINE
  5
177
  8
DETAIL
  6
CONTINUOUS
 62
     5
 39
50.0
 10
-38.936421000000003
 20
105.0
 30
0.0
 11
0.0
 21
105.0
 31
0.0
  0
ARC
  5
178
  8
DETAIL
  6
CONTINUOUS
 62
     5
 39
50.0
 10
389.33999999999992
 20
6.211999999999998
 30
0.0
 40
447.38312899999988
 50
168.28765799999999
 51
193.379717
  0
ARC
  5
179
  8
DETAIL
  6
CONTINUOUS
 62
     5
 39
50.0
 10
-38.936421000000003
 20
95.0
 30
0.0
 40
10.0
 50
90.0
 51
168.28765799999999
  0
ARC
  5
17A
  8
DETAIL
  6
CONTINUOUS
 62
     5
 39
50.0
 10
-36.171613000000001
 20
-95.0
 30
0.0
 40
10.0
 50
193.379717
 51
270.0
  0
LINE
  5
17B
  8
DETAIL
  6
CONTINUOUS
 62
     5
 39
50.0
 10
-50.424540999999998
 20
-76.0
 30
0.0
 11
-38.924540999999998
 21
-76.0
 31
0.0
  0
LINE
  5
17C
  8
DETAIL
  6
CONTINUOUS
 62
     5
 39
50.0
 10
-38.924540999999998
 20
-76.0
 30
0.0
 11
-35.924540999999991
 21
-105.0
 31
0.0
  0
LINE
  5
17D
  8
DETAIL
  6
CONTINUOUS
 62
     5
 39
50.0
 10
0.0
 20
-70.0
 30
0.0
 11
60.0
 21
-70.0
 31
0.0
  0
LINE
  5
17E
  8
DETAIL
  6
CONTINUOUS
 62
     5
 39
50.0
 10
60.0
 20
-70.0
 30
0.0
 11
60.0
 21
35.0
 31
0.0
  0
LINE
  5
17F
  8
DETAIL
  6
CONTINUOUS
 62
     5
 39
50.0
 10
60.0
 20
70.0
 30
0.0
 11
0.0
 21
70.0
 31
0.0
  0
LINE
  5
180
  8
DETAIL
  6
CONTINUOUS
 62
     5
 39
50.0
 10
60.0
 20
31.5
 30
0.0
 11
67.0
 21
31.5
 31
0.0
  0
LINE
  5
181
  8
DETAIL
  6
CONTINUOUS
 62
     5
 39
50.0
 10
72.0
 20
26.5
 30
0.0
 11
72.0
 21
-26.5
 31
0.0
  0
LINE
  5
182
  8
DETAIL
  6
CONTINUOUS
 62
     5
 39
50.0
 10
67.0
 20
-31.5
 30
0.0
 11
60.0
 21
-31.5
 31
0.0
  0
ARC
  5
183
  8
DETAIL
  6
CONTINUOUS
 62
     5
 39
50.0
 10
67.0
 20
26.5
 30
0.0
 40
5.0
 50
0.0
 51
90.0
  0
ARC
  5
184
  8
DETAIL
  6
CONTINUOUS
 62
     5
 39
50.0
 10
67.0
 20
-26.5
 30
0.0
 40
5.0
 50
270.0
 51
0.0
  0
LINE
  5
185
  8
DETAIL
  6
CONTINUOUS
 62
     5
 39
50.0
 10
60.0
 20
65.0
 30
0.0
 11
0.0
 21
65.0
 31
0.0
  0
LINE
  5
186
  8
DETAIL
  6
CONTINUOUS
 62
     5
 39
50.0
 10
60.0
 20
35.0
 30
0.0
 11
48.0
 21
35.0
 31
0.0
  0
LINE
  5
187
  8
DETAIL
  6
CONTINUOUS
 62
     5
 39
50.0
 10
31.258268000000001
 20
37.952019
 30
0.0
 11
31.258268000000001
 21
46.952018999999993
 31
0.0
  0
LINE
  5
188
  8
DETAIL
  6
CONTINUOUS
 62
     5
 39
50.0
 10
48.0
 20
35.0
 30
0.0
 11
31.258268000000001
 21
37.952019
 31
0.0
  0
LINE
  5
189
  8
DETAIL
  6
CONTINUOUS
 62
     5
 39
50.0
 10
48.0
 20
43.978225999999999
 30
0.0
 11
31.258268000000001
 21
46.930244999999992
 31
0.0
  0
LINE
  5
18A
  8
DETAIL
  6
CONTINUOUS
 62
     5
 39
50.0
 10
48.0
 20
43.978225999999999
 30
0.0
 11
60.0
 21
43.978225999999999
 31
0.0
  0
LINE
  5
18B
  8
DETAIL
  6
CONTINUOUS
 62
     5
 39
50.0
 10
48.0
 20
43.978225999999999
 30
0.0
 11
48.0
 21
35.0
 31
0.0
  0
LINE
  5
18C
  8
DETAIL
  6
CONTINUOUS
 62
     5
 39
50.0
 10
58.0
 20
43.978225999999999
 30
0.0
 11
58.0
 21
35.0
 31
0.0
  0
LINE
  5
18D
  8
DETAIL
  6
CONTINUOUS
 62
     5
 39
50.0
 10
60.0
 20
43.978225999999999
 30
0.0
 11
60.0
 21
70.0
 31
0.0
  0
LINE
  5
18E
  8
OUTLINE
  6
CONTINUOUS
 62
     3
 39
50.0
 10
0.0
 20
105.0
 30
0.0
 11
0.0
 21
-105.0
 31
0.0
  0
ARC
  5
18F
  8
OUTLINE
  6
CONTINUOUS
 62
     3
 39
50.0
 10
389.33999999999992
 20
6.211999999999998
 30
0.0
 40
447.38312899999988
 50
168.28765799999999
 51
193.379717
  0
LINE
  5
190
  8
OUTLINE
  6
CONTINUOUS
 62
     3
 39
50.0
 10
-38.936421000000003
 20
105.0
 30
0.0
 11
0.0
 21
105.0
 31
0.0
  0
ARC
  5
191
  8
OUTLINE
  6
CONTINUOUS
 62
     3
 39
50.0
 10
-38.936421000000003
 20
95.0
 30
0.0
 40
10.0
 50
90.0
 51
168.28765799999999
  0
ARC
  5
192
  8
OUTLINE
  6
CONTINUOUS
 62
     3
 39
50.0
 10
-36.171613000000001
 20
-95.0
 30
0.0
 40
10.0
 50
193.379717
 51
270.0
  0
LINE
  5
193
  8
OUTLINE
  6
CONTINUOUS
 62
     3
 39
50.0
 10
0.0
 20
-105.0
 30
0.0
 11
-36.171613000000001
 21
-105.0
 31
0.0
  0
LINE
  5
194
  8
OUTLINE
  6
CONTINUOUS
 62
     3
 39
50.0
 10
0.0
 20
-70.0
 30
0.0
 11
60.0
 21
-70.0
 31
0.0
  0
LINE
  5
195
  8
OUTLINE
  6
CONTINUOUS
 62
     3
 39
50.0
 10
60.0
 20
-70.0
 30
0.0
 11
60.0
 21
35.0
 31
0.0
  0
LINE
  5
196
  8
OUTLINE
  6
CONTINUOUS
 62
     3
 39
50.0
 10
72.0
 20
26.5
 30
0.0
 11
72.0
 21
-26.5
 31
0.0
  0
ARC
  5
197
  8
OUTLINE
  6
CONTINUOUS
 62
     3
 39
50.0
 10
67.0
 20
-26.5
 30
0.0
 40
5.0
 50
270.0
 51
0.0
  0
LINE
  5
198
  8
OUTLINE
  6
CONTINUOUS
 62
     3
 39
50.0
 10
67.0
 20
-31.5
 30
0.0
 11
60.0
 21
-31.5
 31
0.0
  0
ARC
  5
199
  8
OUTLINE
  6
CONTINUOUS
 62
     3
 39
50.0
 10
67.0
 20
26.5
 30
0.0
 40
5.0
 50
0.0
 51
90.0
  0
LINE
  5
19A
  8
OUTLINE
  6
CONTINUOUS
 62
     3
 39
50.0
 10
60.0
 20
31.5
 30
0.0
 11
67.0
 21
31.5
 31
0.0
  0
LINE
  5
19B
  8
OUTLINE
  6
CONTINUOUS
 62
     3
 39
50.0
 10
60.0
 20
70.0
 30
0.0
 11
0.0
 21
70.0
 31
0.0
  0
LINE
  5
19C
  8
OUTLINE
  6
CONTINUOUS
 62
     3
 39
50.0
 10
60.0
 20
43.978225999999999
 30
0.0
 11
60.0
 21
70.0
 31
0.0
  0
LINE
  5
19D
  8
OUTLINE
  6
CONTINUOUS
 62
     3
 39
50.0
 10
48.0
 20
43.978225999999999
 30
0.0
 11
31.258268000000001
 21
46.930244999999992
 31
0.0
  0
LINE
  5
19E
  8
OUTLINE
  6
CONTINUOUS
 62
     3
 39
50.0
 10
31.258268000000001
 20
37.952019
 30
0.0
 11
31.258268000000001
 21
46.952018999999993
 31
0.0
  0
LINE
  5
19F
  8
OUTLINE
  6
CONTINUOUS
 62
     3
 39
50.0
 10
48.0
 20
35.0
 30
0.0
 11
31.258268000000001
 21
37.952019
 31
0.0
  0
LINE
  5
1A0
  8
OUTLINE
  6
CONTINUOUS
 62
     3
 39
50.0
 10
48.0
 20
43.978225999999999
 30
0.0
 11
60.0
 21
43.978225999999999
 31
0.0
  0
LINE
  5
1A1
  8
OUTLINE
  6
CONTINUOUS
 62
     3
 39
50.0
 10
60.0
 20
35.0
 30
0.0
 11
48.0
 21
35.0
 31
0.0
  0
ARC
  5
1A2
  8
FIX
  6
CONTINUOUS
 62
    11
 39
50.0
 10
0.0
 20
0.0
 30
0.0
 40
2.0
 50
180.0
 51
0.0
  0
ARC
  5
1A3
  8
FIX
  6
CONTINUOUS
 62
    11
 39
50.0
 10
0.0
 20
6.0
 30
0.0
 40
2.0
 50
0.0
 51
180.0
  0
LINE
  5
1A4
  8
FIX
  6
CONTINUOUS
 62
    11
 39
50.0
 10
2.0
 20
6.0
 30
0.0
 11
2.0
 21
0.0
 31
0.0
  0
LINE
  5
1A5
  8
FIX
  6
CONTINUOUS
 62
    11
 39
50.0
 10
-2.0
 20
6.0
 30
0.0
 11
-2.0
 21
0.0
 31
0.0
  0
LINE
  5
1A6
  8
NOTE
  6
CONTINUOUS
 62
     4
 10
0.0
 20
-20.0
 30
0.0
 11
0.0
 21
20.0
 31
0.0
  0
LINE
  5
1A7
  8
NOTE
  6
CONTINUOUS
 62
     4
 10
-20.0
 20
0.0
 30
0.0
 11
20.0
 21
0.0
 31
0.0
  0
LINE
  5
1A8
  8
NOTE
  6
CONTINUOUS
 62
     4
 39
50.0
 10
0.0
 20
0.0
 30
0.0
 11
0.0
 21
6.0
 31
0.0
  0
LINE
  5
1A9
  8
NOTE
  6
CONTINUOUS
 62
     4
 10
0.0
 20
-14.0
 30
0.0
 11
0.0
 21
26.0
 31
0.0
  0
LINE
  5
1AA
  8
NOTE
  6
CONTINUOUS
 62
     4
 10
-20.0
 20
6.0
 30
0.0
 11
20.0
 21
6.0
 31
0.0
  0
LINE
  5
1AB
  8
SIZE
  6
CONTINUOUS
 62
    30
 10
-58.936421000000003
 20
105.0
 30
0.0
 11
-151.38378399999991
 21
105.0
 31
0.0
  0
LINE
  5
1AC
  8
SIZE
  6
CONTINUOUS
 62
    30
 10
-58.936421000000003
 20
-105.0
 30
0.0
 11
-151.38378399999991
 21
-105.0
 31
0.0
  0
LINE
  5
1AD
  8
SIZE
  6
CONTINUOUS
 62
    30
 10
-131.38378399999991
 20
105.0
 30
0.0
 11
-131.38378399999991
 21
-105.0
 31
0.0
  0
CIRCLE
  5
1AE
  8
SIZE
  6
CONTINUOUS
 62
    30
 10
-131.38378399999991
 20
105.0
 30
0.0
 40
6.0
  0
CIRCLE
  5
1AF
  8
SIZE
  6
CONTINUOUS
 62
    30
 10
-131.38378399999991
 20
-105.0
 30
0.0
 40
6.0
  0
TEXT
  5
1B0
  8
SIZE
  6
CONTINUOUS
 62
    30
 10
-156.38378399999991
 20
-105.0514285714286
 30
0.0
 40
64.0
  1
□210
 50
90.0
 41
0.9
 72
     1
 11
-156.38378399999991
 21
0.0
 31
0.0
  0
LINE
  5
1B1
  8
SIZE
  6
CONTINUOUS
 62
    30
 10
80.0
 20
-70.0
 30
0.0
 11
405.50475609562977
 21
-70.0
 31
0.0
  0
LINE
  5
1B2
  8
SIZE
  6
CONTINUOUS
 62
    30
 10
80.0
 20
70.0
 30
0.0
 11
406.9596716649973
 21
70.0
 31
0.0
  0
LINE
  5
1B3
  8
SIZE
  6
CONTINUOUS
 62
    30
 10
384.181435234628
 20
58.0
 30
0.0
 11
384.181435234628
 21
-58.0
 31
0.0
  0
LINE
  5
1B4
  8
SIZE
  6
CONTINUOUS
 62
    30
 10
384.181435234628
 20
-70.0
 30
0.0
 11
384.181435234628
 21
-333.44971499999991
 31
0.0
  0
CIRCLE
  5
1B5
  8
SIZE
  6
CONTINUOUS
 62
    30
 10
384.181435234628
 20
70.0
 30
0.0
 40
6.0
  0
LINE
  5
1B6
  8
SIZE
  6
CONTINUOUS
 62
    30
 10
384.181435234628
 20
70.0
 30
0.0
 11
384.181435234628
 21
58.0
 31
0.0
  0
CIRCLE
  5
1B7
  8
SIZE
  6
CONTINUOUS
 62
    30
 10
384.181435234628
 20
-70.0
 30
0.0
 40
6.0
  0
LINE
  5
1B8
  8
SIZE
  6
CONTINUOUS
 62
    30
 10
384.181435234628
 20
-70.0
 30
0.0
 11
384.181435234628
 21
-58.0
 31
0.0
  0
TEXT
  5
1B9
  8
SIZE
  6
CONTINUOUS
 62
    30
 10
359.181435234628
 20
-322.71257157142861
 30
0.0
 40
64.0
  1
φ140
 50
90.0
 41
0.9
 72
     1
 11
359.181435234628
 21
-213.82114300000001
 31
0.0
  0
LINE
  5
1BA
  8
SIZE
  6
CONTINUOUS
 62
    30
 10
60.0
 20
-90.0
 30
0.0
 11
60.0
 21
-245.1245925653096
 31
0.0
  0
LINE
  5
1BB
  8
SIZE
  6
CONTINUOUS
 62
    30
 10
72.0
 20
-228.0702630988448
 30
0.0
 11
201.8164407083668
 21
-228.0702630988448
 31
0.0
  0
LINE
  5
1BC
  8
SIZE
  6
CONTINUOUS
 62
    30
 10
0.0
 20
-228.0702630988448
 30
0.0
 11
60.0
 21
-228.0702630988448
 31
0.0
  0
CIRCLE
  5
1BD
  8
SIZE
  6
CONTINUOUS
 62
    30
 10
0.0
 20
-228.0702630988448
 30
0.0
 40
6.0
  0
CIRCLE
  5
1BE
  8
SIZE
  6
CONTINUOUS
 62
    30
 10
60.0
 20
-228.0702630988448
 30
0.0
 40
6.0
  0
LINE
  5
1BF
  8
SIZE
  6
CONTINUOUS
 62
    30
 10
60.0
 20
-228.0702630988448
 30
0.0
 11
72.0
 21
-228.0702630988448
 31
0.0
  0
TEXT
  5
1C0
  8
SIZE
  6
CONTINUOUS
 62
    30
 10
105.7919492826704
 20
-203.0702630988448
 30
0.0
 40
64.0
  1
60
 41
0.9
 72
     1
 11
152.42052071124181
 21
-203.0702630988448
 31
0.0
  0
LINE
  5
1C1
  8
SIZE
  6
CONTINUOUS
 62
    30
 10
72.0
 20
-46.5
 30
0.0
 11
72.0
 21
-386.19238046646478
 31
0.0
  0
LINE
  5
1C2
  8
SIZE
  6
CONTINUOUS
 62
    30
 10
12.0
 20
-368.336915098845
 30
0.0
 11
65.0
 21
-368.336915098845
 31
0.0
  0
LINE
  5
1C3
  8
SIZE
  6
CONTINUOUS
 62
    30
 10
72.0
 20
-368.336915098845
 30
0.0
 11
198.90660956963151
 21
-368.336915098845
 31
0.0
  0
CIRCLE
  5
1C4
  8
SIZE
  6
CONTINUOUS
 62
    30
 10
0.0
 20
-368.336915098845
 30
0.0
 40
6.0
  0
LINE
  5
1C5
  8
SIZE
  6
CONTINUOUS
 62
    30
 10
0.0
 20
-368.336915098845
 30
0.0
 11
12.0
 21
-368.336915098845
 31
0.0
  0
CIRCLE
  5
1C6
  8
SIZE
  6
CONTINUOUS
 62
    30
 10
72.0
 20
-368.336915098845
 30
0.0
 40
6.0
  0
LINE
  5
1C7
  8
SIZE
  6
CONTINUOUS
 62
    30
 10
72.0
 20
-368.336915098845
 30
0.0
 11
60.0
 21
-368.336915098845
 31
0.0
  0
TEXT
  5
1C8
  8
SIZE
  6
CONTINUOUS
 62
    30
 10
104.3370337133032
 20
-343.336915098845
 30
0.0
 40
64.0
  1
72
 41
0.9
 72
     1
 11
150.9656051418747
 21
-343.336915098845
 31
0.0
  0
LINE
  5
1C9
  8
SIZE
  6
CONTINUOUS
 62
    30
 10
-58.0
 20
-20.0
 30
0.0
 11
-58.0
 21
-384.7380728513948
 31
0.0
  0
LINE
  5
1CA
  8
SIZE
  6
CONTINUOUS
 62
    30
 10
0.0
 20
-125.0
 30
0.0
 11
0.0
 21
-386.19238046646478
 31
0.0
  0
LINE
  5
1CB
  8
SIZE
  6
CONTINUOUS
 62
    30
 10
12.0
 20
-368.336915098845
 30
0.0
 11
24.0
 21
-368.336915098845
 31
0.0
  0
LINE
  5
1CC
  8
SIZE
  6
CONTINUOUS
 62
    30
 10
-70.0
 20
-368.336915098845
 30
0.0
 11
-225.25714300000001
 21
-368.336915098845
 31
0.0
  0
LINE
  5
1CD
  8
SIZE
  6
CONTINUOUS
 62
    30
 10
0.0
 20
-368.336915098845
 30
0.0
 11
-58.0
 21
-368.336915098845
 31
0.0
  0
CIRCLE
  5
1CE
  8
SIZE
  6
CONTINUOUS
 62
    30
 10
0.0
 20
-368.336915098845
 30
0.0
 40
6.0
  0
LINE
  5
1CF
  8
SIZE
  6
CONTINUOUS
 62
    30
 10
0.0
 20
-368.336915098845
 30
0.0
 11
12.0
 21
-368.336915098845
 31
0.0
  0
CIRCLE
  5
1D0
  8
SIZE
  6
CONTINUOUS
 62
    30
 10
-58.0
 20
-368.336915098845
 30
0.0
 40
6.0
  0
LINE
  5
1D1
  8
SIZE
  6
CONTINUOUS
 62
    30
 10
-58.0
 20
-368.336915098845
 30
0.0
 11
-70.0
 21
-368.336915098845
 31
0.0
  0
TEXT
  5
1D2
  8
SIZE
  6
CONTINUOUS
 62
    30
 10
-200.2571424285714
 20
-343.336915098845
 30
0.0
 40
64.0
  1
58
 41
0.9
 72
     1
 11
-153.62857099999999
 21
-343.336915098845
 31
0.0
  0
TEXT
  5
1D3
  8
NOTE
  6
CONTINUOUS
 62
     4
 10
134.6558209999998
 20
131.20128099999991
 30
0.0
 40
64.0
  1
2ヶ所×4×10取付用長穴
 41
0.9
  0
LINE
  5
1D4
  8
NOTE
  6
CONTINUOUS
 62
     4
 39
50.0
 10
0.0
 20
6.0
 30
0.0
 11
125.454346
 21
116.80816899999991
 31
0.0
  0
LINE
  5
1D5
  8
NOTE
  6
CONTINUOUS
 62
     4
 39
50.0
 10
125.454346
 20
116.80816899999991
 30
0.0
 11
956.37026000000003
 21
116.80816899999991
 31
0.0
  0
LINE
  5
1D6
  8
NOTE
  6
CONTINUOUS
 62
     4
 10
21.751380000000001
 20
39.568995999999991
 30
0.0
 11
0.0
 21
6.0
 31
0.0
  0
LINE
  5
1D7
  8
NOTE
  6
CONTINUOUS
 62
     4
 10
0.0
 20
6.0
 30
0.0
 11
35.621746000000002
 21
24.195913000000001
 31
0.0
  0
LINE
  5
1D8
  8
SIZE
  6
CONTINUOUS
 62
    30
 10
40.0
 20
6.0
 30
0.0
 11
225.542914
 21
6.0
 31
0.0
  0
LINE
  5
1D9
  8
SIZE
  6
CONTINUOUS
 62
    30
 10
20.0
 20
0.0
 30
0.0
 11
225.542914
 21
0.0
 31
0.0
  0
LINE
  5
1DA
  8
SIZE
  6
CONTINUOUS
 62
    30
 10
205.542914
 20
18.0
 30
0.0
 11
205.542914
 21
30.0
 31
0.0
  0
LINE
  5
1DB
  8
SIZE
  6
CONTINUOUS
 62
    30
 10
205.542914
 20
-12.0
 30
0.0
 11
205.542914
 21
-59.161277895676882
 31
0.0
  0
LINE
  5
1DC
  8
SIZE
  6
CONTINUOUS
 62
    30
 10
205.542914
 20
6.0
 30
0.0
 11
205.542914
 21
0.0
 31
0.0
  0
CIRCLE
  5
1DD
  8
SIZE
  6
CONTINUOUS
 62
    30
 10
205.542914
 20
6.0
 30
0.0
 40
6.0
  0
LINE
  5
1DE
  8
SIZE
  6
CONTINUOUS
 62
    30
 10
205.542914
 20
6.0
 30
0.0
 11
205.542914
 21
18.0
 31
0.0
  0
CIRCLE
  5
1DF
  8
SIZE
  6
CONTINUOUS
 62
    30
 10
205.542914
 20
0.0
 30
0.0
 40
6.0
  0
LINE
  5
1E0
  8
SIZE
  6
CONTINUOUS
 62
    30
 10
205.542914
 20
0.0
 30
0.0
 11
205.542914
 21
-12.0
 31
0.0
  0
TEXT
  5
1E1
  8
SIZE
  6
CONTINUOUS
 62
    30
 10
180.542914
 20
-50.435434876869287
 30
0.0
 40
64.0
  1
6
 50
90.0
 41
0.9
 72
     1
 11
180.542914
 21
-32.606863448297879
 31
0.0
  0
LINE
  5
1E2
  8
NOTE
  6
CONTINUOUS
 62
     4
 10
0.0
 20
85.0
 30
0.0
 11
0.0
 21
125.0
 31
0.0
  0
LINE
  5
1E3
  8
NOTE
  6
CONTINUOUS
 62
     4
 10
-20.0
 20
105.0
 30
0.0
 11
20.0
 21
105.0
 31
0.0
  0
TEXT
  5
1E4
  8
NOTE
  6
CONTINUOUS
 62
     4
 10
167.722419
 20
269.724243
 30
0.0
 40
64.0
  1
EL
 41
0.9
  0
LINE
  5
1E5
  8
NOTE
  6
CONTINUOUS
 62
     4
 10
21.748100000000001
 20
138.57112099999969
 30
0.0
 11
0.0
 21
105.0
 31
0.0
  0
LINE
  5
1E6
  8
NOTE
  6
CONTINUOUS
 62
     4
 10
0.0
 20
105.0
 30
0.0
 11
35.619968
 21
123.1993929999999
 31
0.0
  0
LINE
  5
1E7
  8
NOTE
  6
CONTINUOUS
 62
     4
 39
50.0
 10
166.89300700000001
 20
249.8284449999999
 30
0.0
 11
257.928471
 21
249.8284449999999
 31
0.0
  0
LINE
  5
1E8
  8
NOTE
  6
CONTINUOUS
 62
     4
 39
50.0
 10
166.89300700000001
 20
249.8284449999999
 30
0.0
 11
0.0
 21
105.0
 31
0.0
  0
TEXT
  5
1E9
  8
ETC
  6
CONTINUOUS
 62
    61
 10
516.12652683550607
 20
410.83397054580422
 30
0.0
 40
50.0
  1
V-12PS6_4
 41
0.9
  0
TEXT
  5
1EA
  8
ETC
  6
CONTINUOUS
 62
    61
 10
511.71366483550628
 20
344.04655454580421
 30
0.0
 40
50.0
  1
換気扇
 41
0.9
  0
TEXT
  5
1EB
  8
ETC
  6
CONTINUOUS
 62
    61
 10
618.854871538579
 20
284.05519699186323
 30
0.0
 40
40.0
  1
V-12PS6
 41
0.9
  0
ENDSEC
  0
EOF
