  0
SECTION
  2
HEADER
  9
$ACADVER
  1
AC1009
  9
$DWGCODEPAGE
  3
dos932
  9
$INSBASE
 10
0.0
 20
0.0
 30
0.0
  9
$EXTMIN
 10
-238.37583748201911
 20
-300.88804965010968
 30
-0.0015258207003583
  9
$EXTMAX
 10
877.36817545649501
 20
665.86304521870625
 30
0.0000000349246037
  9
$LIMMIN
 10
-2970.0
 20
-2100.0
  9
$LIMMAX
 10
2970.0
 20
2100.0
  9
$ORTHOMODE
 70
     1
  9
$REGENMODE
 70
     1
  9
$FILLMODE
 70
     1
  9
$QTEXTMODE
 70
     0
  9
$MIRRTEXT
 70
     0
  9
$LTSCALE
 40
20.0
  9
$ATTMODE
 70
     1
  9
$TEXTSIZE
 40
64.0
  9
$TRACEWID
 40
0.05
  9
$TEXTSTYLE
  7
STANDARD
  9
$CLAYER
  8
SIZE
  9
$CELTYPE
  6
CONTINUOUS
  9
$CECOLOR
 62
     7
  9
$DIMSCALE
 40
1.0
  9
$DIMASZ
 40
12.0
  9
$DIMEXO
 40
20.0
  9
$DIMDLI
 40
200.0
  9
$DIMRND
 40
0.0
  9
$DIMDLE
 40
0.0
  9
$DIMEXE
 40
20.0
  9
$DIMTP
 40
0.0
  9
$DIMTM
 40
0.0
  9
$DIMTXT
 40
64.0
  9
$DIMCEN
 40
0.09
  9
$DIMTSZ
 40
0.0
  9
$DIMTOL
 70
     0
  9
$DIMLIM
 70
     0
  9
$DIMTIH
 70
     0
  9
$DIMTOH
 70
     0
  9
$DIMSE1
 70
     0
  9
$DIMSE2
 70
     0
  9
$DIMTAD
 70
     1
  9
$DIMZIN
 70
     8
  9
$DIMBLK
  1

  9
$DIMASO
 70
     1
  9
$DIMSHO
 70
     0
  9
$DIMPOST
  1

  9
$DIMAPOST
  1

  9
$DIMALT
 70
     0
  9
$DIMALTD
 70
     2
  9
$DIMALTF
 40
25.399999999999999
  9
$DIMLFAC
 40
1.0
  9
$DIMTOFL
 70
     1
  9
$DIMTVP
 40
0.0
  9
$DIMTIX
 70
     1
  9
$DIMSOXD
 70
     0
  9
$DIMSAH
 70
     0
  9
$DIMBLK1
  1

  9
$DIMBLK2
  1

  9
$DIMSTYLE
  2
STANDARD
  9
$DIMCLRD
 70
     7
  9
$DIMCLRE
 70
     7
  9
$DIMCLRT
 70
     7
  9
$DIMTFAC
 40
1.0
  9
$DIMGAP
 40
25.0
  9
$LUNITS
 70
     2
  9
$LUPREC
 70
     4
  9
$SKETCHINC
 40
0.1
  9
$FILLETRAD
 40
3.0
  9
$AUNITS
 70
     1
  9
$AUPREC
 70
     3
  9
$MENU
  1
ACAD
  9
$ELEVATION
 40
0.0
  9
$PELEVATION
 40
0.0
  9
$THICKNESS
 40
0.0
  9
$LIMCHECK
 70
     0
  9
$CHAMFERA
 40
0.0
  9
$CHAMFERB
 40
0.0
  9
$SKPOLY
 70
     0
  9
$TDCREATE
 40
2453019.623009259
  9
$TDUPDATE
 40
2459356.66949485
  9
$TDINDWG
 40
1.7407104282
  9
$TDUSRTIMER
 40
1.7407104282
  9
$USRTIMER
 70
     1
  9
$ANGBASE
 50
0.0
  9
$ANGDIR
 70
     0
  9
$PDMODE
 70
     3
  9
$PDSIZE
 40
-2.0
  9
$PLINEWID
 40
0.0
  9
$SPLFRAME
 70
     0
  9
$SPLINETYPE
 70
     6
  9
$SPLINESEGS
 70
     8
  9
$SURFTAB1
 70
     6
  9
$SURFTAB2
 70
     6
  9
$SURFTYPE
 70
     6
  9
$SURFU
 70
     6
  9
$SURFV
 70
     6
  9
$UCSNAME
  2

  9
$UCSORG
 10
0.0
 20
0.0
 30
0.0
  9
$UCSXDIR
 10
1.0
 20
0.0
 30
0.0
  9
$UCSYDIR
 10
0.0
 20
1.0
 30
0.0
  9
$PUCSNAME
  2

  9
$PUCSORG
 10
0.0
 20
0.0
 30
0.0
  9
$PUCSXDIR
 10
1.0
 20
0.0
 30
0.0
  9
$PUCSYDIR
 10
0.0
 20
1.0
 30
0.0
  9
$USERI1
 70
     0
  9
$USERI2
 70
     0
  9
$USERI3
 70
     0
  9
$USERI4
 70
     0
  9
$USERI5
 70
     0
  9
$USERR1
 40
20.0
  9
$USERR2
 40
0.0
  9
$USERR3
 40
0.0
  9
$USERR4
 40
0.0
  9
$USERR5
 40
0.0
  9
$WORLDVIEW
 70
     1
  9
$SHADEDGE
 70
     3
  9
$SHADEDIF
 70
    70
  9
$TILEMODE
 70
     1
  9
$MAXACTVP
 70
    48
  9
$PINSBASE
 10
0.0
 20
0.0
 30
0.0
  9
$PLIMCHECK
 70
     0
  9
$PEXTMIN
 10
-100000000000000000000.0
 20
-100000000000000000000.0
 30
-100000000000000000000.0
  9
$PEXTMAX
 10
100000000000000000000.0
 20
100000000000000000000.0
 30
100000000000000000000.0
  9
$PLIMMIN
 10
0.0
 20
0.0
  9
$PLIMMAX
 10
12.0
 20
9.0
  9
$UNITMODE
 70
     0
  9
$VISRETAIN
 70
     0
  9
$PLINEGEN
 70
     0
  9
$PSLTSCALE
 70
     0
  9
$TREEDEPTH
 70
  3020
  9
$ATTDIA
 70
     0
  9
$ATTREQ
 70
     1
  9
$BLIPMODE
 70
     1
  9
$COORDS
 70
     1
  9
$DRAGMODE
 70
     2
  9
$OSMODE
 70
     0
  9
$HANDLING
 70
     0
  9
$HANDSEED
  5
549
  0
ENDSEC
  0
SECTION
  2
TABLES
  0
TABLE
  2
LTYPE
 70
     2
  0
LTYPE
  2
CONTINUOUS
 70
     0
  3
実線
 72
    65
 73
     0
 40
0.0
  0
LTYPE
  2
DASHDOT
 70
     0
  3
____ _ ____ _ ____ _ ____ _ ____ _ ____ _ ____
 72
    65
 73
     4
 40
5.5
 49
4.0
 49
-0.6
 49
0.3
 49
-0.6
  0
ENDTAB
  0
TABLE
  2
LAYER
 70
    12
  0
LAYER
  2
SIZE
 70
     0
 62
    30
  6
CONTINUOUS
  0
LAYER
  2
BASIS
 70
     0
 62
     6
  6
DASHDOT
  0
LAYER
  2
OUTLINE
 70
     0
 62
     3
  6
CONTINUOUS
  0
LAYER
  2
DETAIL
 70
     0
 62
     5
  6
CONTINUOUS
  0
LAYER
  2
ARRANGE
 70
     0
 62
     1
  6
CONTINUOUS
  0
LAYER
  2
ETC
 70
     0
 62
    61
  6
CONTINUOUS
  0
LAYER
  2
FIX
 70
     0
 62
    11
  6
CONTINUOUS
  0
LAYER
  2
NOTE
 70
     0
 62
     4
  6
CONTINUOUS
  0
LAYER
  2
0
 70
    64
 62
     7
  6
CONTINUOUS
  0
LAYER
  2
DEFPOINTS
 70
    64
 62
     7
  6
CONTINUOUS
  0
LAYER
  2
SERVICESPACE
 70
    64
 62
     2
  6
DASHDOT
  0
LAYER
  2
SYMBOLLINE
 70
    64
 62
    15
  6
CONTINUOUS
  0
ENDTAB
  0
TABLE
  2
STYLE
 70
     1
  0
STYLE
  2
STANDARD
 70
     0
 40
64.0
 41
0.9
 50
0.0
 71
     0
 42
64.0
  3
SIMPLEX.shx
  4
BIGFONT.shx
  0
ENDTAB
  0
TABLE
  2
APPID
 70
    20
  0
APPID
  2
ACAD
 70
     0
  0
APPID
  2
ACADANNOTATIVE
 70
     0
  0
APPID
  2
AUTOCAD_POSTSCRIPT_FIGURE
 70
     0
  0
APPID
  2
ACAD_EXEMPT_FROM_CAD_STANDARDS
 70
     0
  0
APPID
  2
ACAD_PSEXT
 70
     0
  0
APPID
  2
ACAUTHENVIRON
 70
     0
  0
APPID
  2
GENIUS_GENOENT_13
 70
     0
  0
APPID
  2
GENIUS_GENCFG_13
 70
     0
  0
APPID
  2
GENIUS_GENCFG0_13
 70
     0
  0
APPID
  2
GENIUS_GENCFG1_13
 70
     0
  0
APPID
  2
GENIUS_GENCFG2_13
 70
     0
  0
APPID
  2
GENIUS_GENCFG3_13
 70
     0
  0
APPID
  2
GENIUS_GENCFG4_13
 70
     0
  0
APPID
  2
GENIUS_GEVCFG0_13
 70
     0
  0
APPID
  2
CONTENTBLOCKICON
 70
     0
  0
APPID
  2
CONTENTBLOCKDESCRIPTION
 70
     0
  0
APPID
  2
ACAD_NAV_VCDISPLAY
 70
     0
  0
APPID
  2
ACAD_MLEADERVER
 70
     0
  0
APPID
  2
ACDBDYNAMICBLOCKTRUENAME
 70
     0
  0
APPID
  2
ACDBDYNAMICBLOCKGUID
 70
     0
  0
ENDTAB
  0
TABLE
  2
DIMSTYLE
 70
     1
  0
DIMSTYLE
  2
STANDARD
 70
     0
  3

  4

  5

  6

  7

 40
1.0
 41
12.0
 42
20.0
 43
200.0
 44
20.0
 45
0.0
 46
0.0
 47
0.0
 48
0.0
140
64.0
141
0.09
142
0.0
143
25.399999999999999
144
1.0
145
0.0
146
1.0
147
25.0
 71
     0
 72
     0
 73
     0
 74
     0
 75
     0
 76
     0
 77
     1
 78
     8
170
     0
171
     2
172
     1
173
     0
174
     1
175
     0
176
     7
177
     7
178
     7
  0
ENDTAB
  0
TABLE
  2
VIEW
 70
     1
  0
VIEW
  2
ALL
 70
     0
 40
4282.6198079999986
 10
0.0
 20
41.309904000000003
 41
5940.0
 11
0.0
 21
0.0
 31
1.0
 12
0.0
 22
0.0
 32
0.0
 42
50.0
 43
0.0
 44
0.0
 50
0.0
 71
     0
  0
ENDTAB
  0
TABLE
  2
UCS
 70
     0
  0
ENDTAB
  0
TABLE
  2
VPORT
 70
     1
  0
VPORT
  2
*ACTIVE
 70
     0
 10
0.0
 20
0.0
 11
1.0
 21
1.0
 12
319.49616898723798
 22
182.48749778429831
 13
0.0
 23
0.0
 14
1.0
 24
1.0
 15
0.0
 25
0.0
 16
0.0
 26
0.0
 36
1.0
 17
0.0
 27
0.0
 37
0.0
 40
759.01230306271168
 41
2.0172166427546632
 42
50.0
 43
0.0
 44
0.0
 50
0.0
 51
0.0
 71
     0
 72
  1000
 73
     1
 74
     3
 75
     0
 76
     0
 77
     0
 78
     0
  0
ENDTAB
  0
ENDSEC
  0
SECTION
  2
BLOCKS
  0
ENDSEC
  0
SECTION
  2
ENTITIES
  0
TEXT
  8
ETC
  6
CONTINUOUS
 62
    61
 10
377.83294819175222
 20
601.71568923002383
 30
0.0
 40
64.0
  1
V-12PS8_4
 41
0.9
  0
TEXT
  8
ETC
  6
CONTINUOUS
 62
    61
 10
373.64695419175177
 20
483.76037921519259
 30
0.0
 40
64.0
  1
換気扇
 41
0.9
  0
LINE
  8
BASIS
  6
DASHDOT
 62
     6
 10
0.0
 20
-119.3110765181946
 30
0.0
 11
0.0
 21
169.11335571462811
 31
0.0
  0
LINE
  8
BASIS
  6
DASHDOT
 62
     6
 10
-88.438002165150934
 20
0.0
 30
0.0
 11
89.551711225211875
 21
0.0
 31
0.0
  0
TEXT
  8
ETC
  6
CONTINUOUS
 62
    61
 10
424.34835244030768
 20
375.61160632896741
 30
0.0
 40
40.0
  1
V-12PS8
 41
0.9
  0
LINE
  8
NOTE
  6
CONTINUOUS
 62
     4
 10
0.0
 20
-14.94847177499992
 30
0.0
 11
0.0
 21
0.9965647849999186
 31
0.0
  0
LINE
  8
NOTE
  6
CONTINUOUS
 62
     4
 10
-8.0622991498655381
 20
6.0000000000003979
 30
0.0
 11
8.0622991498655381
 21
6.0000000000003979
 31
0.0
  0
LINE
  8
BASIS
  6
DASHDOT
 62
     6
 10
89.551711225211875
 20
10.0
 30
0.0
 11
-88.567365296519071
 21
10.0
 31
0.0
  0
LINE
  8
SIZE
  6
CONTINUOUS
 62
    30
 10
0.0
 20
189.11335571462811
 30
0.0
 11
0.0000000000000284
 21
435.41205436948121
 31
0.0
  0
LINE
  8
SIZE
  6
CONTINUOUS
 62
    30
 10
-57.994999998749343
 20
30.0
 30
0.0
 11
-57.994999998749293
 21
435.41205436948121
 31
0.0
  0
LINE
  8
SIZE
  6
CONTINUOUS
 62
    30
 10
12.0
 20
415.41205436948121
 30
0.0
 11
24.0
 21
415.41205436948121
 31
0.0
  0
LINE
  8
SIZE
  6
CONTINUOUS
 62
    30
 10
-69.994999998749279
 20
415.41205436948121
 30
0.0
 11
-238.17856660840809
 21
415.41205436948121
 31
0.0
  0
LINE
  8
SIZE
  6
CONTINUOUS
 62
    30
 10
0.0000000000000284
 20
415.41205436948121
 30
0.0
 11
-57.994999998749293
 21
415.41205436948121
 31
0.0
  0
CIRCLE
  8
SIZE
  6
CONTINUOUS
 62
    30
 10
0.0000000000000284
 20
415.41205436948121
 30
0.0
 40
6.0
  0
LINE
  8
SIZE
  6
CONTINUOUS
 62
    30
 10
0.0000000000000284
 20
415.41205436948121
 30
0.0
 11
12.00000000000003
 21
415.41205436948121
 31
0.0
  0
CIRCLE
  8
SIZE
  6
CONTINUOUS
 62
    30
 10
-57.994999998749293
 20
415.41205436948121
 30
0.0
 40
6.0
  0
LINE
  8
SIZE
  6
CONTINUOUS
 62
    30
 10
-57.994999998749293
 20
415.41205436948121
 30
0.0
 11
-69.994999998749279
 21
415.41205436948121
 31
0.0
  0
TEXT
  8
SIZE
  6
CONTINUOUS
 62
    30
 10
-213.17856660840809
 20
440.41205436948121
 30
0.0
 40
64.0
  1
58
 41
0.9
 72
     1
 11
-166.54999517983671
 21
440.41205436948121
 31
0.0
  0
LINE
  8
NOTE
  6
CONTINUOUS
 62
     4
 10
0.0034782236885746
 20
71.071138401677217
 30
0.0
 11
0.0034782236886883
 21
80.741069930313401
 31
0.0
  0
LINE
  8
SIZE
  6
CONTINUOUS
 62
    30
 10
57.699999999999932
 20
109.3122321388
 30
0.0
 11
57.699999999999932
 21
305.31664000440242
 31
0.0
  0
LINE
  8
SIZE
  6
CONTINUOUS
 62
    30
 10
0.0
 20
189.11335571462811
 30
0.0
 11
0.0
 21
305.31664000440242
 31
0.0
  0
LINE
  8
SIZE
  6
CONTINUOUS
 62
    30
 10
-12.0
 20
285.31664000440242
 30
0.0
 11
-24.0
 21
285.31664000440242
 31
0.0
  0
LINE
  8
SIZE
  6
CONTINUOUS
 62
    30
 10
69.699999999999932
 20
285.31664000440242
 30
0.0
 11
266.09999999999991
 21
285.31664000440242
 31
0.0
  0
LINE
  8
SIZE
  6
CONTINUOUS
 62
    30
 10
0.0
 20
285.31664000440242
 30
0.0
 11
57.699999999999932
 21
285.31664000440242
 31
0.0
  0
CIRCLE
  8
SIZE
  6
CONTINUOUS
 62
    30
 10
0.0
 20
285.31664000440242
 30
0.0
 40
6.0
  0
LINE
  8
SIZE
  6
CONTINUOUS
 62
    30
 10
0.0
 20
285.31664000440242
 30
0.0
 11
-12.0
 21
285.31664000440242
 31
0.0
  0
CIRCLE
  8
SIZE
  6
CONTINUOUS
 62
    30
 10
57.699999999999932
 20
285.31664000440242
 30
0.0
 40
6.0
  0
LINE
  8
SIZE
  6
CONTINUOUS
 62
    30
 10
57.699999999999932
 20
285.31664000440242
 30
0.0
 11
69.699999999999932
 21
285.31664000440242
 31
0.0
  0
TEXT
  8
SIZE
  6
CONTINUOUS
 62
    30
 10
147.84285714285701
 20
310.31664000440242
 30
0.0
 40
64.0
  1
58
 41
0.9
 72
     1
 11
194.4714285714285
 21
310.31664000440242
 31
0.0
  0
LINE
  8
SIZE
  6
CONTINUOUS
 62
    30
 10
19.59301903740004
 20
104.7928961209
 30
0.0
 11
356.22196576332908
 21
104.7928961208999
 31
0.0
  0
LINE
  8
SIZE
  6
CONTINUOUS
 62
    30
 10
109.5517112252119
 20
10.0
 30
0.0
 11
356.22196576332908
 21
9.999999999999913
 31
0.0
  0
LINE
  8
SIZE
  6
CONTINUOUS
 62
    30
 10
336.22196576332902
 20
21.999999999999911
 30
0.0
 11
336.22196576332902
 21
92.792896120899854
 31
0.0
  0
LINE
  8
SIZE
  6
CONTINUOUS
 62
    30
 10
336.22196576332902
 20
104.7928961208999
 30
0.0
 11
336.22196576332902
 21
281.9928961208999
 31
0.0
  0
CIRCLE
  8
SIZE
  6
CONTINUOUS
 62
    30
 10
336.22196576332902
 20
9.9999999999999432
 30
0.0
 40
6.0
  0
LINE
  8
SIZE
  6
CONTINUOUS
 62
    30
 10
336.22196576332902
 20
9.9999999999999432
 30
0.0
 11
336.22196576332902
 21
21.999999999999911
 31
0.0
  0
CIRCLE
  8
SIZE
  6
CONTINUOUS
 62
    30
 10
336.22196576332902
 20
104.7928961208999
 30
0.0
 40
6.0
  0
LINE
  8
SIZE
  6
CONTINUOUS
 62
    30
 10
336.22196576332902
 20
104.7928961208999
 30
0.0
 11
336.22196576332902
 21
92.792896120899854
 31
0.0
  0
TEXT
  8
SIZE
  6
CONTINUOUS
 62
    30
 10
311.22196576332902
 20
163.735753263757
 30
0.0
 40
64.0
  1
95
 50
90.0
 41
0.9
 72
     1
 11
311.22196576332902
 21
210.36432469232849
 31
0.0
  0
LINE
  8
SIZE
  6
CONTINUOUS
 62
    30
 10
109.5517112252119
 20
10.0
 30
0.0
 11
356.22196576332908
 21
9.999999999999913
 31
0.0
  0
LINE
  8
SIZE
  6
CONTINUOUS
 62
    30
 10
109.5517112252119
 20
0.0
 30
0.0
 11
356.22196576332908
 21
-0.0000000000000853
 31
0.0
  0
LINE
  8
SIZE
  6
CONTINUOUS
 62
    30
 10
336.22196576332902
 20
21.999999999999911
 30
0.0
 11
336.22196576332902
 21
33.99999999999995
 31
0.0
  0
LINE
  8
SIZE
  6
CONTINUOUS
 62
    30
 10
336.22196576332902
 20
-12.00000000000006
 30
0.0
 11
336.22196576332902
 21
-183.97450809477951
 31
0.0
  0
LINE
  8
SIZE
  6
CONTINUOUS
 62
    30
 10
336.22196576332902
 20
9.9999999999999432
 30
0.0
 11
336.22196576332902
 21
-0.0000000000000568
 31
0.0
  0
CIRCLE
  8
SIZE
  6
CONTINUOUS
 62
    30
 10
336.22196576332902
 20
9.9999999999999432
 30
0.0
 40
6.0
  0
LINE
  8
SIZE
  6
CONTINUOUS
 62
    30
 10
336.22196576332902
 20
9.9999999999999432
 30
0.0
 11
336.22196576332902
 21
21.999999999999911
 31
0.0
  0
CIRCLE
  8
SIZE
  6
CONTINUOUS
 62
    30
 10
336.22196576332902
 20
-0.0000000000000568
 30
0.0
 40
6.0
  0
LINE
  8
SIZE
  6
CONTINUOUS
 62
    30
 10
336.22196576332902
 20
-0.0000000000000568
 30
0.0
 11
336.22196576332902
 21
-12.00000000000006
 31
0.0
  0
TEXT
  8
SIZE
  6
CONTINUOUS
 62
    30
 10
311.22196576332902
 20
-158.9745080947794
 30
0.0
 40
64.0
  1
10
 50
90.0
 41
0.9
 72
     1
 11
311.22196576332902
 21
-117.8316509519223
 31
0.0
  0
LINE
  8
SIZE
  6
CONTINUOUS
 62
    30
 10
28.06229914986557
 20
6.0000000000003686
 30
0.0
 11
234.3377652851382
 21
6.0000000000003126
 31
0.0
  0
LINE
  8
SIZE
  6
CONTINUOUS
 62
    30
 10
109.5517112252119
 20
0.0
 30
0.0
 11
234.3377652851382
 21
-0.0000000000000284
 31
0.0
  0
LINE
  8
SIZE
  6
CONTINUOUS
 62
    30
 10
214.3377652851382
 20
18.000000000000341
 30
0.0
 11
214.3377652851382
 21
30.000000000000341
 31
0.0
  0
LINE
  8
SIZE
  6
CONTINUOUS
 62
    30
 10
214.3377652851382
 20
-12.00000000000003
 30
0.0
 11
214.33776528513809
 21
-141.56564785000009
 31
0.0
  0
LINE
  8
SIZE
  6
CONTINUOUS
 62
    30
 10
214.3377652851382
 20
6.0000000000003126
 30
0.0
 11
214.3377652851382
 21
-0.0000000000000284
 31
0.0
  0
CIRCLE
  8
SIZE
  6
CONTINUOUS
 62
    30
 10
214.3377652851382
 20
6.0000000000003126
 30
0.0
 40
6.0
  0
LINE
  8
SIZE
  6
CONTINUOUS
 62
    30
 10
214.3377652851382
 20
6.0000000000003126
 30
0.0
 11
214.3377652851382
 21
18.000000000000341
 31
0.0
  0
CIRCLE
  8
SIZE
  6
CONTINUOUS
 62
    30
 10
214.3377652851382
 20
-0.0000000000000284
 30
0.0
 40
6.0
  0
LINE
  8
SIZE
  6
CONTINUOUS
 62
    30
 10
214.3377652851382
 20
-0.0000000000000284
 30
0.0
 11
214.3377652851382
 21
-12.00000000000003
 31
0.0
  0
TEXT
  8
SIZE
  6
CONTINUOUS
 62
    30
 10
189.3377652851382
 20
-116.5656478500001
 30
0.0
 40
64.0
  1
6
 50
90.0
 41
0.9
 72
     1
 11
189.3377652851382
 21
-98.73707642142864
 31
0.0
  0
LINE
  8
SIZE
  6
CONTINUOUS
 62
    30
 10
-20.406980962574039
 20
-104.7928961208497
 30
0.0
 11
-139.0925739172508
 21
-104.7928961208497
 31
0.0
  0
LINE
  8
SIZE
  6
CONTINUOUS
 62
    30
 10
-35.4912737967814
 20
-109.8085752160782
 30
0.0
 11
-139.0925739172508
 21
-109.8085752160782
 31
0.0
  0
LINE
  8
SIZE
  6
CONTINUOUS
 62
    30
 10
-119.0925739172508
 20
-92.79289612084969
 30
0.0
 11
-119.0925739172508
 21
-80.792896120849662
 31
0.0
  0
LINE
  8
SIZE
  6
CONTINUOUS
 62
    30
 10
-119.0925739172508
 20
-121.8085752160782
 30
0.0
 11
-119.0925739172508
 21
-222.2085752160782
 31
0.0
  0
LINE
  8
SIZE
  6
CONTINUOUS
 62
    30
 10
-119.0925739172508
 20
-104.7928961208497
 30
0.0
 11
-119.0925739172508
 21
-109.8085752160782
 31
0.0
  0
CIRCLE
  8
SIZE
  6
CONTINUOUS
 62
    30
 10
-119.0925739172508
 20
-104.7928961208497
 30
0.0
 40
6.0
  0
LINE
  8
SIZE
  6
CONTINUOUS
 62
    30
 10
-119.0925739172508
 20
-104.7928961208497
 30
0.0
 11
-119.0925739172508
 21
-92.792896120849718
 31
0.0
  0
CIRCLE
  8
SIZE
  6
CONTINUOUS
 62
    30
 10
-119.0925739172508
 20
-109.8085752160782
 30
0.0
 40
6.0
  0
LINE
  8
SIZE
  6
CONTINUOUS
 62
    30
 10
-119.0925739172508
 20
-109.8085752160782
 30
0.0
 11
-119.0925739172508
 21
-121.8085752160782
 31
0.0
  0
TEXT
  8
SIZE
  6
CONTINUOUS
 62
    30
 10
-144.0925739172508
 20
-197.2085752160782
 30
0.0
 40
64.0
  1
5
 50
90.0
 41
0.9
 72
     1
 11
-144.0925739172508
 21
-178.00857521607821
 31
0.0
  0
TEXT
  8
NOTE
  6
CONTINUOUS
 62
     4
 10
107.6499595887439
 20
188.28302090234371
 30
0.0
 40
64.0
  1
EL
 41
0.9
  0
TEXT
  8
NOTE
  6
CONTINUOUS
 62
     4
 10
113.8732770713986
 20
-255.0759078530667
 30
0.0
 40
64.0
  1
2-φ4×10
 41
0.9
  0
LINE
  8
NOTE
  6
CONTINUOUS
 62
     4
 10
4.5056605286165166
 20
108.6689040128721
 30
0.0
 11
0.0
 21
104.39295704280021
 31
0.0
  0
LINE
  8
NOTE
  6
CONTINUOUS
 62
     4
 10
0.0
 20
104.39295704280021
 30
0.0
 11
6.0399921490826216
 21
105.84319637788261
 31
0.0
  0
LINE
  8
NOTE
  6
CONTINUOUS
 62
     4
 10
0.0
 20
104.39295704280021
 30
0.0
 11
10.54565267769914
 21
110.11914334795451
 31
0.0
  0
LINE
  8
NOTE
  6
CONTINUOUS
 62
     4
 10
10.54565267769914
 20
110.11914334795451
 30
0.0
 11
95.649959588743911
 21
156.28302090234371
 31
0.0
  0
LINE
  8
NOTE
  6
CONTINUOUS
 62
     4
 10
95.649959588743911
 20
156.28302090234371
 30
0.0
 11
192.67853101731529
 21
156.28302090234371
 31
0.0
  0
LINE
  8
NOTE
  6
CONTINUOUS
 62
     4
 10
0.402497593120188
 20
-0.1986042765712739
 30
0.0
 11
-0.0000000000000284
 21
6.0000000000003686
 31
0.0
  0
LINE
  8
NOTE
  6
CONTINUOUS
 62
     4
 10
-0.0000000000000284
 20
6.0000000000003686
 30
0.0
 11
3.447883065113643
 21
0.8331052208024801
 31
0.0
  0
LINE
  8
NOTE
  6
CONTINUOUS
 62
     4
 10
-0.0000000000000284
 20
6.0000000000003686
 30
0.0
 11
3.8503806582338602
 21
-5.3654990557691633
 31
0.0
  0
LINE
  8
NOTE
  6
CONTINUOUS
 62
     4
 10
3.8503806582338602
 20
-5.3654990557691633
 30
0.0
 11
104.18120716424519
 21
-300.6745714054108
 31
0.0
  0
LINE
  8
NOTE
  6
CONTINUOUS
 62
     4
 10
104.18120716424519
 20
-300.6745714054108
 30
0.0
 11
508.95835002138801
 21
-300.6745714054108
 31
0.0
  0
LINE
  8
SIZE
  6
CONTINUOUS
 62
    30
 10
69.899999999999977
 20
50.249927635200052
 30
0.0
 11
69.899999999999977
 21
435.41205436948121
 31
0.0
  0
LINE
  8
SIZE
  6
CONTINUOUS
 62
    30
 10
0.0
 20
189.11335571462811
 30
0.0
 11
0.0000000000000284
 21
435.41205436948121
 31
0.0
  0
LINE
  8
SIZE
  6
CONTINUOUS
 62
    30
 10
-12.0
 20
415.41205436948121
 30
0.0
 11
-24.0
 21
415.41205436948121
 31
0.0
  0
LINE
  8
SIZE
  6
CONTINUOUS
 62
    30
 10
81.899999999999977
 20
415.41205436948121
 30
0.0
 11
276.92857142857127
 21
415.41205436948121
 31
0.0
  0
LINE
  8
SIZE
  6
CONTINUOUS
 62
    30
 10
0.0000000000000284
 20
415.41205436948121
 30
0.0
 11
69.899999999999977
 21
415.41205436948121
 31
0.0
  0
CIRCLE
  8
SIZE
  6
CONTINUOUS
 62
    30
 10
0.0000000000000284
 20
415.41205436948121
 30
0.0
 40
6.0
  0
LINE
  8
SIZE
  6
CONTINUOUS
 62
    30
 10
0.0000000000000284
 20
415.41205436948121
 30
0.0
 11
-11.99999999999997
 21
415.41205436948121
 31
0.0
  0
CIRCLE
  8
SIZE
  6
CONTINUOUS
 62
    30
 10
69.899999999999977
 20
415.41205436948121
 30
0.0
 40
6.0
  0
LINE
  8
SIZE
  6
CONTINUOUS
 62
    30
 10
69.899999999999977
 20
415.41205436948121
 30
0.0
 11
81.899999999999977
 21
415.41205436948121
 31
0.0
  0
TEXT
  8
SIZE
  6
CONTINUOUS
 62
    30
 10
158.67142857142861
 20
440.41205436948121
 30
0.0
 40
64.0
  1
70
 41
0.9
 72
     1
 11
205.30000000000001
 21
440.41205436948121
 31
0.0
  0
LINE
  8
SIZE
  6
CONTINUOUS
 62
    30
 10
20.0
 20
81.11144705410014
 30
0.0
 11
651.94490083458231
 21
81.11144705410004
 31
0.0
  0
LINE
  8
SIZE
  6
CONTINUOUS
 62
    30
 10
20.0
 20
-58.961447054149232
 30
0.0
 11
651.94490083458231
 21
-58.961447054149403
 31
0.0
  0
LINE
  8
SIZE
  6
CONTINUOUS
 62
    30
 10
631.94490083458231
 20
-46.961447054149403
 30
0.0
 11
631.94490083458231
 21
69.11144705410004
 31
0.0
  0
LINE
  8
SIZE
  6
CONTINUOUS
 62
    30
 10
631.94490083458231
 20
81.11144705410004
 30
0.0
 11
631.94490083458231
 21
340.59716133981431
 31
0.0
  0
CIRCLE
  8
SIZE
  6
CONTINUOUS
 62
    30
 10
631.94490083458231
 20
-58.961447054149403
 30
0.0
 40
6.0
  0
LINE
  8
SIZE
  6
CONTINUOUS
 62
    30
 10
631.94490083458231
 20
-58.961447054149403
 30
0.0
 11
631.94490083458231
 21
-46.961447054149403
 31
0.0
  0
CIRCLE
  8
SIZE
  6
CONTINUOUS
 62
    30
 10
631.94490083458231
 20
81.11144705410004
 30
0.0
 40
6.0
  0
LINE
  8
SIZE
  6
CONTINUOUS
 62
    30
 10
631.94490083458231
 20
81.11144705410004
 30
0.0
 11
631.94490083458231
 21
69.11144705410004
 31
0.0
  0
TEXT
  8
SIZE
  6
CONTINUOUS
 62
    30
 10
596.27823416791568
 20
107.9628756255287
 30
0.0
 40
64.0
  1
φ140
 50
90.0
 41
0.9
 72
     1
 11
596.27823416791568
 21
216.85430419695729
 31
0.0
  0
LINE
  8
SIZE
  6
CONTINUOUS
 62
    30
 10
87.300000000000054
 20
32.850000000000144
 30
0.0
 11
518.28708941524485
 21
32.850000000000023
 31
0.0
  0
LINE
  8
SIZE
  6
CONTINUOUS
 62
    30
 10
87.300000000000054
 20
-12.850000000000019
 30
0.0
 11
518.28708941524485
 21
-12.85000000000016
 31
0.0
  0
LINE
  8
SIZE
  6
CONTINUOUS
 62
    30
 10
498.28708941524468
 20
-24.85000000000014
 30
0.0
 11
498.28708941524468
 21
-36.850000000000151
 31
0.0
  0
LINE
  8
SIZE
  6
CONTINUOUS
 62
    30
 10
498.28708941524468
 20
44.850000000000023
 30
0.0
 11
498.28708941524479
 21
291.01337804132231
 31
0.0
  0
LINE
  8
SIZE
  6
CONTINUOUS
 62
    30
 10
498.28708941524468
 20
-12.85000000000014
 30
0.0
 11
498.28708941524468
 21
32.850000000000023
 31
0.0
  0
CIRCLE
  8
SIZE
  6
CONTINUOUS
 62
    30
 10
498.28708941524468
 20
-12.85000000000014
 30
0.0
 40
6.0
  0
LINE
  8
SIZE
  6
CONTINUOUS
 62
    30
 10
498.28708941524468
 20
-12.85000000000014
 30
0.0
 11
498.28708941524468
 21
-24.85000000000014
 31
0.0
  0
CIRCLE
  8
SIZE
  6
CONTINUOUS
 62
    30
 10
498.28708941524468
 20
32.850000000000023
 30
0.0
 40
6.0
  0
LINE
  8
SIZE
  6
CONTINUOUS
 62
    30
 10
498.28708941524468
 20
32.850000000000023
 30
0.0
 11
498.28708941524468
 21
44.850000000000023
 31
0.0
  0
TEXT
  8
SIZE
  6
CONTINUOUS
 62
    30
 10
462.62042274857811
 20
105.00766375560811
 30
0.0
 40
64.0
  1
φ46
 50
90.0
 41
0.9
 72
     1
 11
462.62042274857811
 21
190.58480661275101
 31
0.0
  0
LINE
  8
SIZE
  6
CONTINUOUS
 62
    30
 10
-20.40698096259996
 20
104.7928961209
 30
0.0
 11
-139.09257391725069
 21
104.7928961209
 31
0.0
  0
LINE
  8
SIZE
  6
CONTINUOUS
 62
    30
 10
-20.406980962575009
 20
-104.79289612086249
 30
0.0
 11
-139.0925739172508
 21
-104.79289612086249
 31
0.0
  0
LINE
  8
SIZE
  6
CONTINUOUS
 62
    30
 10
-119.0925739172507
 20
92.79289612089994
 30
0.0
 11
-119.0925739172508
 21
-92.792896120862451
 31
0.0
  0
CIRCLE
  8
SIZE
  6
CONTINUOUS
 62
    30
 10
-119.0925739172507
 20
104.7928961209
 30
0.0
 40
6.0
  0
LINE
  8
SIZE
  6
CONTINUOUS
 62
    30
 10
-119.0925739172507
 20
104.7928961209
 30
0.0
 11
-119.0925739172507
 21
92.79289612089994
 31
0.0
  0
CIRCLE
  8
SIZE
  6
CONTINUOUS
 62
    30
 10
-119.0925739172508
 20
-104.79289612086249
 30
0.0
 40
6.0
  0
LINE
  8
SIZE
  6
CONTINUOUS
 62
    30
 10
-119.0925739172508
 20
-104.79289612086249
 30
0.0
 11
-119.0925739172508
 21
-92.79289612086248
 31
0.0
  0
TEXT
  8
SIZE
  6
CONTINUOUS
 62
    30
 10
-144.09257391725069
 20
-105.0514285714098
 30
0.0
 40
64.0
  1
□210
 50
90.0
 41
0.9
 72
     1
 11
-144.09257391725069
 21
0.0000000000187867
 31
0.0
  0
LINE
  8
DETAIL
  6
CONTINUOUS
 62
     5
 10
-10.500000000000229
 20
159.99806422716321
 30
0.0
 11
-10.500000000000229
 21
144.99806422716321
 31
0.0
  0
LINE
  8
DETAIL
  6
CONTINUOUS
 62
     5
 10
5.4999999999997726
 20
157.11916178442809
 30
0.0
 11
5.4999999999997726
 21
147.87696666989839
 31
0.0
  0
LINE
  8
DETAIL
  6
CONTINUOUS
 62
     5
 10
3.624756572310162
 20
145.8808615129326
 30
0.0
 11
-10.500000000000229
 21
144.99806422716321
 31
0.0
  0
LINE
  8
DETAIL
  6
CONTINUOUS
 62
     5
 10
-10.500000000000229
 20
159.99806422716321
 30
0.0
 11
3.624756572310162
 21
159.11526694139391
 31
0.0
  0
LINE
  8
DETAIL
  6
CONTINUOUS
 62
     5
 10
-26.606613359164839
 20
155.6480642271633
 30
0.0
 11
-10.500000000000229
 21
155.6480642271633
 31
0.0
  0
LINE
  8
DETAIL
  6
CONTINUOUS
 62
     5
 10
-26.606613359164839
 20
149.34806422716309
 30
0.0
 11
-10.500000000000229
 21
149.34806422716309
 31
0.0
  0
CIRCLE
  8
DETAIL
  6
CONTINUOUS
 62
     5
 10
-22.200000000000049
 20
152.49806422716321
 30
0.0
 40
1.550000000000012
  0
CIRCLE
  8
DETAIL
  6
CONTINUOUS
 62
     5
 10
-22.200000000000049
 20
152.49806422716321
 30
0.0
 40
1.9499999999999851
  0
ARC
  8
DETAIL
  6
CONTINUOUS
 62
     5
 10
-21.500000000000231
 20
152.49806422716321
 30
0.0
 40
5.9999999999998641
 50
148.33175674645989
 51
211.66824325354011
  0
LINE
  8
DETAIL
  6
CONTINUOUS
 62
     5
 10
-26.606613359164839
 20
155.6480642271633
 30
0.0
 11
-26.606613359164839
 21
149.34806422716309
 31
0.0
  0
ARC
  8
DETAIL
  6
CONTINUOUS
 62
     5
 10
3.4999999999997731
 20
157.11916178442809
 30
0.0
 40
1.9999999999999929
 50
0.0
 51
86.423665625001817
  0
ARC
  8
DETAIL
  6
CONTINUOUS
 62
     5
 10
3.4999999999997731
 20
147.87696666989839
 30
0.0
 40
1.9999999999999929
 50
273.57633437499823
 51
0.0
  0
LINE
  8
DETAIL
  6
CONTINUOUS
 62
     5
 10
3.4999999999997731
 20
145.04853954515241
 30
0.0
 11
3.4999999999997731
 21
141.99806422716321
 31
0.0
  0
LINE
  8
DETAIL
  6
CONTINUOUS
 62
     5
 10
-6.5000000000002274
 20
144.18361300579571
 30
0.0
 11
-6.5000000000002274
 21
141.99806422716321
 31
0.0
  0
LINE
  8
DETAIL
  6
CONTINUOUS
 62
     5
 10
-4.0553752126877498
 20
124.9980642271632
 30
0.0
 11
1.0553752126872951
 21
124.9980642271632
 31
0.0
  0
LINE
  8
DETAIL
  6
CONTINUOUS
 62
     5
 10
-6.5000000000002274
 20
141.99806422716321
 30
0.0
 11
3.4999999999997731
 21
141.99806422716321
 31
0.0
  0
LINE
  8
DETAIL
  6
CONTINUOUS
 62
     5
 10
3.4999999999997731
 20
141.99806422716321
 30
0.0
 11
1.5519505148488411
 21
125.43964360337959
 31
0.0
  0
LINE
  8
DETAIL
  6
CONTINUOUS
 62
     5
 10
-6.5000000000002274
 20
141.99806422716321
 30
0.0
 11
-4.5519505148490689
 21
125.43964360337959
 31
0.0
  0
ARC
  8
DETAIL
  6
CONTINUOUS
 62
     5
 10
4.4999999999997726
 20
145.04853954515241
 30
0.0
 40
0.9999999999999176
 50
109.4712206344863
 51
180.0
  0
ARC
  8
DETAIL
  6
CONTINUOUS
 62
     5
 10
-7.5000000000002274
 20
144.18361300579571
 30
0.0
 40
1.0000000000000151
 50
0.0
 51
93.57633437499166
  0
ARC
  8
DETAIL
  6
CONTINUOUS
 62
     5
 10
1.0553752126872951
 20
125.4980642271632
 30
0.0
 40
0.5000000000000076
 50
270.0
 51
353.29016319224752
  0
ARC
  8
DETAIL
  6
CONTINUOUS
 62
     5
 10
-4.0553752126877498
 20
125.4980642271632
 30
0.0
 40
0.499999999999885
 50
186.70983680775919
 51
270.0
  0
LINE
  8
DETAIL
  6
CONTINUOUS
 62
     5
 10
-4.7352941176472996
 20
126.9980642271632
 30
0.0
 11
-1.5000000000002269
 21
126.9980642271632
 31
0.0
  0
LINE
  8
DETAIL
  6
CONTINUOUS
 62
     5
 10
-4.9117647058824332
 20
128.49806422716321
 30
0.0
 11
-1.5000000000002269
 21
128.49806422716321
 31
0.0
  0
LINE
  8
DETAIL
  6
CONTINUOUS
 62
     5
 10
-1.5000000000002269
 20
129.99806422716321
 30
0.0
 11
2.0882352941175668
 21
129.99806422716321
 31
0.0
  0
LINE
  8
DETAIL
  6
CONTINUOUS
 62
     5
 10
-1.5000000000002269
 20
131.49806422716321
 30
0.0
 11
2.2647058823527
 21
131.49806422716321
 31
0.0
  0
LINE
  8
DETAIL
  6
CONTINUOUS
 62
     5
 10
-5.4411764705882888
 20
132.99806422716321
 30
0.0
 11
-1.5000000000002269
 21
132.99806422716321
 31
0.0
  0
LINE
  8
DETAIL
  6
CONTINUOUS
 62
     5
 10
-5.6176470588237626
 20
134.49806422716321
 30
0.0
 11
-1.5000000000002269
 21
134.49806422716321
 31
0.0
  0
LINE
  8
DETAIL
  6
CONTINUOUS
 62
     5
 10
-1.5000000000002269
 20
135.99806422716321
 30
0.0
 11
2.794117647058783
 21
135.99806422716321
 31
0.0
  0
LINE
  8
DETAIL
  6
CONTINUOUS
 62
     5
 10
-1.5000000000002269
 20
137.49806422716321
 30
0.0
 11
2.970588235293917
 21
137.49806422716321
 31
0.0
  0
LINE
  8
DETAIL
  6
CONTINUOUS
 62
     5
 10
-6.1470588235295054
 20
138.99806422716321
 30
0.0
 11
-1.5000000000002269
 21
138.99806422716321
 31
0.0
  0
LINE
  8
DETAIL
  6
CONTINUOUS
 62
     5
 10
-6.3235294117648646
 20
140.49806422716321
 30
0.0
 11
-1.5000000000002269
 21
140.49806422716321
 31
0.0
  0
LINE
  8
DETAIL
  6
CONTINUOUS
 62
     5
 10
-0.5000000000002274
 20
137.49806422716321
 30
0.0
 11
-0.5000000000002274
 21
135.99806422716321
 31
0.0
  0
LINE
  8
DETAIL
  6
CONTINUOUS
 62
     5
 10
-2.5000000000002269
 20
140.49806422716321
 30
0.0
 11
-2.5000000000002269
 21
138.99806422716321
 31
0.0
  0
LINE
  8
DETAIL
  6
CONTINUOUS
 62
     5
 10
-0.5000000000002274
 20
131.49806422716321
 30
0.0
 11
-0.5000000000002274
 21
129.99806422716321
 31
0.0
  0
LINE
  8
DETAIL
  6
CONTINUOUS
 62
     5
 10
-2.5000000000002269
 20
128.49806422716321
 30
0.0
 11
-2.5000000000002269
 21
126.9980642271632
 31
0.0
  0
LINE
  8
DETAIL
  6
CONTINUOUS
 62
     5
 10
-2.5000000000002269
 20
134.49806422716321
 30
0.0
 11
-2.5000000000002269
 21
132.99806422716321
 31
0.0
  0
LINE
  8
DETAIL
  6
CONTINUOUS
 62
     5
 10
-10.500000000000229
 20
147.99806422716321
 30
0.0
 11
0.4999999999997726
 21
147.99806422716321
 31
0.0
  0
LINE
  8
DETAIL
  6
CONTINUOUS
 62
     5
 10
-10.500000000000229
 20
156.99806422716321
 30
0.0
 11
0.4999999999997726
 21
156.99806422716321
 31
0.0
  0
LINE
  8
DETAIL
  6
CONTINUOUS
 62
     5
 10
0.4999999999997726
 20
156.99806422716321
 30
0.0
 11
0.4999999999997726
 21
147.99806422716321
 31
0.0
  0
LINE
  8
DETAIL
  6
CONTINUOUS
 62
     5
 10
-0.0000000000002274
 20
124.9980642271632
 30
0.0
 11
-0.0000000000001137
 21
115.1853401992407
 31
0.0
  0
ARC
  8
DETAIL
  6
CONTINUOUS
 62
     5
 10
-1.5000000000002269
 20
139.74806422716321
 30
0.0
 40
0.7499999999999927
 50
270.0
 51
90.0
  0
ARC
  8
DETAIL
  6
CONTINUOUS
 62
     5
 10
-1.5000000000002269
 20
136.74806422716321
 30
0.0
 40
0.7499999999999927
 50
90.0
 51
270.0
  0
ARC
  8
DETAIL
  6
CONTINUOUS
 62
     5
 10
-1.5000000000002269
 20
133.74806422716321
 30
0.0
 40
0.7499999999999927
 50
270.0
 51
90.0
  0
ARC
  8
DETAIL
  6
CONTINUOUS
 62
     5
 10
-1.5000000000002269
 20
130.74806422716321
 30
0.0
 40
0.7499999999999927
 50
90.0
 51
270.0
  0
ARC
  8
DETAIL
  6
CONTINUOUS
 62
     5
 10
-1.5000000000002269
 20
127.7480642271632
 30
0.0
 40
0.7499999999999927
 50
270.0
 51
90.0
  0
LINE
  8
DETAIL
  6
CONTINUOUS
 62
     5
 10
-2.7000000000001592
 20
124.9980642271632
 30
0.0
 11
-2.7000000000001592
 21
115.1853401992423
 31
0.0
  0
ARC
  8
DETAIL
  6
CONTINUOUS
 62
     5
 10
-0.675000000000864
 20
112.02260590220089
 30
0.0
 40
1.349999999999973
 50
59.999999999962299
 51
119.9999999999626
  0
ARC
  8
DETAIL
  6
CONTINUOUS
 62
     5
 10
-2.0250000000007731
 20
112.0226059022018
 30
0.0
 40
1.349999999999973
 50
59.999999999962299
 51
119.9999999999626
  0
ARC
  8
DETAIL
  6
CONTINUOUS
 62
     5
 10
-2.0249999999994088
 20
114.3608744924197
 30
0.0
 40
1.350000000000003
 50
239.99999999996959
 51
299.99999999996243
  0
ARC
  8
DETAIL
  6
CONTINUOUS
 62
     5
 10
-0.675000000000864
 20
114.01620590413221
 30
0.0
 40
1.349999999999955
 50
59.99999999996956
 51
119.9999999999698
  0
ARC
  8
DETAIL
  6
CONTINUOUS
 62
     5
 10
-0.6749999999993861
 20
116.3544744943504
 30
0.0
 40
1.3500000000000349
 50
239.99999999996959
 51
299.99999999996243
  0
ARC
  8
DETAIL
  6
CONTINUOUS
 62
     5
 10
-2.024999999999523
 20
116.3544744943508
 30
0.0
 40
1.350000000000015
 50
239.99999999996959
 51
299.99999999996243
  0
LINE
  8
DETAIL
  6
CONTINUOUS
 62
     5
 10
-2.7000000000001592
 20
113.1917401973112
 30
0.0
 11
-2.700000000000045
 21
104.7528713247182
 31
0.0
  0
LINE
  8
DETAIL
  6
CONTINUOUS
 62
     5
 10
-0.0000000000001137
 20
113.1917401973096
 30
0.0
 11
0.0
 21
104.39294601100001
 31
0.0
  0
CIRCLE
  8
FIX
  6
CONTINUOUS
 62
    11
 10
-0.0000000000000284
 20
6.0000000000003686
 30
0.0
 40
5.0
  0
CIRCLE
  8
ARRANGE
  6
CONTINUOUS
 62
     1
 10
0.0
 20
0.0
 30
0.0
 40
40.0
  0
POINT
  8
ARRANGE
  6
CONTINUOUS
 62
     1
 10
0.0
 20
0.0
 30
0.0
  0
ARC
  8
DETAIL
  6
CONTINUOUS
 62
     5
 10
9942.0000000000073
 20
20.0
 30
0.0
 40
9996.5
 50
180.54737459891021
 51
180.70994416221481
  0
ARC
  8
DETAIL
  6
CONTINUOUS
 62
     5
 10
9942.0000000000073
 20
20.0
 30
0.0
 40
9996.1000000000004
 50
180.54281084488511
 51
180.5473965031037
  0
ARC
  8
DETAIL
  6
CONTINUOUS
 62
     5
 10
9942.0000000000073
 20
20.0
 30
0.0
 40
9996.5
 50
179.525475647001
 51
180.54278912419991
  0
ARC
  8
DETAIL
  6
CONTINUOUS
 62
     5
 10
9942.0000000000073
 20
20.0
 30
0.0
 40
10000.0
 50
180.54718301197411
 51
180.70378381256029
  0
ARC
  8
DETAIL
  6
CONTINUOUS
 62
     5
 10
9942.0000000000073
 20
20.0
 30
0.0
 40
9999.6000000000004
 50
180.5426208478068
 51
180.54720490083599
  0
LINE
  8
DETAIL
  6
CONTINUOUS
 62
     5
 10
-57.543977102154713
 20
-75.500000000000213
 30
0.0
 11
0.0
 21
-75.500000000000213
 31
0.0
  0
LINE
  8
DETAIL
  6
CONTINUOUS
 62
     5
 10
0.0
 20
-74.700000000000031
 30
0.0
 11
-57.551585446218269
 21
-74.700000000000031
 31
0.0
  0
ARC
  8
DETAIL
  6
CONTINUOUS
 62
     5
 10
-0.4000000000005457
 20
104.39295044789991
 30
0.0
 40
0.4000000000000025
 50
0.000944653992177
 51
90.999983514602349
  0
ARC
  8
DETAIL
  6
CONTINUOUS
 62
     5
 10
-0.4000000000005457
 20
-104.39295704280001
 30
0.0
 40
0.4000000000000225
 50
268.99999999998522
 51
0.0
  0
LINE
  8
DETAIL
  6
CONTINUOUS
 62
     5
 10
-15.0
 20
-108.3000000000002
 30
0.0
 11
-15.0
 21
-104.9771574629001
 31
0.0
  0
LINE
  8
DETAIL
  6
CONTINUOUS
 62
     5
 10
-14.80284451340049
 20
-108.3034413618001
 30
0.0
 11
-15.0
 21
-108.3000000000002
 31
0.0
  0
ARC
  8
DETAIL
  6
CONTINUOUS
 62
     5
 10
-14.8100000000004
 20
-108.7133789169001
 30
0.0
 40
0.410000000000075
 50
0.0
 51
88.999999999985207
  0
LINE
  8
DETAIL
  6
CONTINUOUS
 62
     5
 10
-14.39999999999964
 20
-108.8866210832001
 30
0.0
 11
-14.39999999999964
 21
-108.7133789169001
 31
0.0
  0
ARC
  8
DETAIL
  6
CONTINUOUS
 62
     5
 10
-14.8100000000004
 20
-108.8866210832001
 30
0.0
 40
0.4099999999999726
 50
271.00000000001478
 51
0.0
  0
LINE
  8
DETAIL
  6
CONTINUOUS
 62
     5
 10
-14.80284451340049
 20
-109.2965586382001
 30
0.0
 11
-15.0
 21
-109.3000000000002
 31
0.0
  0
ARC
  8
DETAIL
  6
CONTINUOUS
 62
     5
 10
-15.5
 20
-109.30865136849999
 30
0.0
 40
0.5000000000000026
 50
271.00000000000182
 51
0.0
  0
LINE
  8
DETAIL
  6
CONTINUOUS
 62
     5
 10
-15.49127379680067
 20
-109.80857521599999
 30
0.0
 11
-16.5
 21
-109.82618259740011
 31
0.0
  0
ARC
  8
DETAIL
  6
CONTINUOUS
 62
     5
 10
-16.5
 20
-109.32618259740011
 30
0.0
 40
0.49999999999999
 50
180.0
 51
270.0
  0
LINE
  8
DETAIL
  6
CONTINUOUS
 62
     5
 10
-17.0
 20
-104.9946125278002
 30
0.0
 11
-17.0
 21
-109.32618259740011
 31
0.0
  0
ARC
  8
DETAIL
  6
CONTINUOUS
 62
     5
 10
-17.5
 20
-104.9946125278002
 30
0.0
 40
0.5000000000000076
 50
0.0
 51
88.999999999998238
  0
ARC
  8
DETAIL
  6
CONTINUOUS
 62
     5
 10
-56.245682133299852
 20
-102.8180756384002
 30
0.0
 40
1.000000000000077
 50
180.70378381259931
 51
268.99999999999818
  0
ARC
  8
DETAIL
  6
CONTINUOUS
 62
     5
 10
-56.657077613900128
 20
102.8108947034999
 30
0.0
 40
1.00000000000002
 50
90.999999977994875
 51
179.52547568350221
  0
LINE
  8
DETAIL
  6
CONTINUOUS
 62
     5
 10
-56.674530019799931
 20
103.8107423986999
 30
0.0
 11
-0.4069809626007554
 21
104.7928961208997
 31
0.0
  0
LINE
  8
DETAIL
  6
CONTINUOUS
 62
     5
 10
-56.263134539699877
 20
-103.81792333360021
 30
0.0
 11
-0.4069809625743801
 21
-104.7928961208499
 31
0.0
  0
ARC
  8
DETAIL
  6
CONTINUOUS
 62
     5
 10
-14.5
 20
-104.9771574629001
 30
0.0
 40
0.5000000000005225
 50
119.64063976460641
 51
180.0
  0
ARC
  8
DETAIL
  6
CONTINUOUS
 62
     5
 10
9942.0000000000073
 20
20.0
 30
0.0
 40
10000.0
 50
179.525475647001
 51
180.54259914232611
  0
LINE
  8
DETAIL
  6
CONTINUOUS
 62
     5
 10
0.0
 20
104.39295704279991
 30
0.0
 11
0.0
 21
-104.39295704280001
 31
0.0
  0
LINE
  8
DETAIL
  6
CONTINUOUS
 62
     5
 10
57.699999999999818
 20
80.607906782564669
 30
0.0
 11
0.0
 21
81.11144705409987
 31
0.0
  0
LINE
  8
DETAIL
  6
CONTINUOUS
 62
     5
 10
57.699999999999818
 20
-58.457906782665553
 30
0.0
 11
0.0
 21
-58.961447054149232
 31
0.0
  0
ARC
  8
DETAIL
  6
CONTINUOUS
 62
     5
 10
67.300000000000182
 20
-10.25000000000011
 30
0.0
 40
2.6000000000000152
 50
270.0
 51
0.0
  0
LINE
  8
DETAIL
  6
CONTINUOUS
 62
     5
 10
69.900000000000546
 20
-10.25000000000011
 30
0.0
 11
69.900000000000546
 21
30.249927635199811
 31
0.0
  0
ARC
  8
DETAIL
  6
CONTINUOUS
 62
     5
 10
67.300000000000182
 20
30.24999999999989
 30
0.0
 40
2.5999999999999091
 50
0.0
 51
90.0
  0
LINE
  8
DETAIL
  6
CONTINUOUS
 62
     5
 10
67.300000000000182
 20
32.849999999999909
 30
0.0
 11
57.699999999999818
 21
32.849999999999909
 31
0.0
  0
LINE
  8
DETAIL
  6
CONTINUOUS
 62
     5
 10
67.300000000000182
 20
-12.85000000000014
 30
0.0
 11
57.699999999999818
 21
-12.85000000000014
 31
0.0
  0
LINE
  8
DETAIL
  6
CONTINUOUS
 62
     5
 10
57.699999999999818
 20
-58.457906782665553
 30
0.0
 11
57.699999999999818
 21
80.607906782564669
 31
0.0
  0
ARC
  8
OUTLINE
  6
CONTINUOUS
 62
     3
 10
9942.0000000000073
 20
20.0
 30
0.0
 40
10000.0
 50
180.54718301197411
 51
180.70378381256029
  0
ARC
  8
OUTLINE
  6
CONTINUOUS
 62
     3
 10
9942.0000000000073
 20
20.0
 30
0.0
 40
9999.6000000000004
 50
180.54262084780359
 51
180.54720490083599
  0
ARC
  8
OUTLINE
  6
CONTINUOUS
 62
     3
 10
-0.4000000000005457
 20
104.39295044789991
 30
0.0
 40
0.4000000000000025
 50
0.000944653992177
 51
90.999983514602349
  0
ARC
  8
OUTLINE
  6
CONTINUOUS
 62
     3
 10
-0.4000000000005457
 20
-104.39295704280001
 30
0.0
 40
0.4000000000000225
 50
268.99999999998522
 51
0.0
  0
ARC
  8
OUTLINE
  6
CONTINUOUS
 62
     3
 10
-56.245682133299852
 20
-102.8180756384002
 30
0.0
 40
1.000000000000077
 50
180.70378381259931
 51
268.99999999999818
  0
ARC
  8
OUTLINE
  6
CONTINUOUS
 62
     3
 10
-56.657077613900128
 20
102.8108947034999
 30
0.0
 40
1.00000000000002
 50
90.999999977994875
 51
179.52547568350221
  0
LINE
  8
OUTLINE
  6
CONTINUOUS
 62
     3
 10
-56.674530019799931
 20
103.8107423986999
 30
0.0
 11
-0.4069809626007554
 21
104.7928961208997
 31
0.0
  0
LINE
  8
OUTLINE
  6
CONTINUOUS
 62
     3
 10
-56.263134539699877
 20
-103.81792333360021
 30
0.0
 11
-0.4069809625743801
 21
-104.7928961208499
 31
0.0
  0
ARC
  8
OUTLINE
  6
CONTINUOUS
 62
     3
 10
9942.0000000000073
 20
20.0
 30
0.0
 40
10000.0
 50
179.52547564700421
 51
180.5425991423229
  0
LINE
  8
OUTLINE
  6
CONTINUOUS
 62
     3
 10
0.0
 20
104.39295704279991
 30
0.0
 11
0.0
 21
-104.39295704280001
 31
0.0
  0
LINE
  8
OUTLINE
  6
CONTINUOUS
 62
     3
 10
57.699999999999818
 20
80.607906782564669
 30
0.0
 11
0.0
 21
81.11144705409987
 31
0.0
  0
LINE
  8
OUTLINE
  6
CONTINUOUS
 62
     3
 10
57.699999999999818
 20
-58.457906782665553
 30
0.0
 11
0.0
 21
-58.961447054149232
 31
0.0
  0
ARC
  8
OUTLINE
  6
CONTINUOUS
 62
     3
 10
67.300000000000182
 20
-10.25000000000011
 30
0.0
 40
2.6000000000000152
 50
270.0
 51
0.0
  0
LINE
  8
OUTLINE
  6
CONTINUOUS
 62
     3
 10
69.900000000000546
 20
-10.25000000000011
 30
0.0
 11
69.900000000000546
 21
30.249927635199811
 31
0.0
  0
ARC
  8
OUTLINE
  6
CONTINUOUS
 62
     3
 10
67.300000000000182
 20
30.24999999999989
 30
0.0
 40
2.5999999999999091
 50
0.0
 51
90.0
  0
LINE
  8
OUTLINE
  6
CONTINUOUS
 62
     3
 10
67.300000000000182
 20
32.849999999999909
 30
0.0
 11
57.699999999999818
 21
32.849999999999909
 31
0.0
  0
LINE
  8
OUTLINE
  6
CONTINUOUS
 62
     3
 10
67.300000000000182
 20
-12.85000000000014
 30
0.0
 11
57.699999999999818
 21
-12.85000000000014
 31
0.0
  0
LINE
  8
OUTLINE
  6
CONTINUOUS
 62
     3
 10
57.699999999999818
 20
-58.457906782665553
 30
0.0
 11
57.699999999999818
 21
80.607906782564669
 31
0.0
  0
LINE
  8
OUTLINE
  6
CONTINUOUS
 62
     3
 10
0.0
 20
-2.0000000000001141
 30
0.0
 11
0.0
 21
13.99999999999989
 31
0.0
  0
LINE
  8
OUTLINE
  6
CONTINUOUS
 62
     3
 10
-15.0
 20
-108.3000000000002
 30
0.0
 11
-15.0
 21
-104.9771574629001
 31
0.0
  0
LINE
  8
OUTLINE
  6
CONTINUOUS
 62
     3
 10
-14.80284451340049
 20
-108.3034413618001
 30
0.0
 11
-15.0
 21
-108.3000000000002
 31
0.0
  0
ARC
  8
OUTLINE
  6
CONTINUOUS
 62
     3
 10
-14.8100000000004
 20
-108.7133789169001
 30
0.0
 40
0.410000000000075
 50
0.0
 51
88.999999999985207
  0
LINE
  8
OUTLINE
  6
CONTINUOUS
 62
     3
 10
-14.39999999999964
 20
-108.8866210832001
 30
0.0
 11
-14.39999999999964
 21
-108.7133789169001
 31
0.0
  0
ARC
  8
OUTLINE
  6
CONTINUOUS
 62
     3
 10
-14.8100000000004
 20
-108.8866210832001
 30
0.0
 40
0.4099999999999726
 50
271.00000000001478
 51
0.0
  0
LINE
  8
OUTLINE
  6
CONTINUOUS
 62
     3
 10
-14.80284451340049
 20
-109.2965586382001
 30
0.0
 11
-15.0
 21
-109.3000000000002
 31
0.0
  0
ARC
  8
OUTLINE
  6
CONTINUOUS
 62
     3
 10
-15.5
 20
-109.30865136849999
 30
0.0
 40
0.5000000000000026
 50
271.00000000000182
 51
0.0
  0
LINE
  8
OUTLINE
  6
CONTINUOUS
 62
     3
 10
-15.49127379680067
 20
-109.80857521599999
 30
0.0
 11
-16.5
 21
-109.82618259740011
 31
0.0
  0
ARC
  8
OUTLINE
  6
CONTINUOUS
 62
     3
 10
-16.5
 20
-109.32618259740011
 30
0.0
 40
0.49999999999999
 50
180.0
 51
270.0
  0
LINE
  8
OUTLINE
  6
CONTINUOUS
 62
     3
 10
-17.0
 20
-104.9946125278002
 30
0.0
 11
-17.0
 21
-109.32618259740011
 31
0.0
  0
ARC
  8
OUTLINE
  6
CONTINUOUS
 62
     3
 10
-17.5
 20
-104.9946125278002
 30
0.0
 40
0.5000000000000076
 50
0.0
 51
88.999999999998238
  0
ARC
  8
OUTLINE
  6
CONTINUOUS
 62
     3
 10
-14.5
 20
-104.9771574629001
 30
0.0
 40
0.5000000000005225
 50
119.64063976460641
 51
180.0
  0
ENDSEC
  0
EOF
