  0
SECTION
  2
HEADER
  9
$ACADVER
  1
AC1009
  9
$INSBASE
 10
0.0
 20
0.0
 30
0.0
  9
$EXTMIN
 10
-1026.9195395718791
 20
-397.65928999714021
 30
-0.0015257624927045
  9
$EXTMAX
 10
511.19385862396109
 20
385.16236129817838
 30
50.001525995323327
  9
$LIMMIN
 10
-2970.0
 20
-2100.0
  9
$LIMMAX
 10
2970.0
 20
2100.0
  9
$ORTHOMODE
 70
     1
  9
$REGENMODE
 70
     1
  9
$FILLMODE
 70
     1
  9
$QTEXTMODE
 70
     0
  9
$MIRRTEXT
 70
     0
  9
$DRAGMODE
 70
     2
  9
$LTSCALE
 40
20.0
  9
$OSMODE
 70
    47
  9
$ATTMODE
 70
     1
  9
$TEXTSIZE
 40
64.0
  9
$TRACEWID
 40
0.05
  9
$TEXTSTYLE
  7
STANDARD
  9
$CLAYER
  8
BASIS
  9
$CELTYPE
  6
DASHDOT
  9
$CECOLOR
 62
     6
  9
$DIMSCALE
 40
1.0
  9
$DIMASZ
 40
12.0
  9
$DIMEXO
 40
20.0
  9
$DIMDLI
 40
200.0
  9
$DIMRND
 40
0.0
  9
$DIMDLE
 40
0.0
  9
$DIMEXE
 40
20.0
  9
$DIMTP
 40
0.0
  9
$DIMTM
 40
0.0
  9
$DIMTXT
 40
64.0
  9
$DIMCEN
 40
0.09
  9
$DIMTSZ
 40
0.0
  9
$DIMTOL
 70
     0
  9
$DIMLIM
 70
     0
  9
$DIMTIH
 70
     0
  9
$DIMTOH
 70
     0
  9
$DIMSE1
 70
     0
  9
$DIMSE2
 70
     0
  9
$DIMTAD
 70
     1
  9
$DIMZIN
 70
     8
  9
$DIMBLK
  1
DOT1
  9
$DIMASO
 70
     1
  9
$DIMSHO
 70
     0
  9
$DIMPOST
  1

  9
$DIMAPOST
  1

  9
$DIMALT
 70
     0
  9
$DIMALTD
 70
     2
  9
$DIMALTF
 40
25.399999999999999
  9
$DIMLFAC
 40
1.0
  9
$DIMTOFL
 70
     1
  9
$DIMTVP
 40
0.0
  9
$DIMTIX
 70
     1
  9
$DIMSOXD
 70
     0
  9
$DIMSAH
 70
     1
  9
$DIMBLK1
  1
ORIGIN
  9
$DIMBLK2
  1
ORIGIN
  9
$DIMSTYLE
  2
STANDARD
  9
$DIMCLRD
 70
     7
  9
$DIMCLRE
 70
     7
  9
$DIMCLRT
 70
     7
  9
$DIMTFAC
 40
1.0
  9
$DIMGAP
 40
25.0
  9
$LUNITS
 70
     2
  9
$LUPREC
 70
     4
  9
$SKETCHINC
 40
0.1
  9
$FILLETRAD
 40
10.0
  9
$AUNITS
 70
     1
  9
$AUPREC
 70
     3
  9
$MENU
  1
ACAD
  9
$ELEVATION
 40
0.0
  9
$PELEVATION
 40
0.0
  9
$THICKNESS
 40
50.0
  9
$LIMCHECK
 70
     0
  9
$BLIPMODE
 70
     0
  9
$CHAMFERA
 40
0.0
  9
$CHAMFERB
 40
0.0
  9
$SKPOLY
 70
     0
  9
$TDCREATE
 40
2453019.6230103709
  9
$TDUPDATE
 40
2455065.694540231
  9
$TDINDWG
 40
0.3832195949
  9
$TDUSRTIMER
 40
0.3832194213
  9
$USRTIMER
 70
     1
  9
$ANGBASE
 50
0.0
  9
$ANGDIR
 70
     0
  9
$PDMODE
 70
     3
  9
$PDSIZE
 40
-2.0
  9
$PLINEWID
 40
0.0
  9
$COORDS
 70
     0
  9
$SPLFRAME
 70
     0
  9
$SPLINETYPE
 70
     6
  9
$SPLINESEGS
 70
     8
  9
$ATTDIA
 70
     0
  9
$ATTREQ
 70
     1
  9
$HANDLING
 70
     1
  9
$HANDSEED
  5
445
  9
$SURFTAB1
 70
     6
  9
$SURFTAB2
 70
     6
  9
$SURFTYPE
 70
     6
  9
$SURFU
 70
     6
  9
$SURFV
 70
     6
  9
$UCSNAME
  2

  9
$UCSORG
 10
0.0
 20
0.0
 30
0.0
  9
$UCSXDIR
 10
1.0
 20
0.0
 30
0.0
  9
$UCSYDIR
 10
0.0
 20
1.0
 30
0.0
  9
$PUCSNAME
  2

  9
$PUCSORG
 10
0.0
 20
0.0
 30
0.0
  9
$PUCSXDIR
 10
1.0
 20
0.0
 30
0.0
  9
$PUCSYDIR
 10
0.0
 20
1.0
 30
0.0
  9
$USERI1
 70
     0
  9
$USERI2
 70
     0
  9
$USERI3
 70
     0
  9
$USERI4
 70
     0
  9
$USERI5
 70
     0
  9
$USERR1
 40
20.0
  9
$USERR2
 40
0.0
  9
$USERR3
 40
0.0
  9
$USERR4
 40
0.0
  9
$USERR5
 40
0.0
  9
$WORLDVIEW
 70
     1
  9
$SHADEDGE
 70
     3
  9
$SHADEDIF
 70
    70
  9
$TILEMODE
 70
     1
  9
$MAXACTVP
 70
    48
  9
$PLIMCHECK
 70
     0
  9
$PEXTMIN
 10
-1.0000000000000000E+020
 20
-1.0000000000000000E+020
 30
-1.0000000000000000E+020
  9
$PEXTMAX
 10
1.0000000000000000E+020
 20
1.0000000000000000E+020
 30
1.0000000000000000E+020
  9
$PLIMMIN
 10
0.0
 20
0.0
  9
$PLIMMAX
 10
12.0
 20
9.0
  9
$UNITMODE
 70
     0
  9
$VISRETAIN
 70
     0
  9
$PLINEGEN
 70
     0
  9
$PSLTSCALE
 70
     0
  0
ENDSEC
  0
SECTION
  2
TABLES
  0
TABLE
  2
VPORT
 70
     1
  0
VPORT
  2
*ACTIVE
 70
     0
 10
0.0
 20
0.0
 11
1.0
 21
1.0
 12
-223.51301404372199
 22
-18.083260636166301
 13
0.0
 23
0.0
 14
1.0
 24
1.0
 15
0.0
 25
0.0
 16
0.0
 26
0.0
 36
1.0
 17
0.0
 27
0.0
 37
0.0
 40
1395.3666788413141
 41
1.2435374149659859
 42
50.0
 43
0.0
 44
0.0
 50
0.0
 51
0.0
 71
     0
 72
  1000
 73
     1
 74
     0
 75
     0
 76
     0
 77
     0
 78
     0
  0
ENDTAB
  0
TABLE
  2
LTYPE
 70
     2
  0
LTYPE
  2
CONTINUOUS
 70
     0
  3
実線
 72
    65
 73
     0
 40
0.0
  0
LTYPE
  2
DASHDOT
 70
     0
  3
____ _ ____ _ ____ _ ____ _ ____ _ ____ _ ____
 72
    65
 73
     4
 40
5.5
 49
4.0
 49
-0.6
 49
0.3
 49
-0.6
  0
ENDTAB
  0
TABLE
  2
LAYER
 70
    13
  0
LAYER
  2
0
 70
     0
 62
     7
  6
CONTINUOUS
  0
LAYER
  2
BASIS
 70
     0
 62
     6
  6
DASHDOT
  0
LAYER
  2
OUTLINE
 70
     0
 62
     3
  6
CONTINUOUS
  0
LAYER
  2
DETAIL
 70
     0
 62
     5
  6
CONTINUOUS
  0
LAYER
  2
NOTE
 70
     0
 62
     4
  6
CONTINUOUS
  0
LAYER
  2
SIZE
 70
     0
 62
    30
  6
CONTINUOUS
  0
LAYER
  2
ARRANGE
 70
     0
 62
     1
  6
CONTINUOUS
  0
LAYER
  2
DEFPOINTS
 70
     0
 62
     7
  6
CONTINUOUS
  0
LAYER
  2
ETC
 70
     0
 62
    61
  6
CONTINUOUS
  0
LAYER
  2
FIX
 70
     0
 62
    11
  6
CONTINUOUS
  0
LAYER
  2
SERVICESPACE
 70
     0
 62
     2
  6
DASHDOT
  0
LAYER
  2
SYMBOLLINE
 70
     0
 62
    15
  6
CONTINUOUS
  0
LAYER
  2
ARRENGE
 70
     0
 62
     1
  6
CONTINUOUS
  0
ENDTAB
  0
TABLE
  2
STYLE
 70
     2
  0
STYLE
  2
STANDARD
 70
     0
 40
64.0
 41
0.9
 50
0.0
 71
     0
 42
64.0
  3
SIMPLEX.shx
  4
BIGFONT.shx
  0
STYLE
  2
ANNOTATIVE
 70
     0
 40
0.0
 41
1.0
 50
0.0
 71
     0
 42
0.2
  3
txt
  4

  0
ENDTAB
  0
TABLE
  2
VIEW
 70
     1
  0
VIEW
  2
ALL
 70
     0
 40
4282.6198079999967
 10
0.0
 20
41.309903999999989
 41
5940.0
 11
0.0
 21
0.0
 31
1.0
 12
0.0
 22
0.0
 32
0.0
 42
50.0
 43
0.0
 44
0.0
 50
0.0
 71
     0
  0
ENDTAB
  0
TABLE
  2
UCS
 70
     0
  0
ENDTAB
  0
TABLE
  2
APPID
 70
     6
  0
APPID
  2
ACAD
 70
     0
  0
APPID
  2
ACADANNOTATIVE
 70
     0
  0
APPID
  2
ACAD_MLEADERVER
 70
     0
  0
APPID
  2
AUTOCAD_POSTSCRIPT_FIGURE
 70
     0
  0
APPID
  2
CONTENTBLOCKDESCRIPTION
 70
     0
  0
APPID
  2
CONTENTBLOCKICON
 70
     0
  0
ENDTAB
  0
TABLE
  2
DIMSTYLE
 70
     2
  0
DIMSTYLE
  2
STANDARD
 70
     0
  3

  4

  5

  6

  7

 40
1.0
 41
0.18
 42
0.0625
 43
0.38
 44
0.18
 45
0.0
 46
0.0
 47
0.0
 48
0.0
140
0.18
141
0.09
142
0.0
143
25.399999999999999
144
1.0
145
0.0
146
1.0
147
0.09
 71
     0
 72
     0
 73
     1
 74
     1
 75
     0
 76
     0
 77
     0
 78
     0
170
     0
171
     2
172
     0
173
     0
174
     0
175
     0
176
     7
177
     7
178
     7
  0
DIMSTYLE
  2
ANNOTATIVE
 70
     0
  3

  4

  5

  6

  7

 40
1.0
 41
0.18
 42
0.0625
 43
0.38
 44
0.18
 45
0.0
 46
0.0
 47
0.0
 48
0.0
140
0.18
141
0.09
142
0.0
143
25.399999999999999
144
1.0
145
0.0
146
1.0
147
0.09
 71
     0
 72
     0
 73
     1
 74
     1
 75
     0
 76
     0
 77
     0
 78
     0
170
     0
171
     2
172
     0
173
     0
174
     0
175
     0
176
     0
177
     0
178
     0
  0
ENDTAB
  0
ENDSEC
  0
SECTION
  2
BLOCKS
  0
BLOCK
  8
0
  2
$MODEL_SPACE
 70
     0
 10
0.0
 20
0.0
 30
0.0
  3
$MODEL_SPACE
  1

  0
ENDBLK
  5
3EA
  8
0
  0
BLOCK
 67
     1
  8
0
  2
$PAPER_SPACE
 70
     0
 10
0.0
 20
0.0
 30
0.0
  3
$PAPER_SPACE
  1

  0
ENDBLK
  5
3E6
 67
     1
  8
0
  0
BLOCK
  8
0
  2
DOT1
 70
     0
 10
0.0
 20
0.0
 30
0.0
  3
DOT1
  1

  0
CIRCLE
  5
27E
  8
SIZE
  6
CONTINUOUS
 62
     7
 10
0.0
 20
0.0
 30
0.0
 40
3.0
  0
ENDBLK
  5
27F
  8
0
  0
BLOCK
  8
0
  2
_ORIGIN
 70
     0
 10
0.0
 20
0.0
 30
0.0
  3
_ORIGIN
  1

  0
CIRCLE
  5
282
  8
0
  6
CONTINUOUS
 62
     7
 10
0.0
 20
0.0
 30
0.0
 40
0.5
  0
LINE
  5
283
  8
0
  6
CONTINUOUS
 62
     7
 10
0.0
 20
0.0
 30
0.0
 11
-1.0
 21
0.0
 31
0.0
  0
ENDBLK
  5
284
  8
0
  0
BLOCK
  8
0
 62
     1
  2
配置点
 70
     0
 10
0.0
 20
0.0
 30
0.0
  3
配置点
  1

  0
LINE
  5
318
  8
ARRENGE
 62
     1
 10
189.77681747763211
 20
149.03934829407481
 30
0.0
 11
218.06108872509409
 21
177.3236195415368
 31
0.0
  0
LINE
  5
319
  8
ARRENGE
 62
     1
 10
189.77681747763211
 20
177.3236195415368
 30
0.0
 11
218.06108872509409
 21
149.03934829407481
 31
0.0
  0
CIRCLE
  5
31A
  8
ARRENGE
 62
     1
 10
203.91895310136309
 20
163.18148391780579
 30
0.0
 40
40.0
  0
ENDBLK
  5
31C
  8
0
 62
     1
  0
ENDSEC
  0
SECTION
  2
ENTITIES
  0
LINE
  5
288
  8
DETAIL
  6
CONTINUOUS
 62
     5
 39
50.0
 10
95.240354119592126
 20
-105.1497344601469
 30
0.0
 11
-94.759645880407874
 21
-105.1497344601469
 31
0.0
  0
LINE
  5
289
  8
DETAIL
  6
CONTINUOUS
 62
     5
 39
50.0
 10
-104.7596458804078
 20
-95.149734460146917
 30
0.0
 11
-104.7596458804078
 21
94.850265539853055
 31
0.0
  0
LINE
  5
28A
  8
DETAIL
  6
CONTINUOUS
 62
     5
 39
50.0
 10
-94.759645880407874
 20
104.850265539853
 30
0.0
 11
95.240354119592126
 21
104.850265539853
 31
0.0
  0
LINE
  5
28B
  8
DETAIL
  6
CONTINUOUS
 62
     5
 39
50.0
 10
105.2403541195921
 20
94.850265539853055
 30
0.0
 11
105.2403541195921
 21
-95.149734460146917
 31
0.0
  0
ARC
  5
28C
  8
DETAIL
  6
CONTINUOUS
 62
     5
 39
50.0
 10
95.240354119592126
 20
94.850265539853055
 30
0.0
 40
10.0
 50
0.0
 51
90.0
  0
ARC
  5
28D
  8
DETAIL
  6
CONTINUOUS
 62
     5
 39
50.0
 10
-94.759645880407874
 20
94.850265539853055
 30
0.0
 40
10.0
 50
90.0
 51
180.0
  0
ARC
  5
28E
  8
DETAIL
  6
CONTINUOUS
 62
     5
 39
50.0
 10
-94.759645880407874
 20
-95.149734460146917
 30
0.0
 40
10.0
 50
180.0
 51
270.0
  0
ARC
  5
28F
  8
DETAIL
  6
CONTINUOUS
 62
     5
 39
50.0
 10
95.240354119592126
 20
-95.149734460146917
 30
0.0
 40
10.0
 50
270.0
 51
0.0
  0
ARC
  5
291
  8
FIX
  6
CONTINUOUS
 62
    11
 39
50.0
 10
95.240354119592126
 20
5.8502655398530639
 30
0.0
 40
2.0
 50
0.0
 51
180.0
  0
ARC
  5
292
  8
FIX
  6
CONTINUOUS
 62
    11
 39
50.0
 10
95.240354119592126
 20
-0.1497344601469344
 30
0.0
 40
2.0
 50
180.0
 51
0.0
  0
LINE
  5
293
  8
FIX
  6
CONTINUOUS
 62
    11
 39
50.0
 10
93.240354119592126
 20
5.8502655398530639
 30
0.0
 11
93.240354119592126
 21
-0.1497344601469344
 31
0.0
  0
LINE
  5
294
  8
FIX
  6
CONTINUOUS
 62
    11
 39
50.0
 10
97.240354119592141
 20
5.8502655398530639
 30
0.0
 11
97.240354119592141
 21
-0.1497344601469344
 31
0.0
  0
LINE
  5
295
  8
NOTE
  6
CONTINUOUS
 62
     4
 39
50.0
 10
95.240354119592126
 20
-2.149734460146933
 30
0.0
 11
95.240354119592126
 21
-0.1497344601469344
 31
0.0
  0
LINE
  5
296
  8
NOTE
  6
CONTINUOUS
 62
     4
 10
95.240354119592126
 20
-20.149734460146931
 30
0.0
 11
95.240354119592126
 21
19.850265539853051
 31
0.0
  0
LINE
  5
297
  8
NOTE
  6
CONTINUOUS
 62
     4
 10
115.2403541195921
 20
-0.1497344601469344
 30
0.0
 11
75.240354119592126
 21
-0.1497344601469344
 31
0.0
  0
LINE
  5
298
  8
NOTE
  6
CONTINUOUS
 62
     4
 39
50.0
 10
95.240354119592126
 20
-0.1497344601469344
 30
0.0
 11
95.240354119592126
 21
5.8502655398530639
 31
0.0
  0
LINE
  5
299
  8
NOTE
  6
CONTINUOUS
 62
     4
 10
95.240354119592126
 20
-14.149734460146931
 30
0.0
 11
95.240354119592126
 21
25.850265539853051
 31
0.0
  0
LINE
  5
29A
  8
NOTE
  6
CONTINUOUS
 62
     4
 10
115.2403541195921
 20
5.8502655398530639
 30
0.0
 11
75.240354119592126
 21
5.8502655398530639
 31
0.0
  0
LINE
  5
29B
  8
NOTE
  6
CONTINUOUS
 62
     4
 39
50.0
 10
-94.759645880407874
 20
-0.1497344601469344
 30
0.0
 11
-94.759645880407874
 21
5.8502655398530639
 31
0.0
  0
LINE
  5
29C
  8
NOTE
  6
CONTINUOUS
 62
     4
 39
50.0
 10
-94.759645880407874
 20
-0.1497344601469344
 30
0.0
 11
-109.73964088040771
 21
-0.1497344601469344
 31
0.0
  0
LINE
  5
29D
  8
NOTE
  6
CONTINUOUS
 62
     4
 39
50.0
 10
-94.759645880407874
 20
-2.149734460146933
 30
0.0
 11
-94.759645880407874
 21
-0.1497344601469344
 31
0.0
  0
ARC
  5
29E
  8
FIX
  6
CONTINUOUS
 62
    11
 39
50.0
 10
-94.759645880407874
 20
-0.1497344601469344
 30
0.0
 40
2.0
 50
180.0
 51
0.0
  0
ARC
  5
29F
  8
FIX
  6
CONTINUOUS
 62
    11
 39
50.0
 10
-94.759645880407874
 20
5.8502655398530639
 30
0.0
 40
2.0
 50
0.0
 51
180.0
  0
LINE
  5
2A0
  8
FIX
  6
CONTINUOUS
 62
    11
 39
50.0
 10
-92.759645880407874
 20
5.8502655398530639
 30
0.0
 11
-92.759645880407874
 21
-0.1497344601469344
 31
0.0
  0
LINE
  5
2A1
  8
FIX
  6
CONTINUOUS
 62
    11
 39
50.0
 10
-96.759645880407874
 20
5.8502655398530639
 30
0.0
 11
-96.759645880407874
 21
-0.1497344601469344
 31
0.0
  0
LINE
  5
2A2
  8
NOTE
  6
CONTINUOUS
 62
     4
 10
-94.759645880407874
 20
-14.149734460146931
 30
0.0
 11
-94.759645880407874
 21
25.850265539853051
 31
0.0
  0
LINE
  5
2A3
  8
NOTE
  6
CONTINUOUS
 62
     4
 10
-74.759645880407874
 20
5.8502655398530639
 30
0.0
 11
-114.7596458804078
 21
5.8502655398530639
 31
0.0
  0
LINE
  5
2A4
  8
NOTE
  6
CONTINUOUS
 62
     4
 10
-94.759645880407874
 20
-20.149734460146931
 30
0.0
 11
-94.759645880407874
 21
19.850265539853051
 31
0.0
  0
LINE
  5
2A5
  8
NOTE
  6
CONTINUOUS
 62
     4
 10
-74.759645880407874
 20
-0.1497344601469344
 30
0.0
 11
-114.7596458804078
 21
-0.1497344601469344
 31
0.0
  0
LINE
  5
2AE
  8
SIZE
  6
CONTINUOUS
 62
    30
 10
95.240354119592126
 20
-20.149734460146931
 30
0.0
 11
95.240354119592126
 21
-255.48207046014679
 31
0.0
  0
LINE
  5
2AF
  8
SIZE
  6
CONTINUOUS
 62
    30
 10
-94.759645880407874
 20
-20.149734460146931
 30
0.0
 11
-94.759645880407874
 21
-255.48207046014679
 31
0.0
  0
LINE
  5
2B0
  8
SIZE
  6
CONTINUOUS
 62
    30
 10
83.240354119592126
 20
-235.4820704601469
 30
0.0
 11
-82.759645880407874
 21
-235.4820704601469
 31
0.0
  0
CIRCLE
  5
2B1
  8
SIZE
  6
CONTINUOUS
 62
    30
 10
95.240354119592126
 20
-235.4820704601469
 30
0.0
 40
6.0
  0
LINE
  5
2B2
  8
SIZE
  6
CONTINUOUS
 62
    30
 10
95.240354119592126
 20
-235.4820704601469
 30
0.0
 11
83.240354119592126
 21
-235.4820704601469
 31
0.0
  0
CIRCLE
  5
2B3
  8
SIZE
  6
CONTINUOUS
 62
    30
 10
-94.759645880407874
 20
-235.4820704601469
 30
0.0
 40
6.0
  0
LINE
  5
2B4
  8
SIZE
  6
CONTINUOUS
 62
    30
 10
-94.759645880407874
 20
-235.4820704601469
 30
0.0
 11
-82.759645880407874
 21
-235.4820704601469
 31
0.0
  0
TEXT
  5
2B5
  8
SIZE
  6
CONTINUOUS
 62
    30
 10
-68.331074451836443
 20
-210.4820704601469
 30
0.0
 40
64.0
  1
190
 41
0.9
 72
     1
 11
0.2403541195921228
 21
-210.4820704601469
 31
0.0
  0
LINE
  5
2B6
  8
SIZE
  6
CONTINUOUS
 62
    30
 10
105.2403541195921
 20
-115.1497344601469
 30
0.0
 11
105.2403541195921
 21
-397.49870246014689
 31
0.0
  0
LINE
  5
2B7
  8
SIZE
  6
CONTINUOUS
 62
    30
 10
-104.7596458804078
 20
-115.1497344601469
 30
0.0
 11
-104.7596458804078
 21
-397.49870246014689
 31
0.0
  0
LINE
  5
2B8
  8
SIZE
  6
CONTINUOUS
 62
    30
 10
105.2403541195921
 20
-377.49870246014689
 30
0.0
 11
-104.7596458804078
 21
-377.49870246014689
 31
0.0
  0
CIRCLE
  5
2B9
  8
SIZE
  6
CONTINUOUS
 62
    30
 10
105.2403541195921
 20
-377.49870246014689
 30
0.0
 40
6.0
  0
CIRCLE
  5
2BA
  8
SIZE
  6
CONTINUOUS
 62
    30
 10
-104.7596458804078
 20
-377.49870246014689
 30
0.0
 40
6.0
  0
TEXT
  5
2BB
  8
SIZE
  6
CONTINUOUS
 62
    30
 10
-104.8110744518364
 20
-352.49870246014689
 30
0.0
 40
64.0
  1
□210
 41
0.9
 72
     1
 11
0.2403541195921228
 21
-352.49870246014689
 31
0.0
  0
LINE
  5
2BC
  8
SIZE
  6
CONTINUOUS
 62
    30
 10
-132.85864140538251
 20
-0.1497344601469344
 30
0.0
 11
-249.73790088040769
 21
-0.1497344601469344
 31
0.0
  0
LINE
  5
2BD
  8
SIZE
  6
CONTINUOUS
 62
    30
 10
-122.4715593872248
 20
5.8502655398530639
 30
0.0
 11
-249.73790088040769
 21
5.8502655398530639
 31
0.0
  0
LINE
  5
2BE
  8
SIZE
  6
CONTINUOUS
 62
    30
 10
-229.73790088040781
 20
17.850265539853059
 30
0.0
 11
-229.73790088040781
 21
29.850265539853051
 31
0.0
  0
LINE
  5
2BF
  8
SIZE
  6
CONTINUOUS
 62
    30
 10
-229.73790088040781
 20
-12.149734460146931
 30
0.0
 11
-229.73790088040781
 21
-109.80687746014679
 31
0.0
  0
LINE
  5
2C0
  8
SIZE
  6
CONTINUOUS
 62
    30
 10
-229.73790088040781
 20
5.8502655398530639
 30
0.0
 11
-229.73790088040781
 21
-0.1497344601469344
 31
0.0
  0
CIRCLE
  5
2C1
  8
SIZE
  6
CONTINUOUS
 62
    30
 10
-229.73790088040781
 20
5.8502655398530639
 30
0.0
 40
6.0
  0
LINE
  5
2C2
  8
SIZE
  6
CONTINUOUS
 62
    30
 10
-229.73790088040781
 20
5.8502655398530639
 30
0.0
 11
-229.73790088040781
 21
17.850265539853059
 31
0.0
  0
CIRCLE
  5
2C3
  8
SIZE
  6
CONTINUOUS
 62
    30
 10
-229.73790088040781
 20
-0.1497344601469344
 30
0.0
 40
6.0
  0
LINE
  5
2C4
  8
SIZE
  6
CONTINUOUS
 62
    30
 10
-229.73790088040781
 20
-0.1497344601469344
 30
0.0
 11
-229.73790088040781
 21
-12.149734460146931
 31
0.0
  0
TEXT
  5
2C5
  8
SIZE
  6
CONTINUOUS
 62
    30
 10
-254.73790088040781
 20
-84.806876888718321
 30
0.0
 40
64.0
  1
6
 50
90.0
 41
0.9
 72
     1
 11
-254.73790088040781
 21
-66.978305460146899
 31
0.0
  0
LINE
  5
2C6
  8
NOTE
  6
CONTINUOUS
 62
     4
 10
-111.2397568804077
 20
42.29756853985306
 30
0.0
 11
-94.759645880407874
 21
5.8502655398530639
 31
0.0
  0
LINE
  5
2C7
  8
NOTE
  6
CONTINUOUS
 62
     4
 10
-94.759645880407874
 20
5.8502655398530639
 30
0.0
 11
-127.2554928804078
 21
29.174500539853071
 31
0.0
  0
TEXT
  5
2C8
  8
NOTE
  6
CONTINUOUS
 62
     4
 10
-1026.2018908804059
 20
150.42428053985299
 30
0.0
 40
64.0
  1
2ヶ所×4×10取付用長穴
 41
0.9
  0
LINE
  5
2C9
  8
NOTE
  6
CONTINUOUS
 62
     4
 39
50.0
 10
-94.759645880407874
 20
5.8502655398530639
 30
0.0
 11
-193.90036488040781
 21
128.640651539853
 31
0.0
  0
LINE
  5
2CA
  8
NOTE
  6
CONTINUOUS
 62
     4
 39
50.0
 10
-193.90036488040781
 20
128.640651539853
 30
0.0
 11
-1026.7544293501851
 21
128.640651539853
 31
0.0
  0
CIRCLE
  5
2CB
  8
DETAIL
  6
CONTINUOUS
 62
     5
 39
50.0
 10
0.2403541195921228
 20
-0.1497344601469344
 30
0.0
 40
70.0
  0
LINE
  5
2CC
  8
SIZE
  6
CONTINUOUS
 62
    30
 10
379.77554618489569
 20
-236.59043683513261
 30
0.0
 11
69.83950336164618
 21
-43.50822143353782
 31
0.0
  0
LINE
  5
2CD
  8
SIZE
  6
CONTINUOUS
 62
    30
 10
-69.358795122461913
 20
43.208752513243951
 30
0.0
 11
-79.544036975175786
 21
49.553896993237032
 31
0.0
  0
TEXT
  5
2CE
  8
SIZE
  6
CONTINUOUS
 62
    30
 10
199.03366862649531
 20
-94.538419175312868
 30
0.0
 40
64.0
  1
φ140
 50
328.07811784877282
 41
0.9
 72
     1
 11
291.45742542620468
 21
-152.11612662667551
 31
0.0
  0
LINE
  5
2CF
  8
SIZE
  6
CONTINUOUS
 62
    30
 10
-59.17355326974814
 20
36.863608033250863
 30
0.0
 11
59.654261508932358
 21
-37.163076953544731
 31
0.0
  0
CIRCLE
  5
2D0
  8
SIZE
  6
CONTINUOUS
 62
    30
 10
-59.17355326974814
 20
36.863608033250863
 30
0.0
 40
6.0
  0
LINE
  5
2D1
  8
SIZE
  6
CONTINUOUS
 62
    30
 10
-59.17355326974814
 20
36.863608033250863
 30
0.0
 11
-69.358795122461913
 21
43.208752513243951
 31
0.0
  0
CIRCLE
  5
2D2
  8
SIZE
  6
CONTINUOUS
 62
    30
 10
59.654261508932358
 20
-37.163076953544731
 30
0.0
 40
6.0
  0
LINE
  5
2D3
  8
SIZE
  6
CONTINUOUS
 62
    30
 10
59.654261508932358
 20
-37.163076953544731
 30
0.0
 11
69.83950336164618
 21
-43.50822143353782
 31
0.0
  0
LINE
  5
2D4
  8
DETAIL
  6
CONTINUOUS
 62
     5
 10
-86.80376988040787
 20
64.238500539853064
 30
0.0
 11
-85.063769880407904
 21
64.238500539853064
 31
0.0
  0
LINE
  5
2D5
  8
DETAIL
  6
CONTINUOUS
 62
     5
 10
-78.410828880407848
 20
77.544383539853058
 30
0.0
 11
-86.087298880407872
 21
77.544383539853058
 31
0.0
  0
LINE
  5
2D6
  8
DETAIL
  6
CONTINUOUS
 62
     5
 10
-86.087298880407872
 20
82.662030539853049
 30
0.0
 11
-78.410828880407848
 21
82.662030539853049
 31
0.0
  0
LINE
  5
2D7
  8
DETAIL
  6
CONTINUOUS
 62
     5
 10
-85.063769880407904
 20
86.756147539853018
 30
0.0
 11
-86.80376988040787
 21
86.756147539853018
 31
0.0
  0
LINE
  5
2D8
  8
DETAIL
  6
CONTINUOUS
 62
     5
 10
-62.034357880407882
 20
90.850265539853041
 30
0.0
 11
-62.034357880407882
 21
60.14438353985306
 31
0.0
  0
LINE
  5
2D9
  8
DETAIL
  6
CONTINUOUS
 62
     5
 10
-63.979063880407857
 20
70.379677539853063
 30
0.0
 11
-63.979063880407857
 21
60.14438353985306
 31
0.0
  0
LINE
  5
2DA
  8
DETAIL
  6
CONTINUOUS
 62
     5
 10
-68.277886880407891
 20
70.379677539853063
 30
0.0
 11
-68.277886880407891
 21
60.14438353985306
 31
0.0
  0
LINE
  5
2DB
  8
DETAIL
  6
CONTINUOUS
 62
     5
 10
-73.804945880407857
 20
62.80555953985305
 30
0.0
 11
-73.804945880407857
 21
88.189089539853043
 31
0.0
  0
LINE
  5
2DC
  8
DETAIL
  6
CONTINUOUS
 62
     5
 10
-76.363769880407872
 20
90.850265539853041
 30
0.0
 11
-76.363769880407872
 21
60.14438353985306
 31
0.0
  0
LINE
  5
2DD
  8
DETAIL
  6
CONTINUOUS
 62
     5
 10
-78.308475880407855
 20
70.379677539853063
 30
0.0
 11
-78.308475880407855
 21
60.14438353985306
 31
0.0
  0
LINE
  5
2DE
  8
DETAIL
  6
CONTINUOUS
 62
     5
 10
-82.607298880407853
 20
70.379677539853063
 30
0.0
 11
-82.607298880407853
 21
60.14438353985306
 31
0.0
  0
LINE
  5
2DF
  8
DETAIL
  6
CONTINUOUS
 62
     5
 10
-62.034357880407882
 20
60.14438353985306
 30
0.0
 11
-69.915533880407892
 21
60.14438353985306
 31
0.0
  0
LINE
  5
2E0
  8
DETAIL
  6
CONTINUOUS
 62
     5
 10
-64.081416880407872
 20
62.191441539853081
 30
0.0
 11
-69.915533880407892
 21
62.191441539853081
 31
0.0
  0
LINE
  5
2E1
  8
DETAIL
  6
CONTINUOUS
 62
     5
 10
-69.915533880407892
 20
63.72673653985305
 30
0.0
 11
-64.081416880407872
 21
63.72673653985305
 31
0.0
  0
LINE
  5
2E2
  8
DETAIL
  6
CONTINUOUS
 62
     5
 10
-64.081416880407872
 20
63.72673653985305
 30
0.0
 11
-64.081416880407872
 21
62.191441539853081
 31
0.0
  0
LINE
  5
2E3
  8
DETAIL
  6
CONTINUOUS
 62
     5
 10
-76.363769880407872
 20
60.14438353985306
 30
0.0
 11
-84.244945880407855
 21
60.14438353985306
 31
0.0
  0
LINE
  5
2E4
  8
DETAIL
  6
CONTINUOUS
 62
     5
 10
-69.915533880407892
 20
63.419677539853048
 30
0.0
 11
-70.73435788040787
 21
64.238500539853064
 31
0.0
  0
LINE
  5
2E5
  8
DETAIL
  6
CONTINUOUS
 62
     5
 10
-73.804945880407857
 20
62.80555953985305
 30
0.0
 11
-72.474357880407879
 21
62.80555953985305
 31
0.0
  0
LINE
  5
2E6
  8
DETAIL
  6
CONTINUOUS
 62
     5
 10
-72.474357880407879
 20
64.238500539853064
 30
0.0
 11
-70.73435788040787
 21
64.238500539853064
 31
0.0
  0
LINE
  5
2E7
  8
DETAIL
  6
CONTINUOUS
 62
     5
 10
-69.915533880407892
 20
60.14438353985306
 30
0.0
 11
-69.915533880407892
 21
63.72673653985305
 31
0.0
  0
LINE
  5
2E8
  8
DETAIL
  6
CONTINUOUS
 62
     5
 10
-72.474357880407879
 20
62.80555953985305
 30
0.0
 11
-72.474357880407879
 21
64.238500539853064
 31
0.0
  0
LINE
  5
2E9
  8
DETAIL
  6
CONTINUOUS
 62
     5
 10
-84.244945880407855
 20
63.419677539853048
 30
0.0
 11
-85.063769880407904
 21
64.238500539853064
 31
0.0
  0
LINE
  5
2EA
  8
DETAIL
  6
CONTINUOUS
 62
     5
 10
-78.410828880407848
 20
62.191441539853081
 30
0.0
 11
-84.244945880407855
 21
62.191441539853081
 31
0.0
  0
LINE
  5
2EB
  8
DETAIL
  6
CONTINUOUS
 62
     5
 10
-84.244945880407855
 20
63.72673653985305
 30
0.0
 11
-78.410828880407848
 21
63.72673653985305
 31
0.0
  0
LINE
  5
2EC
  8
DETAIL
  6
CONTINUOUS
 62
     5
 10
-78.410828880407848
 20
63.72673653985305
 30
0.0
 11
-78.410828880407848
 21
62.191441539853081
 31
0.0
  0
LINE
  5
2ED
  8
DETAIL
  6
CONTINUOUS
 62
     5
 10
-84.244945880407855
 20
60.14438353985306
 30
0.0
 11
-84.244945880407855
 21
63.72673653985305
 31
0.0
  0
LINE
  5
2EE
  8
DETAIL
  6
CONTINUOUS
 62
     5
 10
-64.081416880407872
 20
77.544383539853058
 30
0.0
 11
-71.757886880407852
 21
77.544383539853058
 31
0.0
  0
LINE
  5
2EF
  8
DETAIL
  6
CONTINUOUS
 62
     5
 10
-71.757886880407852
 20
82.662030539853049
 30
0.0
 11
-64.081416880407872
 21
82.662030539853049
 31
0.0
  0
LINE
  5
2F0
  8
DETAIL
  6
CONTINUOUS
 62
     5
 10
-69.915533880407892
 20
90.850265539853041
 30
0.0
 11
-60.192004880407872
 21
90.850265539853041
 31
0.0
  0
LINE
  5
2F1
  8
DETAIL
  6
CONTINUOUS
 62
     5
 10
-64.081416880407872
 20
82.662030539853049
 30
0.0
 11
-64.081416880407872
 21
77.544383539853058
 31
0.0
  0
LINE
  5
2F2
  8
DETAIL
  6
CONTINUOUS
 62
     5
 10
-68.27662488040788
 20
70.379677539853063
 30
0.0
 11
-63.980325880407889
 21
70.379677539853063
 31
0.0
  0
LINE
  5
2F3
  8
DETAIL
  6
CONTINUOUS
 62
     5
 10
-62.034357880407882
 20
89.007912539853052
 30
0.0
 11
-60.192004880407872
 21
89.007912539853052
 31
0.0
  0
LINE
  5
2F4
  8
DETAIL
  6
CONTINUOUS
 62
     5
 10
-60.192004880407872
 20
89.007912539853052
 30
0.0
 11
-60.192004880407872
 21
90.850265539853041
 31
0.0
  0
LINE
  5
2F5
  8
DETAIL
  6
CONTINUOUS
 62
     5
 10
-71.757886880407852
 20
77.544383539853058
 30
0.0
 11
-71.757886880407852
 21
82.662030539853049
 31
0.0
  0
LINE
  5
2F6
  8
DETAIL
  6
CONTINUOUS
 62
     5
 10
-78.410828880407848
 20
82.662030539853049
 30
0.0
 11
-78.410828880407848
 21
77.544383539853058
 31
0.0
  0
LINE
  5
2F7
  8
DETAIL
  6
CONTINUOUS
 62
     5
 10
-82.606036880407856
 20
70.379677539853063
 30
0.0
 11
-78.30973788040788
 21
70.379677539853063
 31
0.0
  0
LINE
  5
2F8
  8
DETAIL
  6
CONTINUOUS
 62
     5
 10
-84.244945880407855
 20
90.850265539853041
 30
0.0
 11
-74.521416880407855
 21
90.850265539853041
 31
0.0
  0
LINE
  5
2F9
  8
DETAIL
  6
CONTINUOUS
 62
     5
 10
-69.915533880407892
 20
90.850265539853041
 30
0.0
 11
-69.915533880407892
 21
87.574971539853095
 31
0.0
  0
LINE
  5
2FA
  8
DETAIL
  6
CONTINUOUS
 62
     5
 10
-72.474357880407879
 20
86.756147539853018
 30
0.0
 11
-72.474357880407879
 21
88.189089539853043
 31
0.0
  0
LINE
  5
2FB
  8
DETAIL
  6
CONTINUOUS
 62
     5
 10
-74.521416880407855
 20
89.007912539853052
 30
0.0
 11
-74.521416880407855
 21
90.850265539853041
 31
0.0
  0
LINE
  5
2FC
  8
DETAIL
  6
CONTINUOUS
 62
     5
 10
-70.73435788040787
 20
86.756147539853018
 30
0.0
 11
-72.474357880407879
 21
86.756147539853018
 31
0.0
  0
LINE
  5
2FD
  8
DETAIL
  6
CONTINUOUS
 62
     5
 10
-73.804945880407857
 20
88.189089539853043
 30
0.0
 11
-72.474357880407879
 21
88.189089539853043
 31
0.0
  0
LINE
  5
2FE
  8
DETAIL
  6
CONTINUOUS
 62
     5
 10
-76.363769880407872
 20
89.007912539853052
 30
0.0
 11
-74.521416880407855
 21
89.007912539853052
 31
0.0
  0
LINE
  5
2FF
  8
DETAIL
  6
CONTINUOUS
 62
     5
 10
-70.73435788040787
 20
86.756147539853018
 30
0.0
 11
-69.915533880407892
 21
87.574971539853095
 31
0.0
  0
LINE
  5
300
  8
DETAIL
  6
CONTINUOUS
 62
     5
 10
-84.244945880407855
 20
90.850265539853041
 30
0.0
 11
-84.244945880407855
 21
87.574971539853095
 31
0.0
  0
LINE
  5
301
  8
DETAIL
  6
CONTINUOUS
 62
     5
 10
-85.063769880407904
 20
86.756147539853018
 30
0.0
 11
-84.244945880407855
 21
87.574971539853095
 31
0.0
  0
LINE
  5
302
  8
DETAIL
  6
CONTINUOUS
 62
     5
 10
-88.134357880407904
 20
62.80555953985305
 30
0.0
 11
-88.134357880407904
 21
88.189089539853043
 31
0.0
  0
LINE
  5
303
  8
DETAIL
  6
CONTINUOUS
 62
     5
 10
-88.134357880407904
 20
62.80555953985305
 30
0.0
 11
-86.80376988040787
 21
62.80555953985305
 31
0.0
  0
LINE
  5
304
  8
DETAIL
  6
CONTINUOUS
 62
     5
 10
-86.80376988040787
 20
62.80555953985305
 30
0.0
 11
-86.80376988040787
 21
64.238500539853064
 31
0.0
  0
LINE
  5
305
  8
DETAIL
  6
CONTINUOUS
 62
     5
 10
-86.087298880407872
 20
77.544383539853058
 30
0.0
 11
-86.087298880407872
 21
82.662030539853049
 31
0.0
  0
LINE
  5
306
  8
DETAIL
  6
CONTINUOUS
 62
     5
 10
-88.134357880407904
 20
88.189089539853043
 30
0.0
 11
-86.80376988040787
 21
88.189089539853043
 31
0.0
  0
LINE
  5
307
  8
DETAIL
  6
CONTINUOUS
 62
     5
 10
-86.80376988040787
 20
86.756147539853018
 30
0.0
 11
-86.80376988040787
 21
88.189089539853043
 31
0.0
  0
LINE
  5
308
  8
NOTE
  6
CONTINUOUS
 62
     4
 10
-103.55352488040781
 20
102.053856539853
 30
0.0
 11
-73.641141880407872
 21
75.497324539853054
 31
0.0
  0
LINE
  5
309
  8
NOTE
  6
CONTINUOUS
 62
     4
 10
-73.641141880407872
 20
75.497324539853054
 30
0.0
 11
-86.267758880407868
 21
113.452146539853
 31
0.0
  0
TEXT
  5
30A
  8
NOTE
  6
CONTINUOUS
 62
     4
 10
-308.63936088040782
 20
321.05938153985289
 30
0.0
 40
64.0
  1
EL
 41
0.9
  0
LINE
  5
30B
  8
NOTE
  6
CONTINUOUS
 62
     4
 39
50.0
 10
-310.44965488040782
 20
290.299928539853
 30
0.0
 11
-216.3142278804078
 21
290.299928539853
 31
0.0
  0
LINE
  5
30C
  8
NOTE
  6
CONTINUOUS
 62
     4
 39
50.0
 10
-216.3142278804078
 20
290.299928539853
 30
0.0
 11
-73.804945880407857
 21
75.989708539853055
 31
0.0
  0
LINE
  5
30D
  8
NOTE
  6
CONTINUOUS
 62
     4
 10
-73.804945880407857
 20
55.497324539853047
 30
0.0
 11
-73.804945880407857
 21
95.497324539853054
 31
0.0
  0
LINE
  5
30E
  8
NOTE
  6
CONTINUOUS
 62
     4
 10
-93.804945880407843
 20
75.497324539853054
 30
0.0
 11
-53.804945880407857
 21
75.497324539853054
 31
0.0
  0
TEXT
  5
30F
  8
ETC
  6
CONTINUOUS
 62
    61
 10
181.0066810911654
 20
202.60903694311941
 30
0.0
 40
40.0
  1
V-12PSD6
 41
0.9
  0
TEXT
  5
310
  8
ETC
  6
CONTINUOUS
 62
    61
 10
78.278336388092868
 20
329.38781049706017
 30
0.0
 40
50.0
  1
V-12PSD6_3
 41
0.9
  0
TEXT
  5
311
  8
ETC
  6
CONTINUOUS
 62
    61
 10
73.865474388092906
 20
262.60039449706028
 30
0.0
 40
50.0
  1
換気扇
 41
0.9
  0
CIRCLE
  5
312
  8
DETAIL
  6
CONTINUOUS
 62
     5
 39
50.0
 10
0.2403541195921228
 20
-0.1497344601469344
 30
0.0
 40
31.5
  0
LINE
  5
316
  8
BASIS
  6
DASHDOT
 62
     6
 39
50.0
 10
-0.0000000000000036
 20
-130.60341640699309
 30
0.0
 11
-0.0000000000000036
 21
128.20088838745519
 31
0.0
  0
LINE
  5
324
  8
BASIS
  6
DASHDOT
 62
     6
 39
50.0
 10
-127.4975644446049
 20
-0.000000000000016
 30
0.0
 11
134.52495626101191
 21
-0.000000000000016
 31
0.0
  0
LINE
  5
325
  8
OUTLINE
  6
CONTINUOUS
 62
     3
 39
50.0
 10
-104.7596458804079
 20
-95.149734460146917
 30
0.0
 11
-104.7596458804079
 21
94.850265539853055
 31
0.0
  0
LINE
  5
326
  8
OUTLINE
  6
CONTINUOUS
 62
     3
 39
50.0
 10
105.2403541195921
 20
94.850265539853055
 30
0.0
 11
105.2403541195921
 21
-95.149734460146917
 31
0.0
  0
ARC
  5
327
  8
OUTLINE
  6
CONTINUOUS
 62
     3
 39
50.0
 10
-94.759645880407902
 20
-95.149734460146917
 30
0.0
 40
10.0
 50
180.0
 51
270.0
  0
LINE
  5
328
  8
OUTLINE
  6
CONTINUOUS
 62
     3
 39
50.0
 10
95.240354119592126
 20
-105.1497344601469
 30
0.0
 11
-94.759645880407902
 21
-105.1497344601469
 31
0.0
  0
ARC
  5
329
  8
OUTLINE
  6
CONTINUOUS
 62
     3
 39
50.0
 10
95.240354119592126
 20
-95.149734460146917
 30
0.0
 40
10.0
 50
270.0
 51
0.0
  0
ARC
  5
32A
  8
OUTLINE
  6
CONTINUOUS
 62
     3
 39
50.0
 10
95.240354119592126
 20
94.850265539853055
 30
0.0
 40
10.0
 50
0.0
 51
90.0
  0
ARC
  5
32B
  8
OUTLINE
  6
CONTINUOUS
 62
     3
 39
50.0
 10
-94.759645880407902
 20
94.850265539853055
 30
0.0
 40
10.0
 50
90.0
 51
180.0
  0
LINE
  5
32C
  8
OUTLINE
  6
CONTINUOUS
 62
     3
 39
50.0
 10
-94.759645880407902
 20
104.850265539853
 30
0.0
 11
95.240354119592126
 21
104.850265539853
 31
0.0
  0
LINE
  5
32D
  8
ARRENGE
 62
     1
 10
-14.142135623730949
 20
-14.142135623730949
 30
0.0
 11
14.142135623730949
 21
14.142135623730949
 31
0.0
  0
LINE
  5
32E
  8
ARRENGE
 62
     1
 10
-14.142135623730949
 20
14.142135623730949
 30
0.0
 11
14.142135623730949
 21
-14.142135623730949
 31
0.0
  0
CIRCLE
  5
32F
  8
ARRENGE
 62
     1
 10
0.0
 20
0.0
 30
0.0
 40
40.0
  0
ENDSEC
  0
EOF
