  0
SECTION
  2
HEADER
  9
$ACADVER
  1
AC1009
  9
$INSBASE
 10
0.0
 20
0.0
 30
0.0
  9
$EXTMIN
 10
-225.68662848287209
 20
-421.05101365718468
 30
-0.0015257624927045
  9
$EXTMAX
 10
956.67573170116509
 20
437.3931963199193
 30
50.001525995323327
  9
$LIMMIN
 10
-2970.0
 20
-2100.0
  9
$LIMMAX
 10
2970.0
 20
2100.0
  9
$ORTHOMODE
 70
     1
  9
$REGENMODE
 70
     1
  9
$FILLMODE
 70
     1
  9
$QTEXTMODE
 70
     0
  9
$MIRRTEXT
 70
     0
  9
$DRAGMODE
 70
     2
  9
$LTSCALE
 40
20.0
  9
$OSMODE
 70
    47
  9
$ATTMODE
 70
     1
  9
$TEXTSIZE
 40
64.0
  9
$TRACEWID
 40
0.05
  9
$TEXTSTYLE
  7
STANDARD
  9
$CLAYER
  8
NOTE
  9
$CELTYPE
  6
CONTINUOUS
  9
$CECOLOR
 62
     7
  9
$DIMSCALE
 40
1.0
  9
$DIMASZ
 40
12.0
  9
$DIMEXO
 40
20.0
  9
$DIMDLI
 40
200.0
  9
$DIMRND
 40
0.0
  9
$DIMDLE
 40
0.0
  9
$DIMEXE
 40
20.0
  9
$DIMTP
 40
0.0
  9
$DIMTM
 40
0.0
  9
$DIMTXT
 40
64.0
  9
$DIMCEN
 40
0.09
  9
$DIMTSZ
 40
0.0
  9
$DIMTOL
 70
     0
  9
$DIMLIM
 70
     0
  9
$DIMTIH
 70
     0
  9
$DIMTOH
 70
     0
  9
$DIMSE1
 70
     0
  9
$DIMSE2
 70
     0
  9
$DIMTAD
 70
     1
  9
$DIMZIN
 70
     8
  9
$DIMBLK
  1
DOT1
  9
$DIMASO
 70
     1
  9
$DIMSHO
 70
     0
  9
$DIMPOST
  1

  9
$DIMAPOST
  1

  9
$DIMALT
 70
     0
  9
$DIMALTD
 70
     2
  9
$DIMALTF
 40
25.399999999999999
  9
$DIMLFAC
 40
1.0
  9
$DIMTOFL
 70
     1
  9
$DIMTVP
 40
0.0
  9
$DIMTIX
 70
     1
  9
$DIMSOXD
 70
     0
  9
$DIMSAH
 70
     1
  9
$DIMBLK1
  1
ORIGIN
  9
$DIMBLK2
  1
ORIGIN
  9
$DIMSTYLE
  2
STANDARD
  9
$DIMCLRD
 70
     7
  9
$DIMCLRE
 70
     7
  9
$DIMCLRT
 70
     7
  9
$DIMTFAC
 40
1.0
  9
$DIMGAP
 40
25.0
  9
$LUNITS
 70
     2
  9
$LUPREC
 70
     4
  9
$SKETCHINC
 40
0.1
  9
$FILLETRAD
 40
5.0
  9
$AUNITS
 70
     1
  9
$AUPREC
 70
     3
  9
$MENU
  1
ACAD
  9
$ELEVATION
 40
0.0
  9
$PELEVATION
 40
0.0
  9
$THICKNESS
 40
50.0
  9
$LIMCHECK
 70
     0
  9
$BLIPMODE
 70
     0
  9
$CHAMFERA
 40
0.0
  9
$CHAMFERB
 40
0.0
  9
$SKPOLY
 70
     0
  9
$TDCREATE
 40
2453019.6230103709
  9
$TDUPDATE
 40
2455065.696800069
  9
$TDINDWG
 40
0.3712958565
  9
$TDUSRTIMER
 40
0.3712954977
  9
$USRTIMER
 70
     1
  9
$ANGBASE
 50
0.0
  9
$ANGDIR
 70
     0
  9
$PDMODE
 70
     3
  9
$PDSIZE
 40
-2.0
  9
$PLINEWID
 40
0.0
  9
$COORDS
 70
     0
  9
$SPLFRAME
 70
     0
  9
$SPLINETYPE
 70
     6
  9
$SPLINESEGS
 70
     8
  9
$ATTDIA
 70
     0
  9
$ATTREQ
 70
     1
  9
$HANDLING
 70
     1
  9
$HANDSEED
  5
4B0
  9
$SURFTAB1
 70
     6
  9
$SURFTAB2
 70
     6
  9
$SURFTYPE
 70
     6
  9
$SURFU
 70
     6
  9
$SURFV
 70
     6
  9
$UCSNAME
  2

  9
$UCSORG
 10
0.0
 20
0.0
 30
0.0
  9
$UCSXDIR
 10
1.0
 20
0.0
 30
0.0
  9
$UCSYDIR
 10
0.0
 20
1.0
 30
0.0
  9
$PUCSNAME
  2

  9
$PUCSORG
 10
0.0
 20
0.0
 30
0.0
  9
$PUCSXDIR
 10
1.0
 20
0.0
 30
0.0
  9
$PUCSYDIR
 10
0.0
 20
1.0
 30
0.0
  9
$USERI1
 70
     0
  9
$USERI2
 70
     0
  9
$USERI3
 70
     0
  9
$USERI4
 70
     0
  9
$USERI5
 70
     0
  9
$USERR1
 40
20.0
  9
$USERR2
 40
0.0
  9
$USERR3
 40
0.0
  9
$USERR4
 40
0.0
  9
$USERR5
 40
0.0
  9
$WORLDVIEW
 70
     1
  9
$SHADEDGE
 70
     3
  9
$SHADEDIF
 70
    70
  9
$TILEMODE
 70
     1
  9
$MAXACTVP
 70
    48
  9
$PLIMCHECK
 70
     0
  9
$PEXTMIN
 10
-1.0000000000000000E+020
 20
-1.0000000000000000E+020
 30
-1.0000000000000000E+020
  9
$PEXTMAX
 10
1.0000000000000000E+020
 20
1.0000000000000000E+020
 30
1.0000000000000000E+020
  9
$PLIMMIN
 10
0.0
 20
0.0
  9
$PLIMMAX
 10
12.0
 20
9.0
  9
$UNITMODE
 70
     0
  9
$VISRETAIN
 70
     0
  9
$PLINEGEN
 70
     0
  9
$PSLTSCALE
 70
     0
  0
ENDSEC
  0
SECTION
  2
TABLES
  0
TABLE
  2
VPORT
 70
     1
  0
VPORT
  2
*ACTIVE
 70
     0
 10
0.0
 20
0.0
 11
1.0
 21
1.0
 12
402.95369383777239
 22
-22.930989224982572
 13
0.0
 23
0.0
 14
1.0
 24
1.0
 15
0.0
 25
0.0
 16
0.0
 26
0.0
 36
1.0
 17
0.0
 27
0.0
 37
0.0
 40
1072.6316046879001
 41
1.2435374149659859
 42
50.0
 43
0.0
 44
0.0
 50
0.0
 51
0.0
 71
     0
 72
  1000
 73
     1
 74
     0
 75
     0
 76
     0
 77
     0
 78
     0
  0
ENDTAB
  0
TABLE
  2
LTYPE
 70
     3
  0
LTYPE
  2
CONTINUOUS
 70
     0
  3
実線
 72
    65
 73
     0
 40
0.0
  0
LTYPE
  2
DASHDOT
 70
     0
  3
____ _ ____ _ ____ _ ____ _ ____ _ ____ _ ____
 72
    65
 73
     4
 40
5.5
 49
4.0
 49
-0.6
 49
0.3
 49
-0.6
  0
LTYPE
  2
HIDDEN
 70
     0
  3
Hidden __ __ __ __ __ __ __ __ __ __ __ __ __ _
 72
    65
 73
     2
 40
0.375
 49
0.25
 49
-0.125
  0
ENDTAB
  0
TABLE
  2
LAYER
 70
    13
  0
LAYER
  2
0
 70
     0
 62
     7
  6
CONTINUOUS
  0
LAYER
  2
NOTE
 70
     0
 62
     4
  6
CONTINUOUS
  0
LAYER
  2
BASIS
 70
     0
 62
     6
  6
DASHDOT
  0
LAYER
  2
OUTLINE
 70
     0
 62
     3
  6
CONTINUOUS
  0
LAYER
  2
DETAIL
 70
     0
 62
     5
  6
CONTINUOUS
  0
LAYER
  2
SIZE
 70
     0
 62
    30
  6
CONTINUOUS
  0
LAYER
  2
ARRANGE
 70
     0
 62
     1
  6
CONTINUOUS
  0
LAYER
  2
DEFPOINTS
 70
     0
 62
     7
  6
CONTINUOUS
  0
LAYER
  2
ETC
 70
     0
 62
    61
  6
CONTINUOUS
  0
LAYER
  2
FIX
 70
     0
 62
    11
  6
CONTINUOUS
  0
LAYER
  2
SERVICESPACE
 70
     0
 62
     2
  6
DASHDOT
  0
LAYER
  2
SYMBOLLINE
 70
     0
 62
    15
  6
CONTINUOUS
  0
LAYER
  2
ARRENGE
 70
     0
 62
     1
  6
CONTINUOUS
  0
ENDTAB
  0
TABLE
  2
STYLE
 70
     3
  0
STYLE
  2
STANDARD
 70
     0
 40
64.0
 41
0.9
 50
0.0
 71
     0
 42
64.0
  3
SIMPLEX.shx
  4
BIGFONT.shx
  0
STYLE
  2
ANNOTATIVE
 70
     0
 40
0.0
 41
1.0
 50
0.0
 71
     0
 42
0.2
  3
txt
  4

  0
STYLE
  2

 70
     1
 40
0.0
 41
1.0
 50
0.0
 71
     0
 42
64.0
  3
ltypeshp.shx
  4

  0
ENDTAB
  0
TABLE
  2
VIEW
 70
     1
  0
VIEW
  2
ALL
 70
     0
 40
4282.6198079999967
 10
0.0
 20
41.309903999999989
 41
5940.0
 11
0.0
 21
0.0
 31
1.0
 12
0.0
 22
0.0
 32
0.0
 42
50.0
 43
0.0
 44
0.0
 50
0.0
 71
     0
  0
ENDTAB
  0
TABLE
  2
UCS
 70
     0
  0
ENDTAB
  0
TABLE
  2
APPID
 70
     6
  0
APPID
  2
ACAD
 70
     0
  0
APPID
  2
ACADANNOTATIVE
 70
     0
  0
APPID
  2
ACAD_MLEADERVER
 70
     0
  0
APPID
  2
AUTOCAD_POSTSCRIPT_FIGURE
 70
     0
  0
APPID
  2
CONTENTBLOCKDESCRIPTION
 70
     0
  0
APPID
  2
CONTENTBLOCKICON
 70
     0
  0
ENDTAB
  0
TABLE
  2
DIMSTYLE
 70
     2
  0
DIMSTYLE
  2
STANDARD
 70
     0
  3

  4

  5

  6

  7

 40
1.0
 41
0.18
 42
0.0625
 43
0.38
 44
0.18
 45
0.0
 46
0.0
 47
0.0
 48
0.0
140
0.18
141
0.09
142
0.0
143
25.399999999999999
144
1.0
145
0.0
146
1.0
147
0.09
 71
     0
 72
     0
 73
     1
 74
     1
 75
     0
 76
     0
 77
     0
 78
     0
170
     0
171
     2
172
     0
173
     0
174
     0
175
     0
176
     7
177
     7
178
     7
  0
DIMSTYLE
  2
ANNOTATIVE
 70
     0
  3

  4

  5

  6

  7

 40
1.0
 41
0.18
 42
0.0625
 43
0.38
 44
0.18
 45
0.0
 46
0.0
 47
0.0
 48
0.0
140
0.18
141
0.09
142
0.0
143
25.399999999999999
144
1.0
145
0.0
146
1.0
147
0.09
 71
     0
 72
     0
 73
     1
 74
     1
 75
     0
 76
     0
 77
     0
 78
     0
170
     0
171
     2
172
     0
173
     0
174
     0
175
     0
176
     0
177
     0
178
     0
  0
ENDTAB
  0
ENDSEC
  0
SECTION
  2
BLOCKS
  0
BLOCK
  8
0
  2
$MODEL_SPACE
 70
     0
 10
0.0
 20
0.0
 30
0.0
  3
$MODEL_SPACE
  1

  0
ENDBLK
  5
452
  8
0
  0
BLOCK
 67
     1
  8
0
  2
$PAPER_SPACE
 70
     0
 10
0.0
 20
0.0
 30
0.0
  3
$PAPER_SPACE
  1

  0
ENDBLK
  5
44E
 67
     1
  8
0
  0
BLOCK
  8
0
  2
DOT1
 70
     0
 10
0.0
 20
0.0
 30
0.0
  3
DOT1
  1

  0
CIRCLE
  5
2DC
  8
SIZE
  6
CONTINUOUS
 62
     7
 10
0.0
 20
0.0
 30
0.0
 40
3.0
  0
ENDBLK
  5
2DD
  8
0
  0
BLOCK
  8
0
  2
_ORIGIN
 70
     0
 10
0.0
 20
0.0
 30
0.0
  3
_ORIGIN
  1

  0
CIRCLE
  5
2E0
  8
0
  6
CONTINUOUS
 62
     7
 10
0.0
 20
0.0
 30
0.0
 40
0.5
  0
LINE
  5
2E1
  8
0
  6
CONTINUOUS
 62
     7
 10
0.0
 20
0.0
 30
0.0
 11
-1.0
 21
0.0
 31
0.0
  0
ENDBLK
  5
2E2
  8
0
  0
BLOCK
  8
0
 62
     1
  2
配置点
 70
     0
 10
0.0
 20
0.0
 30
0.0
  3
配置点
  1

  0
LINE
  5
389
  8
ARRENGE
 62
     1
 10
189.77681747763211
 20
149.03934829407481
 30
0.0
 11
218.06108872509409
 21
177.3236195415368
 31
0.0
  0
LINE
  5
38A
  8
ARRENGE
 62
     1
 10
189.77681747763211
 20
177.3236195415368
 30
0.0
 11
218.06108872509409
 21
149.03934829407481
 31
0.0
  0
CIRCLE
  5
38B
  8
ARRENGE
 62
     1
 10
203.91895310136309
 20
163.18148391780579
 30
0.0
 40
40.0
  0
ENDBLK
  5
38D
  8
0
 62
     1
  0
ENDSEC
  0
SECTION
  2
ENTITIES
  0
LINE
  5
2E3
  8
BASIS
  6
DASHDOT
 62
     6
 39
50.0
 10
-90.887009999999961
 20
0.0
 30
0.0
 11
152.08586199999999
 21
0.0
 31
0.0
  0
LINE
  5
2E6
  8
DETAIL
  6
CONTINUOUS
 62
     5
 39
50.0
 10
-0.0000000000000032
 20
104.9999999999999
 30
0.0
 11
-0.0000000000000032
 21
-104.9999999999999
 31
0.0
  0
LINE
  5
2E7
  8
DETAIL
  6
CONTINUOUS
 62
     5
 39
50.0
 10
-0.0000000000000032
 20
-104.9999999999999
 30
0.0
 11
-36.171613000000008
 21
-104.9999999999999
 31
0.0
  0
LINE
  5
2E8
  8
DETAIL
  6
CONTINUOUS
 62
     5
 39
50.0
 10
-38.936421000000003
 20
104.9999999999999
 30
0.0
 11
-0.0000000000000032
 21
104.9999999999999
 31
0.0
  0
ARC
  5
2E9
  8
DETAIL
  6
CONTINUOUS
 62
     5
 39
50.0
 10
389.33999999999992
 20
6.2119999999999962
 30
0.0
 40
447.38312899999988
 50
168.28765799999999
 51
193.379717
  0
ARC
  5
2EA
  8
DETAIL
  6
CONTINUOUS
 62
     5
 39
50.0
 10
-38.936421000000003
 20
95.0
 30
0.0
 40
10.0
 50
90.0
 51
168.28765799999999
  0
ARC
  5
2EB
  8
DETAIL
  6
CONTINUOUS
 62
     5
 39
50.0
 10
-36.171613000000008
 20
-94.999999999999986
 30
0.0
 40
10.0
 50
193.379717
 51
270.0
  0
LINE
  5
2EC
  8
DETAIL
  6
CONTINUOUS
 62
     5
 39
50.0
 10
-50.424540999999998
 20
-75.999999999999972
 30
0.0
 11
-38.924540999999998
 21
-75.999999999999972
 31
0.0
  0
LINE
  5
2ED
  8
DETAIL
  6
CONTINUOUS
 62
     5
 39
50.0
 10
-38.924540999999998
 20
-75.999999999999972
 30
0.0
 11
-35.924540999999998
 21
-104.9999999999999
 31
0.0
  0
LINE
  5
2EE
  8
DETAIL
  6
CONTINUOUS
 62
     5
 39
50.0
 10
-0.0000000000000032
 20
-69.999999999999972
 30
0.0
 11
60.0
 21
-69.999999999999972
 31
0.0
  0
LINE
  5
2EF
  8
DETAIL
  6
CONTINUOUS
 62
     5
 39
50.0
 10
60.0
 20
-69.999999999999972
 30
0.0
 11
60.0
 21
35.000000000000007
 31
0.0
  0
LINE
  5
2F0
  8
DETAIL
  6
CONTINUOUS
 62
     5
 39
50.0
 10
60.0
 20
69.999999999999986
 30
0.0
 11
-0.0000000000000032
 21
69.999999999999986
 31
0.0
  0
LINE
  5
2F1
  8
DETAIL
  6
CONTINUOUS
 62
     5
 39
50.0
 10
60.0
 20
31.5
 30
0.0
 11
67.0
 21
31.5
 31
0.0
  0
LINE
  5
2F2
  8
DETAIL
  6
CONTINUOUS
 62
     5
 39
50.0
 10
72.0
 20
26.5
 30
0.0
 11
72.0
 21
-26.49999999999995
 31
0.0
  0
LINE
  5
2F3
  8
DETAIL
  6
CONTINUOUS
 62
     5
 39
50.0
 10
67.0
 20
-31.499999999999961
 30
0.0
 11
60.0
 21
-31.499999999999961
 31
0.0
  0
ARC
  5
2F4
  8
DETAIL
  6
CONTINUOUS
 62
     5
 39
50.0
 10
67.0
 20
26.5
 30
0.0
 40
5.0
 50
0.0
 51
90.0
  0
ARC
  5
2F5
  8
DETAIL
  6
CONTINUOUS
 62
     5
 39
50.0
 10
67.0
 20
-26.49999999999995
 30
0.0
 40
5.0
 50
270.0
 51
0.0
  0
LINE
  5
2F6
  8
DETAIL
  6
CONTINUOUS
 62
     5
 39
50.0
 10
60.0
 20
64.999999999999972
 30
0.0
 11
-0.0000000000000032
 21
64.999999999999972
 31
0.0
  0
LINE
  5
2F7
  8
DETAIL
  6
CONTINUOUS
 62
     5
 39
50.0
 10
60.0
 20
35.000000000000007
 30
0.0
 11
47.999999999999979
 21
35.000000000000007
 31
0.0
  0
LINE
  5
2F8
  8
DETAIL
  6
CONTINUOUS
 62
     5
 39
50.0
 10
31.25826799999999
 20
37.952018999999993
 30
0.0
 11
31.25826799999999
 21
46.952018999999993
 31
0.0
  0
LINE
  5
2F9
  8
DETAIL
  6
CONTINUOUS
 62
     5
 39
50.0
 10
47.999999999999979
 20
35.000000000000007
 30
0.0
 11
31.25826799999999
 21
37.952018999999993
 31
0.0
  0
LINE
  5
2FA
  8
DETAIL
  6
CONTINUOUS
 62
     5
 39
50.0
 10
47.999999999999979
 20
43.978225999999992
 30
0.0
 11
31.25826799999999
 21
46.930244999999992
 31
0.0
  0
LINE
  5
2FB
  8
DETAIL
  6
CONTINUOUS
 62
     5
 39
50.0
 10
47.999999999999979
 20
43.978225999999992
 30
0.0
 11
60.0
 21
43.978225999999992
 31
0.0
  0
LINE
  5
2FC
  8
DETAIL
  6
CONTINUOUS
 62
     5
 39
50.0
 10
47.999999999999979
 20
43.978225999999992
 30
0.0
 11
47.999999999999979
 21
35.000000000000007
 31
0.0
  0
LINE
  5
2FD
  8
DETAIL
  6
CONTINUOUS
 62
     5
 39
50.0
 10
57.999999999999979
 20
43.978225999999992
 30
0.0
 11
57.999999999999979
 21
35.000000000000007
 31
0.0
  0
LINE
  5
2FE
  8
DETAIL
  6
CONTINUOUS
 62
     5
 39
50.0
 10
60.0
 20
43.978225999999992
 30
0.0
 11
60.0
 21
69.999999999999986
 31
0.0
  0
ARC
  5
313
  8
FIX
  6
CONTINUOUS
 62
    11
 39
50.0
 10
-0.0000000000000032
 20
0.0
 30
0.0
 40
2.0
 50
180.0
 51
0.0
  0
ARC
  5
314
  8
FIX
  6
CONTINUOUS
 62
    11
 39
50.0
 10
-0.0000000000000032
 20
5.9999999999999769
 30
0.0
 40
2.0
 50
0.0
 51
180.0
  0
LINE
  5
315
  8
FIX
  6
CONTINUOUS
 62
    11
 39
50.0
 10
1.9999999999999949
 20
5.9999999999999769
 30
0.0
 11
1.9999999999999949
 21
0.0
 31
0.0
  0
LINE
  5
316
  8
FIX
  6
CONTINUOUS
 62
    11
 39
50.0
 10
-2.0000000000000031
 20
5.9999999999999769
 30
0.0
 11
-2.0000000000000031
 21
0.0
 31
0.0
  0
LINE
  5
317
  8
NOTE
  6
CONTINUOUS
 62
     4
 10
-0.0000000000000032
 20
-19.999999999999972
 30
0.0
 11
-0.0000000000000032
 21
20.0
 31
0.0
  0
LINE
  5
318
  8
NOTE
  6
CONTINUOUS
 62
     4
 10
-19.999999999999989
 20
0.0
 30
0.0
 11
19.999999999999989
 21
0.0
 31
0.0
  0
LINE
  5
319
  8
NOTE
  6
CONTINUOUS
 62
     4
 39
50.0
 10
-0.0000000000000032
 20
0.0
 30
0.0
 11
-0.0000000000000032
 21
5.9999999999999769
 31
0.0
  0
LINE
  5
31A
  8
NOTE
  6
CONTINUOUS
 62
     4
 10
-0.0000000000000032
 20
-14.0
 30
0.0
 11
-0.0000000000000032
 21
25.999999999999989
 31
0.0
  0
LINE
  5
31B
  8
NOTE
  6
CONTINUOUS
 62
     4
 10
-19.999999999999989
 20
5.9999999999999769
 30
0.0
 11
19.999999999999989
 21
5.9999999999999769
 31
0.0
  0
LINE
  5
31C
  8
SIZE
  6
CONTINUOUS
 62
    30
 10
-58.936421000000003
 20
104.9999999999999
 30
0.0
 11
-151.38378399999979
 21
104.9999999999999
 31
0.0
  0
LINE
  5
31D
  8
SIZE
  6
CONTINUOUS
 62
    30
 10
-58.936421000000003
 20
-104.9999999999999
 30
0.0
 11
-151.38378399999979
 21
-104.9999999999999
 31
0.0
  0
LINE
  5
31E
  8
SIZE
  6
CONTINUOUS
 62
    30
 10
-131.38378399999991
 20
104.9999999999999
 30
0.0
 11
-131.38378399999991
 21
-104.9999999999999
 31
0.0
  0
CIRCLE
  5
31F
  8
SIZE
  6
CONTINUOUS
 62
    30
 10
-131.38378399999991
 20
104.9999999999999
 30
0.0
 40
6.0
  0
CIRCLE
  5
320
  8
SIZE
  6
CONTINUOUS
 62
    30
 10
-131.38378399999991
 20
-104.9999999999999
 30
0.0
 40
6.0
  0
TEXT
  5
321
  8
SIZE
  6
CONTINUOUS
 62
    30
 10
-156.38378399999991
 20
-105.0514285714286
 30
0.0
 40
64.0
  1
□210
 50
90.0
 41
0.9
 72
     1
 11
-156.38378399999991
 21
0.0
 31
0.0
  0
LINE
  5
322
  8
SIZE
  6
CONTINUOUS
 62
    30
 10
80.0
 20
-69.999999999999972
 30
0.0
 11
428.9117563749806
 21
-69.999999999999972
 31
0.0
  0
LINE
  5
323
  8
SIZE
  6
CONTINUOUS
 62
    30
 10
80.0
 20
69.999999999999986
 30
0.0
 11
431.639376218346
 21
69.999999999999986
 31
0.0
  0
LINE
  5
324
  8
SIZE
  6
CONTINUOUS
 62
    30
 10
413.83749989225481
 20
57.999999999999993
 30
0.0
 11
413.83749989225481
 21
-57.999999999999972
 31
0.0
  0
LINE
  5
325
  8
SIZE
  6
CONTINUOUS
 62
    30
 10
413.83749989225481
 20
-69.999999999999972
 30
0.0
 11
413.83749989225481
 21
-333.44971499999991
 31
0.0
  0
CIRCLE
  5
326
  8
SIZE
  6
CONTINUOUS
 62
    30
 10
413.83749989225481
 20
69.999999999999986
 30
0.0
 40
6.0
  0
LINE
  5
327
  8
SIZE
  6
CONTINUOUS
 62
    30
 10
413.83749989225481
 20
69.999999999999986
 30
0.0
 11
413.83749989225481
 21
57.999999999999993
 31
0.0
  0
CIRCLE
  5
328
  8
SIZE
  6
CONTINUOUS
 62
    30
 10
413.83749989225481
 20
-69.999999999999972
 30
0.0
 40
6.0
  0
LINE
  5
329
  8
SIZE
  6
CONTINUOUS
 62
    30
 10
413.83749989225481
 20
-69.999999999999972
 30
0.0
 11
413.83749989225481
 21
-57.999999999999972
 31
0.0
  0
TEXT
  5
32A
  8
SIZE
  6
CONTINUOUS
 62
    30
 10
388.83749989225458
 20
-322.71257157142861
 30
0.0
 40
64.0
  1
φ140
 50
90.0
 41
0.9
 72
     1
 11
388.83749989225458
 21
-213.82114300000001
 31
0.0
  0
LINE
  5
32B
  8
SIZE
  6
CONTINUOUS
 62
    30
 10
60.0
 20
-89.999999999999986
 30
0.0
 11
60.0
 21
-276.09069939922068
 31
0.0
  0
LINE
  5
32C
  8
SIZE
  6
CONTINUOUS
 62
    30
 10
72.0
 20
-262.80536818336532
 30
0.0
 11
229.7953731482234
 21
-262.80536818336532
 31
0.0
  0
LINE
  5
32D
  8
SIZE
  6
CONTINUOUS
 62
    30
 10
-0.0000000000000032
 20
-262.80536818336532
 30
0.0
 11
60.0
 21
-262.80536818336532
 31
0.0
  0
CIRCLE
  5
32E
  8
SIZE
  6
CONTINUOUS
 62
    30
 10
-0.0000000000000032
 20
-262.80536818336532
 30
0.0
 40
6.0
  0
CIRCLE
  5
32F
  8
SIZE
  6
CONTINUOUS
 62
    30
 10
60.0
 20
-262.80536818336532
 30
0.0
 40
6.0
  0
LINE
  5
330
  8
SIZE
  6
CONTINUOUS
 62
    30
 10
60.0
 20
-262.80536818336532
 30
0.0
 11
72.0
 21
-262.80536818336532
 31
0.0
  0
TEXT
  5
331
  8
SIZE
  6
CONTINUOUS
 62
    30
 10
120.6905083424796
 20
-237.8053681833652
 30
0.0
 40
64.0
  1
60
 41
0.9
 72
     1
 11
167.31907977105109
 21
-237.8053681833652
 31
0.0
  0
LINE
  5
332
  8
SIZE
  6
CONTINUOUS
 62
    30
 10
72.0
 20
-46.499999999999957
 30
0.0
 11
72.0
 21
-421.02010261564629
 31
0.0
  0
LINE
  5
333
  8
SIZE
  6
CONTINUOUS
 62
    30
 10
11.999999999999989
 20
-403.07202018336511
 30
0.0
 11
65.0
 21
-403.07202018336511
 31
0.0
  0
LINE
  5
334
  8
SIZE
  6
CONTINUOUS
 62
    30
 10
77.0
 20
-403.07202018336511
 30
0.0
 11
222.97631979922409
 21
-403.07202018336511
 31
0.0
  0
CIRCLE
  5
335
  8
SIZE
  6
CONTINUOUS
 62
    30
 10
-0.0000000000000032
 20
-403.07202018336511
 30
0.0
 40
6.0
  0
LINE
  5
336
  8
SIZE
  6
CONTINUOUS
 62
    30
 10
-0.0000000000000032
 20
-403.07202018336511
 30
0.0
 11
11.999999999999989
 21
-403.07202018336511
 31
0.0
  0
CIRCLE
  5
337
  8
SIZE
  6
CONTINUOUS
 62
    30
 10
72.0
 20
-403.07202018336511
 30
0.0
 40
6.0
  0
LINE
  5
338
  8
SIZE
  6
CONTINUOUS
 62
    30
 10
77.0
 20
-403.07202018336511
 30
0.0
 11
65.0
 21
-403.07202018336511
 31
0.0
  0
TEXT
  5
339
  8
SIZE
  6
CONTINUOUS
 62
    30
 10
120.6905083424797
 20
-378.07202018336523
 30
0.0
 40
64.0
  1
72
 41
0.9
 72
     1
 11
167.31907977105121
 21
-378.07202018336523
 31
0.0
  0
LINE
  5
33A
  8
SIZE
  6
CONTINUOUS
 62
    30
 10
-58.0
 20
-19.999999999999972
 30
0.0
 11
-58.0
 21
-419.65686257865002
 31
0.0
  0
LINE
  5
33B
  8
SIZE
  6
CONTINUOUS
 62
    30
 10
-0.0000000000000032
 20
-124.9999999999999
 30
0.0
 11
-0.0000000000000032
 21
-419.65686257865002
 31
0.0
  0
LINE
  5
33C
  8
SIZE
  6
CONTINUOUS
 62
    30
 10
11.999999999999989
 20
-403.07202018336511
 30
0.0
 11
23.999999999999989
 21
-403.07202018336511
 31
0.0
  0
LINE
  5
33D
  8
SIZE
  6
CONTINUOUS
 62
    30
 10
-70.0
 20
-403.07202018336511
 30
0.0
 11
-225.2571429999999
 21
-403.07202018336511
 31
0.0
  0
LINE
  5
33E
  8
SIZE
  6
CONTINUOUS
 62
    30
 10
-0.0000000000000032
 20
-403.07202018336511
 30
0.0
 11
-58.0
 21
-403.07202018336511
 31
0.0
  0
CIRCLE
  5
33F
  8
SIZE
  6
CONTINUOUS
 62
    30
 10
-0.0000000000000032
 20
-403.07202018336511
 30
0.0
 40
6.0
  0
LINE
  5
340
  8
SIZE
  6
CONTINUOUS
 62
    30
 10
-0.0000000000000032
 20
-403.07202018336511
 30
0.0
 11
11.999999999999989
 21
-403.07202018336511
 31
0.0
  0
CIRCLE
  5
341
  8
SIZE
  6
CONTINUOUS
 62
    30
 10
-58.0
 20
-403.07202018336511
 30
0.0
 40
6.0
  0
LINE
  5
342
  8
SIZE
  6
CONTINUOUS
 62
    30
 10
-58.0
 20
-403.07202018336511
 30
0.0
 11
-70.0
 21
-403.07202018336511
 31
0.0
  0
TEXT
  5
343
  8
SIZE
  6
CONTINUOUS
 62
    30
 10
-200.2571424285714
 20
-378.07202018336523
 30
0.0
 40
64.0
  1
58
 41
0.9
 72
     1
 11
-153.62857099999999
 21
-378.07202018336523
 31
0.0
  0
TEXT
  5
344
  8
NOTE
  6
CONTINUOUS
 62
     4
 10
134.65582099999969
 20
131.20128099999991
 30
0.0
 40
64.0
  1
2ヶ所×4×10取付用長穴
 41
0.9
  0
LINE
  5
345
  8
NOTE
  6
CONTINUOUS
 62
     4
 39
50.0
 10
-0.0000000000000032
 20
5.9999999999999769
 30
0.0
 11
125.4543459999998
 21
116.80816899999991
 31
0.0
  0
LINE
  5
346
  8
NOTE
  6
CONTINUOUS
 62
     4
 39
50.0
 10
125.4543459999998
 20
116.80816899999991
 30
0.0
 11
956.37025999999969
 21
116.80816899999991
 31
0.0
  0
LINE
  5
347
  8
NOTE
  6
CONTINUOUS
 62
     4
 10
21.75137999999999
 20
39.568995999999991
 30
0.0
 11
-0.0000000000000032
 21
5.9999999999999769
 31
0.0
  0
LINE
  5
348
  8
NOTE
  6
CONTINUOUS
 62
     4
 10
-0.0000000000000032
 20
5.9999999999999769
 30
0.0
 11
35.621745999999987
 21
24.195913000000001
 31
0.0
  0
LINE
  5
349
  8
SIZE
  6
CONTINUOUS
 62
    30
 10
40.0
 20
5.9999999999999769
 30
0.0
 11
225.542914
 21
5.9999999999999769
 31
0.0
  0
LINE
  5
34A
  8
SIZE
  6
CONTINUOUS
 62
    30
 10
19.999999999999989
 20
0.0
 30
0.0
 11
225.542914
 21
0.0
 31
0.0
  0
LINE
  5
34B
  8
SIZE
  6
CONTINUOUS
 62
    30
 10
205.5429139999998
 20
18.0
 30
0.0
 11
205.5429139999998
 21
30.000000000000011
 31
0.0
  0
LINE
  5
34C
  8
SIZE
  6
CONTINUOUS
 62
    30
 10
205.5429139999998
 20
-11.99999999999997
 30
0.0
 11
205.5429139999998
 21
-58.39838299913194
 31
0.0
  0
LINE
  5
34D
  8
SIZE
  6
CONTINUOUS
 62
    30
 10
205.5429139999998
 20
5.9999999999999769
 30
0.0
 11
205.5429139999998
 21
0.0
 31
0.0
  0
CIRCLE
  5
34E
  8
SIZE
  6
CONTINUOUS
 62
    30
 10
205.5429139999998
 20
5.9999999999999769
 30
0.0
 40
6.0
  0
LINE
  5
34F
  8
SIZE
  6
CONTINUOUS
 62
    30
 10
205.5429139999998
 20
5.9999999999999769
 30
0.0
 11
205.5429139999998
 21
18.0
 31
0.0
  0
CIRCLE
  5
350
  8
SIZE
  6
CONTINUOUS
 62
    30
 10
205.5429139999998
 20
0.0
 30
0.0
 40
6.0
  0
LINE
  5
351
  8
SIZE
  6
CONTINUOUS
 62
    30
 10
205.5429139999998
 20
0.0
 30
0.0
 11
205.5429139999998
 21
-11.99999999999997
 31
0.0
  0
TEXT
  5
352
  8
SIZE
  6
CONTINUOUS
 62
    30
 10
180.54291399999991
 20
-51.58218531846795
 30
0.0
 40
64.0
  1
6
 50
90.0
 41
0.9
 72
     1
 11
180.54291399999991
 21
-33.753613889896528
 31
0.0
  0
LINE
  5
353
  8
NOTE
  6
CONTINUOUS
 62
     4
 10
-17.64092299999999
 20
53.088689000000002
 30
0.0
 11
-17.64092299999999
 21
93.08868899999996
 31
0.0
  0
LINE
  5
354
  8
NOTE
  6
CONTINUOUS
 62
     4
 10
-37.640923000000008
 20
73.088688999999945
 30
0.0
 11
2.3590769999999961
 21
73.088688999999945
 31
0.0
  0
TEXT
  5
355
  8
NOTE
  6
CONTINUOUS
 62
     4
 10
150.08149599999979
 20
237.81293199999971
 30
0.0
 40
64.0
  1
EL
 41
0.9
  0
LINE
  5
356
  8
NOTE
  6
CONTINUOUS
 62
     4
 10
4.107176999999993
 20
106.65980999999979
 30
0.0
 11
-17.64092299999999
 21
73.088688999999945
 31
0.0
  0
LINE
  5
357
  8
NOTE
  6
CONTINUOUS
 62
     4
 10
-17.64092299999999
 20
73.088688999999945
 30
0.0
 11
17.979044999999982
 21
91.28808199999996
 31
0.0
  0
LINE
  5
358
  8
NOTE
  6
CONTINUOUS
 62
     4
 39
50.0
 10
149.25208399999991
 20
217.91713399999981
 30
0.0
 11
240.2875479999997
 21
217.91713399999981
 31
0.0
  0
LINE
  5
359
  8
NOTE
  6
CONTINUOUS
 62
     4
 39
50.0
 10
149.25208399999991
 20
217.91713399999981
 30
0.0
 11
-17.64092299999999
 21
73.088688999999945
 31
0.0
  0
LINE
  5
35A
  8
DETAIL
  6
HIDDEN
 62
     5
 10
-22.475000999999999
 20
57.714107999999989
 30
0.0
 11
-22.475000999999999
 21
87.061933999999965
 31
0.0
  0
LINE
  5
35B
  8
DETAIL
  6
HIDDEN
 62
     5
 10
-21.594565999999979
 20
67.496715999999992
 30
0.0
 11
-21.594565999999979
 21
57.714107999999989
 31
0.0
  0
LINE
  5
35C
  8
DETAIL
  6
HIDDEN
 62
     5
 10
-17.485870999999982
 20
67.496715999999992
 30
0.0
 11
-17.485870999999982
 21
57.714107999999989
 31
0.0
  0
LINE
  5
35D
  8
DETAIL
  6
HIDDEN
 62
     5
 10
-13.475000999999979
 20
57.714107999999989
 30
0.0
 11
-13.475000999999979
 21
87.061933999999965
 31
0.0
  0
LINE
  5
35E
  8
DETAIL
  6
HIDDEN
 62
     5
 10
-13.475000999999979
 20
57.714107999999989
 30
0.0
 11
-22.475000999999999
 21
57.714107999999989
 31
0.0
  0
LINE
  5
35F
  8
DETAIL
  6
HIDDEN
 62
     5
 10
-13.475000999999979
 20
60.257585999999989
 30
0.0
 11
-22.475000999999999
 21
60.257585999999989
 31
0.0
  0
LINE
  5
360
  8
DETAIL
  6
HIDDEN
 62
     5
 10
-13.475000999999979
 20
60.84454199999999
 30
0.0
 11
-22.475000999999999
 21
60.84454199999999
 31
0.0
  0
LINE
  5
361
  8
DETAIL
  6
HIDDEN
 62
     5
 10
-13.475000999999979
 20
61.627150999999991
 30
0.0
 11
-22.475000999999999
 21
61.627150999999991
 31
0.0
  0
LINE
  5
362
  8
DETAIL
  6
HIDDEN
 62
     5
 10
-23.257609999999978
 20
59.670628999999998
 30
0.0
 11
-23.257609999999978
 21
61.138020999999988
 31
0.0
  0
LINE
  5
363
  8
DETAIL
  6
HIDDEN
 62
     5
 10
-22.475000999999999
 20
59.670628999999998
 30
0.0
 11
-23.257609999999978
 21
59.670628999999998
 31
0.0
  0
LINE
  5
364
  8
DETAIL
  6
HIDDEN
 62
     5
 10
-22.475000999999999
 20
61.138020999999988
 30
0.0
 11
-23.257609999999978
 21
61.138020999999988
 31
0.0
  0
LINE
  5
365
  8
DETAIL
  6
HIDDEN
 62
     5
 10
-13.475000999999979
 20
83.148889999999994
 30
0.0
 11
-22.475000999999999
 21
83.148889999999994
 31
0.0
  0
LINE
  5
366
  8
DETAIL
  6
HIDDEN
 62
     5
 10
-13.475000999999979
 20
83.931499000000002
 30
0.0
 11
-22.475000999999999
 21
83.931499000000002
 31
0.0
  0
LINE
  5
367
  8
DETAIL
  6
HIDDEN
 62
     5
 10
-13.475000999999979
 20
84.518455000000003
 30
0.0
 11
-22.475000999999999
 21
84.518455000000003
 31
0.0
  0
LINE
  5
368
  8
DETAIL
  6
HIDDEN
 62
     5
 10
-13.96413199999999
 20
85.301063999999997
 30
0.0
 11
-17.485870999999982
 21
85.301063999999997
 31
0.0
  0
LINE
  5
369
  8
DETAIL
  6
HIDDEN
 62
     5
 10
-13.475000999999979
 20
87.061933999999965
 30
0.0
 11
-22.475000999999999
 21
87.061933999999965
 31
0.0
  0
LINE
  5
36A
  8
DETAIL
  6
HIDDEN
 62
     5
 10
-23.257609999999978
 20
74.344541999999976
 30
0.0
 11
-23.257609999999978
 21
79.235846999999978
 31
0.0
  0
LINE
  5
36B
  8
DETAIL
  6
HIDDEN
 62
     5
 10
-17.485870999999982
 20
67.496715999999992
 30
0.0
 11
-21.594565999999979
 21
67.496715999999992
 31
0.0
  0
LINE
  5
36C
  8
DETAIL
  6
HIDDEN
 62
     5
 10
-22.475000999999999
 20
74.344541999999976
 30
0.0
 11
-23.257609999999978
 21
74.344541999999976
 31
0.0
  0
LINE
  5
36D
  8
DETAIL
  6
HIDDEN
 62
     5
 10
-17.485870999999982
 20
87.061933999999965
 30
0.0
 11
-17.485870999999982
 21
85.301063999999997
 31
0.0
  0
LINE
  5
36E
  8
DETAIL
  6
HIDDEN
 62
     5
 10
-22.475000999999999
 20
79.235846999999978
 30
0.0
 11
-23.257609999999978
 21
79.235846999999978
 31
0.0
  0
LINE
  5
36F
  8
DETAIL
  6
HIDDEN
 62
     5
 10
-13.96413199999999
 20
87.061933999999965
 30
0.0
 11
-13.96413199999999
 21
85.301063999999997
 31
0.0
  0
TEXT
  5
370
  8
ETC
  6
CONTINUOUS
 62
    61
 10
604.24350439689385
 20
260.36464593378821
 30
0.0
 40
40.0
  1
V-12PSD6
 41
0.9
  0
TEXT
  5
371
  8
ETC
  6
CONTINUOUS
 62
    61
 10
501.51515969382098
 20
387.14341948772909
 30
0.0
 40
50.0
  1
V-12PSD6_4
 41
0.9
  0
TEXT
  5
372
  8
ETC
  6
CONTINUOUS
 62
    61
 10
497.1022976938209
 20
320.35600348772908
 30
0.0
 40
50.0
  1
換気扇
 41
0.9
  0
LINE
  5
374
  8
OUTLINE
  6
CONTINUOUS
 62
     3
 39
50.0
 10
-0.0000000000000142
 20
-70.0
 30
0.0
 11
60.0
 21
-70.0
 31
0.0
  0
LINE
  5
375
  8
OUTLINE
  6
CONTINUOUS
 62
     3
 39
50.0
 10
60.0
 20
70.0
 30
0.0
 11
-0.0000000000000142
 21
70.0
 31
0.0
  0
ARC
  5
376
  8
OUTLINE
  6
CONTINUOUS
 62
     3
 39
50.0
 10
389.33999999999992
 20
6.2119999999999891
 30
0.0
 40
447.38312899999988
 50
168.28765799999999
 51
193.379717
  0
LINE
  5
377
  8
OUTLINE
  6
CONTINUOUS
 62
     3
 39
50.0
 10
-0.0000000000000142
 20
105.0
 30
0.0
 11
-0.0000000000000142
 21
-105.0
 31
0.0
  0
LINE
  5
378
  8
OUTLINE
  6
CONTINUOUS
 62
     3
 39
50.0
 10
-0.0000000000000142
 20
-105.0
 30
0.0
 11
-36.171613000000022
 21
-105.0
 31
0.0
  0
ARC
  5
379
  8
OUTLINE
  6
CONTINUOUS
 62
     3
 39
50.0
 10
-36.171613000000022
 20
-95.0
 30
0.0
 40
10.0
 50
193.379717
 51
270.0
  0
LINE
  5
37A
  8
OUTLINE
  6
CONTINUOUS
 62
     3
 39
50.0
 10
-38.936421000000017
 20
105.0
 30
0.0
 11
-0.0000000000000142
 21
105.0
 31
0.0
  0
ARC
  5
37B
  8
OUTLINE
  6
CONTINUOUS
 62
     3
 39
50.0
 10
-38.936421000000017
 20
95.0
 30
0.0
 40
10.0
 50
90.0
 51
168.28765799999999
  0
LINE
  5
37C
  8
OUTLINE
  6
CONTINUOUS
 62
     3
 39
50.0
 10
66.999999999999986
 20
-31.49999999999995
 30
0.0
 11
60.0
 21
-31.49999999999995
 31
0.0
  0
ARC
  5
37D
  8
OUTLINE
  6
CONTINUOUS
 62
     3
 39
50.0
 10
66.999999999999986
 20
-26.49999999999995
 30
0.0
 40
5.0
 50
270.0
 51
0.0
  0
LINE
  5
37E
  8
OUTLINE
  6
CONTINUOUS
 62
     3
 39
50.0
 10
71.999999999999986
 20
26.5
 30
0.0
 11
71.999999999999986
 21
-26.49999999999995
 31
0.0
  0
LINE
  5
37F
  8
OUTLINE
  6
CONTINUOUS
 62
     3
 39
50.0
 10
60.0
 20
-70.0
 30
0.0
 11
60.0
 21
35.0
 31
0.0
  0
LINE
  5
380
  8
OUTLINE
  6
CONTINUOUS
 62
     3
 39
50.0
 10
60.0
 20
43.978225999999999
 30
0.0
 11
60.0
 21
70.0
 31
0.0
  0
LINE
  5
381
  8
OUTLINE
  6
CONTINUOUS
 62
     3
 39
50.0
 10
60.0
 20
35.0
 30
0.0
 11
47.999999999999972
 21
35.0
 31
0.0
  0
LINE
  5
382
  8
OUTLINE
  6
CONTINUOUS
 62
     3
 39
50.0
 10
47.999999999999972
 20
43.978225999999999
 30
0.0
 11
60.0
 21
43.978225999999999
 31
0.0
  0
LINE
  5
383
  8
OUTLINE
  6
CONTINUOUS
 62
     3
 39
50.0
 10
47.999999999999972
 20
35.0
 30
0.0
 11
31.25826799999998
 21
37.952019
 31
0.0
  0
LINE
  5
384
  8
OUTLINE
  6
CONTINUOUS
 62
     3
 39
50.0
 10
31.25826799999998
 20
37.952019
 30
0.0
 11
31.25826799999998
 21
46.952018999999993
 31
0.0
  0
LINE
  5
385
  8
OUTLINE
  6
CONTINUOUS
 62
     3
 39
50.0
 10
47.999999999999972
 20
43.978225999999999
 30
0.0
 11
31.25826799999998
 21
46.930244999999992
 31
0.0
  0
LINE
  5
386
  8
OUTLINE
  6
CONTINUOUS
 62
     3
 39
50.0
 10
60.0
 20
31.5
 30
0.0
 11
66.999999999999986
 21
31.5
 31
0.0
  0
ARC
  5
387
  8
OUTLINE
  6
CONTINUOUS
 62
     3
 39
50.0
 10
66.999999999999986
 20
26.5
 30
0.0
 40
5.0
 50
0.0
 51
90.0
  0
LINE
  5
395
  8
ARRENGE
 62
     1
 10
-14.142135623730949
 20
-14.142135623730949
 30
0.0
 11
14.142135623730949
 21
14.142135623730949
 31
0.0
  0
LINE
  5
396
  8
ARRENGE
 62
     1
 10
-14.142135623730949
 20
14.142135623730949
 30
0.0
 11
14.142135623730949
 21
-14.142135623730949
 31
0.0
  0
CIRCLE
  5
397
  8
ARRENGE
 62
     1
 10
0.0
 20
0.0
 30
0.0
 40
40.0
  0
ENDSEC
  0
EOF
