  0
SECTION
  2
HEADER
  9
$ACADVER
  1
AC1009
  9
$INSBASE
 10
0.0
 20
0.0
 30
0.0
  9
$EXTMIN
 10
-956.67570404088656
 20
-414.3218876727878
 30
-0.0015257624927045
  9
$EXTMAX
 10
504.39606808870479
 20
377.15149703103998
 30
50.001525995323327
  9
$LIMMIN
 10
-2970.0
 20
-2100.0
  9
$LIMMAX
 10
2970.0
 20
2100.0
  9
$ORTHOMODE
 70
     1
  9
$REGENMODE
 70
     1
  9
$FILLMODE
 70
     1
  9
$QTEXTMODE
 70
     0
  9
$MIRRTEXT
 70
     0
  9
$DRAGMODE
 70
     2
  9
$LTSCALE
 40
20.0
  9
$OSMODE
 70
    47
  9
$ATTMODE
 70
     1
  9
$TEXTSIZE
 40
64.0
  9
$TRACEWID
 40
0.05
  9
$TEXTSTYLE
  7
STANDARD
  9
$CLAYER
  8
DETAIL
  9
$CELTYPE
  6
CONTINUOUS
  9
$CECOLOR
 62
     7
  9
$DIMSCALE
 40
1.0
  9
$DIMASZ
 40
12.0
  9
$DIMEXO
 40
20.0
  9
$DIMDLI
 40
200.0
  9
$DIMRND
 40
0.0
  9
$DIMDLE
 40
0.0
  9
$DIMEXE
 40
20.0
  9
$DIMTP
 40
0.0
  9
$DIMTM
 40
0.0
  9
$DIMTXT
 40
64.0
  9
$DIMCEN
 40
0.09
  9
$DIMTSZ
 40
0.0
  9
$DIMTOL
 70
     0
  9
$DIMLIM
 70
     0
  9
$DIMTIH
 70
     0
  9
$DIMTOH
 70
     0
  9
$DIMSE1
 70
     0
  9
$DIMSE2
 70
     0
  9
$DIMTAD
 70
     1
  9
$DIMZIN
 70
     8
  9
$DIMBLK
  1
DOT1
  9
$DIMASO
 70
     1
  9
$DIMSHO
 70
     0
  9
$DIMPOST
  1

  9
$DIMAPOST
  1

  9
$DIMALT
 70
     0
  9
$DIMALTD
 70
     2
  9
$DIMALTF
 40
25.399999999999999
  9
$DIMLFAC
 40
1.0
  9
$DIMTOFL
 70
     1
  9
$DIMTVP
 40
0.0
  9
$DIMTIX
 70
     1
  9
$DIMSOXD
 70
     0
  9
$DIMSAH
 70
     1
  9
$DIMBLK1
  1
ORIGIN
  9
$DIMBLK2
  1
ORIGIN
  9
$DIMSTYLE
  2
STANDARD
  9
$DIMCLRD
 70
     7
  9
$DIMCLRE
 70
     7
  9
$DIMCLRT
 70
     7
  9
$DIMTFAC
 40
1.0
  9
$DIMGAP
 40
25.0
  9
$LUNITS
 70
     2
  9
$LUPREC
 70
     4
  9
$SKETCHINC
 40
0.1
  9
$FILLETRAD
 40
5.0
  9
$AUNITS
 70
     1
  9
$AUPREC
 70
     3
  9
$MENU
  1
ACAD
  9
$ELEVATION
 40
0.0
  9
$PELEVATION
 40
0.0
  9
$THICKNESS
 40
50.0
  9
$LIMCHECK
 70
     0
  9
$BLIPMODE
 70
     0
  9
$CHAMFERA
 40
0.0
  9
$CHAMFERB
 40
0.0
  9
$SKPOLY
 70
     0
  9
$TDCREATE
 40
2453019.6230103709
  9
$TDUPDATE
 40
2455065.6980695948
  9
$TDINDWG
 40
0.3690278241
  9
$TDUSRTIMER
 40
0.3690274653
  9
$USRTIMER
 70
     1
  9
$ANGBASE
 50
0.0
  9
$ANGDIR
 70
     0
  9
$PDMODE
 70
     3
  9
$PDSIZE
 40
-2.0
  9
$PLINEWID
 40
0.0
  9
$COORDS
 70
     0
  9
$SPLFRAME
 70
     0
  9
$SPLINETYPE
 70
     6
  9
$SPLINESEGS
 70
     8
  9
$ATTDIA
 70
     0
  9
$ATTREQ
 70
     1
  9
$HANDLING
 70
     1
  9
$HANDSEED
  5
40F
  9
$SURFTAB1
 70
     6
  9
$SURFTAB2
 70
     6
  9
$SURFTYPE
 70
     6
  9
$SURFU
 70
     6
  9
$SURFV
 70
     6
  9
$UCSNAME
  2

  9
$UCSORG
 10
0.0
 20
0.0
 30
0.0
  9
$UCSXDIR
 10
1.0
 20
0.0
 30
0.0
  9
$UCSYDIR
 10
0.0
 20
1.0
 30
0.0
  9
$PUCSNAME
  2

  9
$PUCSORG
 10
0.0
 20
0.0
 30
0.0
  9
$PUCSXDIR
 10
1.0
 20
0.0
 30
0.0
  9
$PUCSYDIR
 10
0.0
 20
1.0
 30
0.0
  9
$USERI1
 70
     0
  9
$USERI2
 70
     0
  9
$USERI3
 70
     0
  9
$USERI4
 70
     0
  9
$USERI5
 70
     0
  9
$USERR1
 40
20.0
  9
$USERR2
 40
0.0
  9
$USERR3
 40
0.0
  9
$USERR4
 40
0.0
  9
$USERR5
 40
0.0
  9
$WORLDVIEW
 70
     1
  9
$SHADEDGE
 70
     3
  9
$SHADEDIF
 70
    70
  9
$TILEMODE
 70
     1
  9
$MAXACTVP
 70
    48
  9
$PLIMCHECK
 70
     0
  9
$PEXTMIN
 10
-1.0000000000000000E+020
 20
-1.0000000000000000E+020
 30
-1.0000000000000000E+020
  9
$PEXTMAX
 10
1.0000000000000000E+020
 20
1.0000000000000000E+020
 30
1.0000000000000000E+020
  9
$PLIMMIN
 10
0.0
 20
0.0
  9
$PLIMMAX
 10
12.0
 20
9.0
  9
$UNITMODE
 70
     0
  9
$VISRETAIN
 70
     0
  9
$PLINEGEN
 70
     0
  9
$PSLTSCALE
 70
     0
  0
ENDSEC
  0
SECTION
  2
TABLES
  0
TABLE
  2
VPORT
 70
     1
  0
VPORT
  2
*ACTIVE
 70
     0
 10
0.0
 20
0.0
 11
1.0
 21
1.0
 12
-162.45421635519941
 22
-46.709707911430307
 13
0.0
 23
0.0
 14
1.0
 24
1.0
 15
0.0
 25
0.0
 16
0.0
 26
0.0
 36
1.0
 17
0.0
 27
0.0
 37
0.0
 40
1325.4750068252549
 41
1.2435374149659859
 42
50.0
 43
0.0
 44
0.0
 50
0.0
 51
0.0
 71
     0
 72
  1000
 73
     1
 74
     0
 75
     0
 76
     0
 77
     0
 78
     0
  0
ENDTAB
  0
TABLE
  2
LTYPE
 70
     2
  0
LTYPE
  2
CONTINUOUS
 70
     0
  3
実線
 72
    65
 73
     0
 40
0.0
  0
LTYPE
  2
DASHDOT
 70
     0
  3
____ _ ____ _ ____ _ ____ _ ____ _ ____ _ ____
 72
    65
 73
     4
 40
5.5
 49
4.0
 49
-0.6
 49
0.3
 49
-0.6
  0
ENDTAB
  0
TABLE
  2
LAYER
 70
    13
  0
LAYER
  2
0
 70
     0
 62
     7
  6
CONTINUOUS
  0
LAYER
  2
DETAIL
 70
     0
 62
     5
  6
CONTINUOUS
  0
LAYER
  2
BASIS
 70
     0
 62
     6
  6
DASHDOT
  0
LAYER
  2
OUTLINE
 70
     0
 62
     3
  6
CONTINUOUS
  0
LAYER
  2
SIZE
 70
     0
 62
    30
  6
CONTINUOUS
  0
LAYER
  2
ARRANGE
 70
     0
 62
     1
  6
CONTINUOUS
  0
LAYER
  2
DEFPOINTS
 70
     0
 62
     7
  6
CONTINUOUS
  0
LAYER
  2
ETC
 70
     0
 62
    61
  6
CONTINUOUS
  0
LAYER
  2
FIX
 70
     0
 62
    11
  6
CONTINUOUS
  0
LAYER
  2
NOTE
 70
     0
 62
     4
  6
CONTINUOUS
  0
LAYER
  2
SERVICESPACE
 70
     0
 62
     2
  6
DASHDOT
  0
LAYER
  2
SYMBOLLINE
 70
     0
 62
    15
  6
CONTINUOUS
  0
LAYER
  2
ARRENGE
 70
     0
 62
     1
  6
CONTINUOUS
  0
ENDTAB
  0
TABLE
  2
STYLE
 70
     2
  0
STYLE
  2
STANDARD
 70
     0
 40
64.0
 41
0.9
 50
0.0
 71
     0
 42
64.0
  3
SIMPLEX.shx
  4
BIGFONT.shx
  0
STYLE
  2
ANNOTATIVE
 70
     0
 40
0.0
 41
1.0
 50
0.0
 71
     0
 42
0.2
  3
txt
  4

  0
ENDTAB
  0
TABLE
  2
VIEW
 70
     1
  0
VIEW
  2
ALL
 70
     0
 40
4282.6198079999967
 10
0.0
 20
41.309903999999989
 41
5940.0
 11
0.0
 21
0.0
 31
1.0
 12
0.0
 22
0.0
 32
0.0
 42
50.0
 43
0.0
 44
0.0
 50
0.0
 71
     0
  0
ENDTAB
  0
TABLE
  2
UCS
 70
     0
  0
ENDTAB
  0
TABLE
  2
APPID
 70
     6
  0
APPID
  2
ACAD
 70
     0
  0
APPID
  2
ACADANNOTATIVE
 70
     0
  0
APPID
  2
ACAD_MLEADERVER
 70
     0
  0
APPID
  2
AUTOCAD_POSTSCRIPT_FIGURE
 70
     0
  0
APPID
  2
CONTENTBLOCKDESCRIPTION
 70
     0
  0
APPID
  2
CONTENTBLOCKICON
 70
     0
  0
ENDTAB
  0
TABLE
  2
DIMSTYLE
 70
     2
  0
DIMSTYLE
  2
STANDARD
 70
     0
  3

  4

  5

  6

  7

 40
1.0
 41
0.18
 42
0.0625
 43
0.38
 44
0.18
 45
0.0
 46
0.0
 47
0.0
 48
0.0
140
0.18
141
0.09
142
0.0
143
25.399999999999999
144
1.0
145
0.0
146
1.0
147
0.09
 71
     0
 72
     0
 73
     1
 74
     1
 75
     0
 76
     0
 77
     0
 78
     0
170
     0
171
     2
172
     0
173
     0
174
     0
175
     0
176
     7
177
     7
178
     7
  0
DIMSTYLE
  2
ANNOTATIVE
 70
     0
  3

  4

  5

  6

  7

 40
1.0
 41
0.18
 42
0.0625
 43
0.38
 44
0.18
 45
0.0
 46
0.0
 47
0.0
 48
0.0
140
0.18
141
0.09
142
0.0
143
25.399999999999999
144
1.0
145
0.0
146
1.0
147
0.09
 71
     0
 72
     0
 73
     1
 74
     1
 75
     0
 76
     0
 77
     0
 78
     0
170
     0
171
     2
172
     0
173
     0
174
     0
175
     0
176
     0
177
     0
178
     0
  0
ENDTAB
  0
ENDSEC
  0
SECTION
  2
BLOCKS
  0
BLOCK
  8
0
  2
$MODEL_SPACE
 70
     0
 10
0.0
 20
0.0
 30
0.0
  3
$MODEL_SPACE
  1

  0
ENDBLK
  5
3B4
  8
0
  0
BLOCK
 67
     1
  8
0
  2
$PAPER_SPACE
 70
     0
 10
0.0
 20
0.0
 30
0.0
  3
$PAPER_SPACE
  1

  0
ENDBLK
  5
3B0
 67
     1
  8
0
  0
BLOCK
  8
0
  2
DOT1
 70
     0
 10
0.0
 20
0.0
 30
0.0
  3
DOT1
  1

  0
CIRCLE
  5
25B
  8
SIZE
  6
CONTINUOUS
 62
     7
 10
0.0
 20
0.0
 30
0.0
 40
3.0
  0
ENDBLK
  5
25C
  8
0
  0
BLOCK
  8
0
  2
_ORIGIN
 70
     0
 10
0.0
 20
0.0
 30
0.0
  3
_ORIGIN
  1

  0
CIRCLE
  5
25F
  8
0
  6
CONTINUOUS
 62
     7
 10
0.0
 20
0.0
 30
0.0
 40
0.5
  0
LINE
  5
260
  8
0
  6
CONTINUOUS
 62
     7
 10
0.0
 20
0.0
 30
0.0
 11
-1.0
 21
0.0
 31
0.0
  0
ENDBLK
  5
261
  8
0
  0
BLOCK
  8
0
 62
     1
  2
配置点
 70
     0
 10
0.0
 20
0.0
 30
0.0
  3
配置点
  1

  0
LINE
  5
2EB
  8
ARRENGE
 62
     1
 10
189.77681747763211
 20
149.03934829407481
 30
0.0
 11
218.06108872509409
 21
177.3236195415368
 31
0.0
  0
LINE
  5
2EC
  8
ARRENGE
 62
     1
 10
189.77681747763211
 20
177.3236195415368
 30
0.0
 11
218.06108872509409
 21
149.03934829407481
 31
0.0
  0
CIRCLE
  5
2ED
  8
ARRENGE
 62
     1
 10
203.91895310136309
 20
163.18148391780579
 30
0.0
 40
40.0
  0
ENDBLK
  5
2EF
  8
0
 62
     1
  0
ENDSEC
  0
SECTION
  2
ENTITIES
  0
LINE
  5
262
  8
BASIS
  6
DASHDOT
 62
     6
 39
50.0
 10
90.887009999999862
 20
0.0
 30
0.0
 11
-152.08586199999979
 21
0.0
 31
0.0
  0
LINE
  5
265
  8
DETAIL
  6
CONTINUOUS
 62
     5
 39
50.0
 10
0.0
 20
104.9999999999999
 30
0.0
 11
0.0
 21
-104.9999999999998
 31
0.0
  0
LINE
  5
266
  8
DETAIL
  6
CONTINUOUS
 62
     5
 39
50.0
 10
0.0
 20
-104.9999999999998
 30
0.0
 11
36.171613000000022
 21
-104.9999999999998
 31
0.0
  0
LINE
  5
267
  8
DETAIL
  6
CONTINUOUS
 62
     5
 39
50.0
 10
38.936421000000003
 20
104.9999999999999
 30
0.0
 11
0.0
 21
104.9999999999999
 31
0.0
  0
ARC
  5
268
  8
DETAIL
  6
CONTINUOUS
 62
     5
 39
50.0
 10
-389.33999999999992
 20
6.2120000000000086
 30
0.0
 40
447.38312899999988
 50
346.62028299999992
 51
11.712341999999991
  0
ARC
  5
269
  8
DETAIL
  6
CONTINUOUS
 62
     5
 39
50.0
 10
38.936421000000003
 20
94.999999999999986
 30
0.0
 40
10.0
 50
11.712341999999991
 51
90.0
  0
ARC
  5
26A
  8
DETAIL
  6
CONTINUOUS
 62
     5
 39
50.0
 10
36.171613000000022
 20
-94.999999999999915
 30
0.0
 40
10.0
 50
270.0
 51
346.62028299999992
  0
LINE
  5
26B
  8
DETAIL
  6
CONTINUOUS
 62
     5
 39
50.0
 10
50.424540999999991
 20
-75.999999999999986
 30
0.0
 11
38.92454100000004
 21
-75.999999999999986
 31
0.0
  0
LINE
  5
26C
  8
DETAIL
  6
CONTINUOUS
 62
     5
 39
50.0
 10
38.92454100000004
 20
-75.999999999999986
 30
0.0
 11
35.924541000000012
 21
-104.9999999999998
 31
0.0
  0
LINE
  5
26D
  8
DETAIL
  6
CONTINUOUS
 62
     5
 39
50.0
 10
0.0
 20
-70.000000000000014
 30
0.0
 11
-59.999999999999979
 21
-70.000000000000014
 31
0.0
  0
LINE
  5
26E
  8
DETAIL
  6
CONTINUOUS
 62
     5
 39
50.0
 10
-59.999999999999979
 20
-70.000000000000014
 30
0.0
 11
-59.999999999999979
 21
34.999999999999979
 31
0.0
  0
LINE
  5
26F
  8
DETAIL
  6
CONTINUOUS
 62
     5
 39
50.0
 10
-59.999999999999979
 20
70.0
 30
0.0
 11
0.0
 21
70.0
 31
0.0
  0
LINE
  5
270
  8
DETAIL
  6
CONTINUOUS
 62
     5
 39
50.0
 10
-59.999999999999979
 20
31.5
 30
0.0
 11
-66.999999999999972
 21
31.5
 31
0.0
  0
LINE
  5
271
  8
DETAIL
  6
CONTINUOUS
 62
     5
 39
50.0
 10
-71.999999999999972
 20
26.5
 30
0.0
 11
-71.999999999999972
 21
-26.5
 31
0.0
  0
LINE
  5
272
  8
DETAIL
  6
CONTINUOUS
 62
     5
 39
50.0
 10
-66.999999999999972
 20
-31.5
 30
0.0
 11
-59.999999999999979
 21
-31.5
 31
0.0
  0
ARC
  5
273
  8
DETAIL
  6
CONTINUOUS
 62
     5
 39
50.0
 10
-66.999999999999972
 20
26.5
 30
0.0
 40
5.0
 50
90.0
 51
180.0
  0
ARC
  5
274
  8
DETAIL
  6
CONTINUOUS
 62
     5
 39
50.0
 10
-66.999999999999972
 20
-26.5
 30
0.0
 40
5.0
 50
180.0
 51
270.0
  0
LINE
  5
275
  8
DETAIL
  6
CONTINUOUS
 62
     5
 39
50.0
 10
-59.999999999999979
 20
65.0
 30
0.0
 11
0.0
 21
65.0
 31
0.0
  0
LINE
  5
276
  8
DETAIL
  6
CONTINUOUS
 62
     5
 39
50.0
 10
-59.999999999999979
 20
34.999999999999979
 30
0.0
 11
-47.999999999999979
 21
34.999999999999979
 31
0.0
  0
LINE
  5
277
  8
DETAIL
  6
CONTINUOUS
 62
     5
 39
50.0
 10
-31.25826799999998
 20
37.952018999999979
 30
0.0
 11
-31.25826799999998
 21
46.952018999999993
 31
0.0
  0
LINE
  5
278
  8
DETAIL
  6
CONTINUOUS
 62
     5
 39
50.0
 10
-47.999999999999979
 20
34.999999999999979
 30
0.0
 11
-31.25826799999998
 21
37.952018999999979
 31
0.0
  0
LINE
  5
279
  8
DETAIL
  6
CONTINUOUS
 62
     5
 39
50.0
 10
-47.999999999999979
 20
43.978225999999992
 30
0.0
 11
-31.25826799999998
 21
46.930244999999992
 31
0.0
  0
LINE
  5
27A
  8
DETAIL
  6
CONTINUOUS
 62
     5
 39
50.0
 10
-47.999999999999979
 20
43.978225999999992
 30
0.0
 11
-59.999999999999979
 21
43.978225999999992
 31
0.0
  0
LINE
  5
27B
  8
DETAIL
  6
CONTINUOUS
 62
     5
 39
50.0
 10
-47.999999999999979
 20
43.978225999999992
 30
0.0
 11
-47.999999999999979
 21
34.999999999999979
 31
0.0
  0
LINE
  5
27C
  8
DETAIL
  6
CONTINUOUS
 62
     5
 39
50.0
 10
-57.999999999999972
 20
43.978225999999992
 30
0.0
 11
-57.999999999999972
 21
34.999999999999979
 31
0.0
  0
LINE
  5
27D
  8
DETAIL
  6
CONTINUOUS
 62
     5
 39
50.0
 10
-59.999999999999979
 20
43.978225999999992
 30
0.0
 11
-59.999999999999979
 21
70.0
 31
0.0
  0
ARC
  5
292
  8
FIX
  6
CONTINUOUS
 62
    11
 39
50.0
 10
0.0
 20
0.0
 30
0.0
 40
2.0
 50
180.0
 51
0.0
  0
ARC
  5
293
  8
FIX
  6
CONTINUOUS
 62
    11
 39
50.0
 10
0.0
 20
6.0000000000000071
 30
0.0
 40
2.0
 50
0.0
 51
180.0
  0
LINE
  5
294
  8
FIX
  6
CONTINUOUS
 62
    11
 39
50.0
 10
-2.0
 20
6.0000000000000071
 30
0.0
 11
-2.0
 21
0.0
 31
0.0
  0
LINE
  5
295
  8
FIX
  6
CONTINUOUS
 62
    11
 39
50.0
 10
2.0000000000000071
 20
6.0000000000000071
 30
0.0
 11
2.0000000000000071
 21
0.0
 31
0.0
  0
LINE
  5
296
  8
NOTE
  6
CONTINUOUS
 62
     4
 10
0.0
 20
-20.0
 30
0.0
 11
0.0
 21
20.0
 31
0.0
  0
LINE
  5
297
  8
NOTE
  6
CONTINUOUS
 62
     4
 10
20.0
 20
0.0
 30
0.0
 11
-19.999999999999989
 21
0.0
 31
0.0
  0
LINE
  5
298
  8
NOTE
  6
CONTINUOUS
 62
     4
 39
50.0
 10
0.0
 20
0.0
 30
0.0
 11
0.0
 21
6.0000000000000071
 31
0.0
  0
LINE
  5
299
  8
NOTE
  6
CONTINUOUS
 62
     4
 10
0.0
 20
-14.0
 30
0.0
 11
0.0
 21
26.0
 31
0.0
  0
LINE
  5
29A
  8
NOTE
  6
CONTINUOUS
 62
     4
 10
20.0
 20
6.0000000000000071
 30
0.0
 11
-19.999999999999989
 21
6.0000000000000071
 31
0.0
  0
LINE
  5
29B
  8
SIZE
  6
CONTINUOUS
 62
    30
 10
58.936420999999982
 20
104.9999999999999
 30
0.0
 11
234.5768759999998
 21
104.9999999999999
 31
0.0
  0
LINE
  5
29C
  8
SIZE
  6
CONTINUOUS
 62
    30
 10
58.936420999999982
 20
-104.9999999999998
 30
0.0
 11
234.5768759999998
 21
-104.9999999999998
 31
0.0
  0
LINE
  5
29D
  8
SIZE
  6
CONTINUOUS
 62
    30
 10
214.57687599999991
 20
104.9999999999999
 30
0.0
 11
214.57687599999991
 21
-104.9999999999998
 31
0.0
  0
CIRCLE
  5
29E
  8
SIZE
  6
CONTINUOUS
 62
    30
 10
214.57687599999991
 20
104.9999999999999
 30
0.0
 40
6.0
  0
CIRCLE
  5
29F
  8
SIZE
  6
CONTINUOUS
 62
    30
 10
214.57687599999991
 20
-104.9999999999998
 30
0.0
 40
6.0
  0
TEXT
  5
2A0
  8
SIZE
  6
CONTINUOUS
 62
    30
 10
189.57687599999991
 20
-105.0514285714286
 30
0.0
 40
64.0
  1
□210
 50
90.0
 41
0.9
 72
     1
 11
189.57687599999991
 21
0.0
 31
0.0
  0
LINE
  5
2A1
  8
SIZE
  6
CONTINUOUS
 62
    30
 10
-79.999999999999972
 20
-70.000000000000014
 30
0.0
 11
-387.7529151856636
 21
-70.000000000000014
 31
0.0
  0
LINE
  5
2A2
  8
SIZE
  6
CONTINUOUS
 62
    30
 10
-79.999999999999972
 20
70.0
 30
0.0
 11
-387.7529151856636
 21
70.0
 31
0.0
  0
LINE
  5
2A3
  8
SIZE
  6
CONTINUOUS
 62
    30
 10
-368.27999039847452
 20
57.999999999999979
 30
0.0
 11
-368.27999039847452
 21
-58.0
 31
0.0
  0
LINE
  5
2A4
  8
SIZE
  6
CONTINUOUS
 62
    30
 10
-368.27999039847452
 20
-70.000000000000014
 30
0.0
 11
-368.27999039847452
 21
-333.44971499999991
 31
0.0
  0
CIRCLE
  5
2A5
  8
SIZE
  6
CONTINUOUS
 62
    30
 10
-368.27999039847452
 20
70.0
 30
0.0
 40
6.0
  0
LINE
  5
2A6
  8
SIZE
  6
CONTINUOUS
 62
    30
 10
-368.27999039847452
 20
70.0
 30
0.0
 11
-368.27999039847452
 21
57.999999999999979
 31
0.0
  0
CIRCLE
  5
2A7
  8
SIZE
  6
CONTINUOUS
 62
    30
 10
-368.27999039847452
 20
-70.000000000000014
 30
0.0
 40
6.0
  0
LINE
  5
2A8
  8
SIZE
  6
CONTINUOUS
 62
    30
 10
-368.27999039847452
 20
-70.000000000000014
 30
0.0
 11
-368.27999039847452
 21
-58.0
 31
0.0
  0
TEXT
  5
2A9
  8
SIZE
  6
CONTINUOUS
 62
    30
 10
-393.27999039847452
 20
-322.71257157142838
 30
0.0
 40
64.0
  1
φ140
 50
90.0
 41
0.9
 72
     1
 11
-393.27999039847452
 21
-213.82114299999989
 31
0.0
  0
LINE
  5
2AA
  8
SIZE
  6
CONTINUOUS
 62
    30
 10
-59.999999999999979
 20
-89.999999999999915
 30
0.0
 11
-59.999999999999979
 21
-259.51473227253962
 31
0.0
  0
LINE
  5
2AB
  8
SIZE
  6
CONTINUOUS
 62
    30
 10
-71.999999999999972
 20
-245.53596760526449
 30
0.0
 11
-217.97612736977661
 21
-245.53596760526449
 31
0.0
  0
LINE
  5
2AC
  8
SIZE
  6
CONTINUOUS
 62
    30
 10
0.0
 20
-245.53596760526449
 30
0.0
 11
-59.999999999999979
 21
-245.53596760526449
 31
0.0
  0
CIRCLE
  5
2AD
  8
SIZE
  6
CONTINUOUS
 62
    30
 10
0.0
 20
-245.53596760526449
 30
0.0
 40
6.0
  0
CIRCLE
  5
2AE
  8
SIZE
  6
CONTINUOUS
 62
    30
 10
-59.999999999999979
 20
-245.53596760526449
 30
0.0
 40
6.0
  0
LINE
  5
2AF
  8
SIZE
  6
CONTINUOUS
 62
    30
 10
-59.999999999999979
 20
-245.53596760526449
 30
0.0
 11
-71.999999999999972
 21
-245.53596760526449
 31
0.0
  0
TEXT
  5
2B0
  8
SIZE
  6
CONTINUOUS
 62
    30
 10
-207.02278597808831
 20
-220.53596760526449
 30
0.0
 40
64.0
  1
60
 41
0.9
 72
     1
 11
-160.3942145495169
 21
-220.53596760526449
 31
0.0
  0
LINE
  5
2B1
  8
SIZE
  6
CONTINUOUS
 62
    30
 10
-71.999999999999972
 20
-46.5
 30
0.0
 11
-71.999999999999972
 21
-412.79727351019
 31
0.0
  0
LINE
  5
2B2
  8
SIZE
  6
CONTINUOUS
 62
    30
 10
-11.999999999999989
 20
-398.87040160526442
 30
0.0
 11
-64.999999999999972
 21
-398.87040160526442
 31
0.0
  0
LINE
  5
2B3
  8
SIZE
  6
CONTINUOUS
 62
    30
 10
-76.999999999999972
 20
-398.87040160526442
 30
0.0
 11
-216.60696063463479
 21
-398.87040160526442
 31
0.0
  0
CIRCLE
  5
2B4
  8
SIZE
  6
CONTINUOUS
 62
    30
 10
0.0
 20
-398.87040160526442
 30
0.0
 40
6.0
  0
LINE
  5
2B5
  8
SIZE
  6
CONTINUOUS
 62
    30
 10
0.0
 20
-398.87040160526442
 30
0.0
 11
-11.999999999999989
 21
-398.87040160526442
 31
0.0
  0
CIRCLE
  5
2B6
  8
SIZE
  6
CONTINUOUS
 62
    30
 10
-71.999999999999972
 20
-398.87040160526442
 30
0.0
 40
6.0
  0
LINE
  5
2B7
  8
SIZE
  6
CONTINUOUS
 62
    30
 10
-71.999999999999972
 20
-398.87040160526442
 30
0.0
 11
-59.999999999999979
 21
-398.87040160526442
 31
0.0
  0
TEXT
  5
2B8
  8
SIZE
  6
CONTINUOUS
 62
    30
 10
-207.02278597808831
 20
-373.87040160526442
 30
0.0
 40
64.0
  1
72
 41
0.9
 72
     1
 11
-160.3942145495169
 21
-373.87040160526442
 31
0.0
  0
LINE
  5
2B9
  8
SIZE
  6
CONTINUOUS
 62
    30
 10
58.0
 20
-20.0
 30
0.0
 11
58.0
 21
-412.79727351019
 31
0.0
  0
LINE
  5
2BA
  8
SIZE
  6
CONTINUOUS
 62
    30
 10
0.0
 20
-125.0
 30
0.0
 11
0.0
 21
-414.16586560808162
 31
0.0
  0
LINE
  5
2BB
  8
SIZE
  6
CONTINUOUS
 62
    30
 10
-11.999999999999989
 20
-398.87040160526442
 30
0.0
 11
-24.0
 21
-398.87040160526442
 31
0.0
  0
LINE
  5
2BC
  8
SIZE
  6
CONTINUOUS
 62
    30
 10
69.999999999999986
 20
-398.87040160526442
 30
0.0
 11
225.25714300000001
 21
-398.87040160526442
 31
0.0
  0
LINE
  5
2BD
  8
SIZE
  6
CONTINUOUS
 62
    30
 10
0.0
 20
-398.87040160526442
 30
0.0
 11
58.0
 21
-398.87040160526442
 31
0.0
  0
CIRCLE
  5
2BE
  8
SIZE
  6
CONTINUOUS
 62
    30
 10
0.0
 20
-398.87040160526442
 30
0.0
 40
6.0
  0
LINE
  5
2BF
  8
SIZE
  6
CONTINUOUS
 62
    30
 10
0.0
 20
-398.87040160526442
 30
0.0
 11
-11.999999999999989
 21
-398.87040160526442
 31
0.0
  0
CIRCLE
  5
2C0
  8
SIZE
  6
CONTINUOUS
 62
    30
 10
58.0
 20
-398.87040160526442
 30
0.0
 40
6.0
  0
LINE
  5
2C1
  8
SIZE
  6
CONTINUOUS
 62
    30
 10
58.0
 20
-398.87040160526442
 30
0.0
 11
69.999999999999986
 21
-398.87040160526442
 31
0.0
  0
TEXT
  5
2C2
  8
SIZE
  6
CONTINUOUS
 62
    30
 10
106.9999995714284
 20
-373.87040160526442
 30
0.0
 40
64.0
  1
58
 41
0.9
 72
     1
 11
153.62857099999979
 21
-373.87040160526442
 31
0.0
  0
TEXT
  5
2C3
  8
NOTE
  6
CONTINUOUS
 62
     4
 10
-949.83296399999995
 20
131.20128099999991
 30
0.0
 40
64.0
  1
2ヶ所×4×10取付用長穴
 41
0.9
  0
LINE
  5
2C4
  8
NOTE
  6
CONTINUOUS
 62
     4
 39
50.0
 10
0.0
 20
6.0000000000000071
 30
0.0
 11
-125.4543459999999
 21
116.80816899999991
 31
0.0
  0
LINE
  5
2C5
  8
NOTE
  6
CONTINUOUS
 62
     4
 39
50.0
 10
-125.4543459999999
 20
116.80816899999991
 30
0.0
 11
-956.37026000000003
 21
116.80816899999991
 31
0.0
  0
LINE
  5
2C6
  8
NOTE
  6
CONTINUOUS
 62
     4
 10
-21.751380000000001
 20
39.568995999999991
 30
0.0
 11
0.0
 21
6.0000000000000071
 31
0.0
  0
LINE
  5
2C7
  8
NOTE
  6
CONTINUOUS
 62
     4
 10
0.0
 20
6.0000000000000071
 30
0.0
 11
-35.621745999999973
 21
24.195913000000001
 31
0.0
  0
LINE
  5
2C8
  8
SIZE
  6
CONTINUOUS
 62
    30
 10
-39.999999999999979
 20
6.0000000000000071
 30
0.0
 11
-225.54291399999991
 21
6.0000000000000071
 31
0.0
  0
LINE
  5
2C9
  8
SIZE
  6
CONTINUOUS
 62
    30
 10
-19.999999999999989
 20
0.0
 30
0.0
 11
-225.54291399999991
 21
0.0
 31
0.0
  0
LINE
  5
2CA
  8
SIZE
  6
CONTINUOUS
 62
    30
 10
-205.54291399999991
 20
18.0
 30
0.0
 11
-205.54291399999991
 21
29.999999999999989
 31
0.0
  0
LINE
  5
2CB
  8
SIZE
  6
CONTINUOUS
 62
    30
 10
-205.54291399999991
 20
-12.0
 30
0.0
 11
-205.54291399999991
 21
-56.962800086193504
 31
0.0
  0
LINE
  5
2CC
  8
SIZE
  6
CONTINUOUS
 62
    30
 10
-205.54291399999991
 20
6.0000000000000071
 30
0.0
 11
-205.54291399999991
 21
0.0
 31
0.0
  0
CIRCLE
  5
2CD
  8
SIZE
  6
CONTINUOUS
 62
    30
 10
-205.54291399999991
 20
6.0000000000000071
 30
0.0
 40
6.0
  0
LINE
  5
2CE
  8
SIZE
  6
CONTINUOUS
 62
    30
 10
-205.54291399999991
 20
6.0000000000000071
 30
0.0
 11
-205.54291399999991
 21
18.0
 31
0.0
  0
CIRCLE
  5
2CF
  8
SIZE
  6
CONTINUOUS
 62
    30
 10
-205.54291399999991
 20
0.0
 30
0.0
 40
6.0
  0
LINE
  5
2D0
  8
SIZE
  6
CONTINUOUS
 62
    30
 10
-205.54291399999991
 20
0.0
 30
0.0
 11
-205.54291399999991
 21
-12.0
 31
0.0
  0
TEXT
  5
2D1
  8
SIZE
  6
CONTINUOUS
 62
    30
 10
-230.5429139999998
 20
-48.751237442231258
 30
0.0
 40
64.0
  1
6
 50
90.0
 41
0.9
 72
     1
 11
-230.5429139999998
 21
-30.922666013659839
 31
0.0
  0
TEXT
  5
2D2
  8
ETC
  6
CONTINUOUS
 62
    61
 10
173.95195210958559
 20
200.1736782588338
 30
0.0
 40
40.0
  1
V-12PSD6
 41
0.9
  0
TEXT
  5
2D3
  8
ETC
  6
CONTINUOUS
 62
    61
 10
71.223607406512983
 20
326.952451812775
 30
0.0
 40
50.0
  1
V-12PSD6_5
 41
0.9
  0
TEXT
  5
2D4
  8
ETC
  6
CONTINUOUS
 62
    61
 10
66.810745406512993
 20
260.16503581277487
 30
0.0
 40
50.0
  1
換気扇
 41
0.9
  0
LINE
  5
2D6
  8
OUTLINE
  6
CONTINUOUS
 62
     3
 39
50.0
 10
0.0
 20
-104.9999999999998
 30
0.0
 11
36.171613000000022
 21
-104.9999999999998
 31
0.0
  0
LINE
  5
2D7
  8
OUTLINE
  6
CONTINUOUS
 62
     3
 39
50.0
 10
38.936421000000003
 20
105.0
 30
0.0
 11
0.0
 21
105.0
 31
0.0
  0
LINE
  5
2D8
  8
OUTLINE
  6
CONTINUOUS
 62
     3
 39
50.0
 10
0.0
 20
105.0
 30
0.0
 11
0.0
 21
-104.9999999999998
 31
0.0
  0
LINE
  5
2D9
  8
OUTLINE
  6
CONTINUOUS
 62
     3
 39
50.0
 10
0.0
 20
-70.0
 30
0.0
 11
-59.999999999999979
 21
-70.0
 31
0.0
  0
LINE
  5
2DA
  8
OUTLINE
  6
CONTINUOUS
 62
     3
 39
50.0
 10
-47.999999999999979
 20
34.999999999999957
 30
0.0
 11
-31.25826799999998
 21
37.952018999999979
 31
0.0
  0
LINE
  5
2DB
  8
OUTLINE
  6
CONTINUOUS
 62
     3
 39
50.0
 10
-59.999999999999979
 20
34.999999999999957
 30
0.0
 11
-47.999999999999979
 21
34.999999999999957
 31
0.0
  0
LINE
  5
2DC
  8
OUTLINE
  6
CONTINUOUS
 62
     3
 39
50.0
 10
-59.999999999999979
 20
31.5
 30
0.0
 11
-66.999999999999972
 21
31.5
 31
0.0
  0
ARC
  5
2DD
  8
OUTLINE
  6
CONTINUOUS
 62
     3
 39
50.0
 10
-66.999999999999972
 20
26.5
 30
0.0
 40
5.0
 50
90.0
 51
180.0
  0
LINE
  5
2DE
  8
OUTLINE
  6
CONTINUOUS
 62
     3
 39
50.0
 10
-31.25826799999998
 20
37.952018999999979
 30
0.0
 11
-31.25826799999998
 21
46.952018999999993
 31
0.0
  0
LINE
  5
2DF
  8
OUTLINE
  6
CONTINUOUS
 62
     3
 39
50.0
 10
-66.999999999999972
 20
-31.5
 30
0.0
 11
-59.999999999999979
 21
-31.5
 31
0.0
  0
ARC
  5
2E0
  8
OUTLINE
  6
CONTINUOUS
 62
     3
 39
50.0
 10
-66.999999999999972
 20
-26.5
 30
0.0
 40
5.0
 50
180.0
 51
270.0
  0
LINE
  5
2E1
  8
OUTLINE
  6
CONTINUOUS
 62
     3
 39
50.0
 10
-71.999999999999972
 20
26.5
 30
0.0
 11
-71.999999999999972
 21
-26.5
 31
0.0
  0
LINE
  5
2E2
  8
OUTLINE
  6
CONTINUOUS
 62
     3
 39
50.0
 10
-59.999999999999979
 20
-70.0
 30
0.0
 11
-59.999999999999979
 21
34.999999999999957
 31
0.0
  0
LINE
  5
2E3
  8
OUTLINE
  6
CONTINUOUS
 62
     3
 39
50.0
 10
-47.999999999999979
 20
43.978225999999999
 30
0.0
 11
-31.25826799999998
 21
46.930244999999992
 31
0.0
  0
LINE
  5
2E4
  8
OUTLINE
  6
CONTINUOUS
 62
     3
 39
50.0
 10
-59.999999999999979
 20
70.0
 30
0.0
 11
0.0
 21
70.0
 31
0.0
  0
LINE
  5
2E5
  8
OUTLINE
  6
CONTINUOUS
 62
     3
 39
50.0
 10
-47.999999999999979
 20
43.978225999999999
 30
0.0
 11
-59.999999999999979
 21
43.978225999999999
 31
0.0
  0
LINE
  5
2E6
  8
OUTLINE
  6
CONTINUOUS
 62
     3
 39
50.0
 10
-59.999999999999979
 20
43.978225999999999
 30
0.0
 11
-59.999999999999979
 21
70.0
 31
0.0
  0
ARC
  5
2E7
  8
OUTLINE
  6
CONTINUOUS
 62
     3
 39
50.0
 10
-389.33999999999992
 20
6.2119999999999891
 30
0.0
 40
447.38312899999988
 50
346.62028299999992
 51
11.712341999999991
  0
ARC
  5
2E8
  8
OUTLINE
  6
CONTINUOUS
 62
     3
 39
50.0
 10
36.171613000000022
 20
-94.999999999999872
 30
0.0
 40
10.0
 50
270.0
 51
346.62028299999992
  0
ARC
  5
2E9
  8
OUTLINE
  6
CONTINUOUS
 62
     3
 39
50.0
 10
38.936421000000003
 20
95.0
 30
0.0
 40
10.0
 50
11.712341999999991
 51
90.0
  0
LINE
  5
2F7
  8
ARRENGE
 62
     1
 10
-14.142135623730949
 20
-14.142135623730949
 30
0.0
 11
14.142135623730949
 21
14.142135623730949
 31
0.0
  0
LINE
  5
2F8
  8
ARRENGE
 62
     1
 10
-14.142135623730949
 20
14.142135623730949
 30
0.0
 11
14.142135623730949
 21
-14.142135623730949
 31
0.0
  0
CIRCLE
  5
2F9
  8
ARRENGE
 62
     1
 10
0.0
 20
0.0
 30
0.0
 40
40.0
  0
ENDSEC
  0
EOF
