  0
SECTION
  2
HEADER
  9
$ACADVER
  1
AC1009
  9
$DWGCODEPAGE
  3
dos932
  9
$INSBASE
 10
0.0
 20
0.0
 30
0.0
  9
$EXTMIN
 10
-370.25297386601409
 20
-241.92808864397011
 30
-0.0015258207003583
  9
$EXTMAX
 10
771.32264310647952
 20
790.51209321537863
 30
0.0000000349246037
  9
$LIMMIN
 10
-2970.0
 20
-2100.0
  9
$LIMMAX
 10
2970.0
 20
2100.0
  9
$ORTHOMODE
 70
     1
  9
$REGENMODE
 70
     1
  9
$FILLMODE
 70
     1
  9
$QTEXTMODE
 70
     0
  9
$MIRRTEXT
 70
     0
  9
$LTSCALE
 40
20.0
  9
$ATTMODE
 70
     1
  9
$TEXTSIZE
 40
64.0
  9
$TRACEWID
 40
0.05
  9
$TEXTSTYLE
  7
STANDARD
  9
$CLAYER
  8
SIZE
  9
$CELTYPE
  6
CONTINUOUS
  9
$CECOLOR
 62
     7
  9
$DIMSCALE
 40
1.0
  9
$DIMASZ
 40
12.0
  9
$DIMEXO
 40
20.0
  9
$DIMDLI
 40
200.0
  9
$DIMRND
 40
0.0
  9
$DIMDLE
 40
0.0
  9
$DIMEXE
 40
20.0
  9
$DIMTP
 40
0.0
  9
$DIMTM
 40
0.0
  9
$DIMTXT
 40
64.0
  9
$DIMCEN
 40
0.09
  9
$DIMTSZ
 40
0.0
  9
$DIMTOL
 70
     0
  9
$DIMLIM
 70
     0
  9
$DIMTIH
 70
     0
  9
$DIMTOH
 70
     0
  9
$DIMSE1
 70
     0
  9
$DIMSE2
 70
     0
  9
$DIMTAD
 70
     1
  9
$DIMZIN
 70
     8
  9
$DIMBLK
  1

  9
$DIMASO
 70
     1
  9
$DIMSHO
 70
     0
  9
$DIMPOST
  1

  9
$DIMAPOST
  1

  9
$DIMALT
 70
     0
  9
$DIMALTD
 70
     2
  9
$DIMALTF
 40
25.399999999999999
  9
$DIMLFAC
 40
1.0
  9
$DIMTOFL
 70
     1
  9
$DIMTVP
 40
0.0
  9
$DIMTIX
 70
     1
  9
$DIMSOXD
 70
     0
  9
$DIMSAH
 70
     0
  9
$DIMBLK1
  1

  9
$DIMBLK2
  1

  9
$DIMSTYLE
  2
STANDARD
  9
$DIMCLRD
 70
     7
  9
$DIMCLRE
 70
     7
  9
$DIMCLRT
 70
     7
  9
$DIMTFAC
 40
1.0
  9
$DIMGAP
 40
25.0
  9
$LUNITS
 70
     2
  9
$LUPREC
 70
     4
  9
$SKETCHINC
 40
0.1
  9
$FILLETRAD
 40
3.0
  9
$AUNITS
 70
     1
  9
$AUPREC
 70
     3
  9
$MENU
  1
ACAD
  9
$ELEVATION
 40
0.0
  9
$PELEVATION
 40
0.0
  9
$THICKNESS
 40
0.0
  9
$LIMCHECK
 70
     0
  9
$CHAMFERA
 40
0.0
  9
$CHAMFERB
 40
0.0
  9
$SKPOLY
 70
     0
  9
$TDCREATE
 40
2453019.623009259
  9
$TDUPDATE
 40
2459356.66989044
  9
$TDINDWG
 40
1.7321224653
  9
$TDUSRTIMER
 40
1.7321224653
  9
$USRTIMER
 70
     1
  9
$ANGBASE
 50
0.0
  9
$ANGDIR
 70
     0
  9
$PDMODE
 70
     3
  9
$PDSIZE
 40
-2.0
  9
$PLINEWID
 40
0.0
  9
$SPLFRAME
 70
     0
  9
$SPLINETYPE
 70
     6
  9
$SPLINESEGS
 70
     8
  9
$SURFTAB1
 70
     6
  9
$SURFTAB2
 70
     6
  9
$SURFTYPE
 70
     6
  9
$SURFU
 70
     6
  9
$SURFV
 70
     6
  9
$UCSNAME
  2

  9
$UCSORG
 10
0.0
 20
0.0
 30
0.0
  9
$UCSXDIR
 10
1.0
 20
0.0
 30
0.0
  9
$UCSYDIR
 10
0.0
 20
1.0
 30
0.0
  9
$PUCSNAME
  2

  9
$PUCSORG
 10
0.0
 20
0.0
 30
0.0
  9
$PUCSXDIR
 10
1.0
 20
0.0
 30
0.0
  9
$PUCSYDIR
 10
0.0
 20
1.0
 30
0.0
  9
$USERI1
 70
     0
  9
$USERI2
 70
     0
  9
$USERI3
 70
     0
  9
$USERI4
 70
     0
  9
$USERI5
 70
     0
  9
$USERR1
 40
20.0
  9
$USERR2
 40
0.0
  9
$USERR3
 40
0.0
  9
$USERR4
 40
0.0
  9
$USERR5
 40
0.0
  9
$WORLDVIEW
 70
     1
  9
$SHADEDGE
 70
     3
  9
$SHADEDIF
 70
    70
  9
$TILEMODE
 70
     1
  9
$MAXACTVP
 70
    48
  9
$PINSBASE
 10
0.0
 20
0.0
 30
0.0
  9
$PLIMCHECK
 70
     0
  9
$PEXTMIN
 10
-100000000000000000000.0
 20
-100000000000000000000.0
 30
-100000000000000000000.0
  9
$PEXTMAX
 10
100000000000000000000.0
 20
100000000000000000000.0
 30
100000000000000000000.0
  9
$PLIMMIN
 10
0.0
 20
0.0
  9
$PLIMMAX
 10
12.0
 20
9.0
  9
$UNITMODE
 70
     0
  9
$VISRETAIN
 70
     0
  9
$PLINEGEN
 70
     0
  9
$PSLTSCALE
 70
     0
  9
$TREEDEPTH
 70
  3020
  9
$ATTDIA
 70
     0
  9
$ATTREQ
 70
     1
  9
$BLIPMODE
 70
     1
  9
$COORDS
 70
     1
  9
$DRAGMODE
 70
     2
  9
$OSMODE
 70
     0
  9
$HANDLING
 70
     0
  9
$HANDSEED
  5
259
  0
ENDSEC
  0
SECTION
  2
TABLES
  0
TABLE
  2
LTYPE
 70
     2
  0
LTYPE
  2
CONTINUOUS
 70
     0
  3
実線
 72
    65
 73
     0
 40
0.0
  0
LTYPE
  2
DASHDOT
 70
     0
  3
____ _ ____ _ ____ _ ____ _ ____ _ ____ _ ____
 72
    65
 73
     4
 40
5.5
 49
4.0
 49
-0.6
 49
0.3
 49
-0.6
  0
ENDTAB
  0
TABLE
  2
LAYER
 70
    12
  0
LAYER
  2
SIZE
 70
     0
 62
    30
  6
CONTINUOUS
  0
LAYER
  2
BASIS
 70
     0
 62
     6
  6
DASHDOT
  0
LAYER
  2
OUTLINE
 70
     0
 62
     3
  6
CONTINUOUS
  0
LAYER
  2
DETAIL
 70
     0
 62
     5
  6
CONTINUOUS
  0
LAYER
  2
ARRANGE
 70
     0
 62
     1
  6
CONTINUOUS
  0
LAYER
  2
ETC
 70
     0
 62
    61
  6
CONTINUOUS
  0
LAYER
  2
FIX
 70
     0
 62
    11
  6
CONTINUOUS
  0
LAYER
  2
NOTE
 70
     0
 62
     4
  6
CONTINUOUS
  0
LAYER
  2
0
 70
    64
 62
     7
  6
CONTINUOUS
  0
LAYER
  2
DEFPOINTS
 70
    64
 62
     7
  6
CONTINUOUS
  0
LAYER
  2
SERVICESPACE
 70
    64
 62
     2
  6
DASHDOT
  0
LAYER
  2
SYMBOLLINE
 70
    64
 62
    15
  6
CONTINUOUS
  0
ENDTAB
  0
TABLE
  2
STYLE
 70
     1
  0
STYLE
  2
STANDARD
 70
     0
 40
64.0
 41
0.9
 50
0.0
 71
     0
 42
64.0
  3
SIMPLEX.shx
  4
BIGFONT.shx
  0
ENDTAB
  0
TABLE
  2
APPID
 70
    20
  0
APPID
  2
ACAD
 70
     0
  0
APPID
  2
ACADANNOTATIVE
 70
     0
  0
APPID
  2
AUTOCAD_POSTSCRIPT_FIGURE
 70
     0
  0
APPID
  2
ACAD_EXEMPT_FROM_CAD_STANDARDS
 70
     0
  0
APPID
  2
ACAD_PSEXT
 70
     0
  0
APPID
  2
ACAUTHENVIRON
 70
     0
  0
APPID
  2
GENIUS_GENOENT_13
 70
     0
  0
APPID
  2
GENIUS_GENCFG_13
 70
     0
  0
APPID
  2
GENIUS_GENCFG0_13
 70
     0
  0
APPID
  2
GENIUS_GENCFG1_13
 70
     0
  0
APPID
  2
GENIUS_GENCFG2_13
 70
     0
  0
APPID
  2
GENIUS_GENCFG3_13
 70
     0
  0
APPID
  2
GENIUS_GENCFG4_13
 70
     0
  0
APPID
  2
GENIUS_GEVCFG0_13
 70
     0
  0
APPID
  2
CONTENTBLOCKICON
 70
     0
  0
APPID
  2
CONTENTBLOCKDESCRIPTION
 70
     0
  0
APPID
  2
ACAD_NAV_VCDISPLAY
 70
     0
  0
APPID
  2
ACAD_MLEADERVER
 70
     0
  0
APPID
  2
ACDBDYNAMICBLOCKTRUENAME
 70
     0
  0
APPID
  2
ACDBDYNAMICBLOCKGUID
 70
     0
  0
ENDTAB
  0
TABLE
  2
DIMSTYLE
 70
     1
  0
DIMSTYLE
  2
STANDARD
 70
     0
  3

  4

  5

  6

  7

 40
1.0
 41
12.0
 42
20.0
 43
200.0
 44
20.0
 45
0.0
 46
0.0
 47
0.0
 48
0.0
140
64.0
141
0.09
142
0.0
143
25.399999999999999
144
1.0
145
0.0
146
1.0
147
25.0
 71
     0
 72
     0
 73
     0
 74
     0
 75
     0
 76
     0
 77
     1
 78
     8
170
     0
171
     2
172
     1
173
     0
174
     1
175
     0
176
     7
177
     7
178
     7
  0
ENDTAB
  0
TABLE
  2
VIEW
 70
     1
  0
VIEW
  2
ALL
 70
     0
 40
4282.6198079999986
 10
0.0
 20
41.309904000000003
 41
5940.0
 11
0.0
 21
0.0
 31
1.0
 12
0.0
 22
0.0
 32
0.0
 42
50.0
 43
0.0
 44
0.0
 50
0.0
 71
     0
  0
ENDTAB
  0
TABLE
  2
UCS
 70
     0
  0
ENDTAB
  0
TABLE
  2
VPORT
 70
     1
  0
VPORT
  2
*ACTIVE
 70
     0
 10
0.0
 20
0.0
 11
1.0
 21
1.0
 12
200.5348346202326
 22
274.29200228570431
 13
0.0
 23
0.0
 14
1.0
 24
1.0
 15
0.0
 25
0.0
 16
0.0
 26
0.0
 36
1.0
 17
0.0
 27
0.0
 37
0.0
 40
810.5858936874389
 41
2.0172166427546632
 42
50.0
 43
0.0
 44
0.0
 50
0.0
 51
0.0
 71
     0
 72
  1000
 73
     1
 74
     3
 75
     0
 76
     0
 77
     0
 78
     0
  0
ENDTAB
  0
ENDSEC
  0
SECTION
  2
BLOCKS
  0
ENDSEC
  0
SECTION
  2
ENTITIES
  0
TEXT
  8
ETC
  6
CONTINUOUS
 62
    61
 10
205.98992482192631
 20
726.21896372592346
 30
0.0
 40
64.0
  1
V-12PSD8_6
 41
0.9
  0
TEXT
  8
ETC
  6
CONTINUOUS
 62
    61
 10
201.80393082192589
 20
608.2636537110925
 30
0.0
 40
64.0
  1
換気扇
 41
0.9
  0
LINE
  8
BASIS
  6
DASHDOT
 62
     6
 10
0.0
 20
-109.2854010143142
 30
0.0
 11
0.0
 21
109.2854010143142
 31
0.0
  0
LINE
  8
BASIS
  6
DASHDOT
 62
     6
 10
125.4561247050906
 20
0.0
 30
0.0
 11
-125.4561247050906
 21
0.0
 31
0.0
  0
TEXT
  8
ETC
  6
CONTINUOUS
 62
    61
 10
252.50532907048179
 20
500.11488082486721
 30
0.0
 40
40.0
  1
V-12PSD8
 41
0.9
  0
LINE
  8
SIZE
  6
CONTINUOUS
 62
    30
 10
-22.802757766340392
 20
77.699999999999804
 30
0.0
 11
-22.802757766340392
 21
204.26640790872261
 31
0.0
  0
LINE
  8
SIZE
  6
CONTINUOUS
 62
    30
 10
22.802757766340392
 20
77.699999999999804
 30
0.0
 11
22.802757766340392
 21
204.26640790872261
 31
0.0
  0
LINE
  8
SIZE
  6
CONTINUOUS
 62
    30
 10
-34.802757766340392
 20
184.26640790872261
 30
0.0
 11
-46.802757766340392
 21
184.26640790872261
 31
0.0
  0
LINE
  8
SIZE
  6
CONTINUOUS
 62
    30
 10
34.802757766340392
 20
184.26640790872261
 30
0.0
 11
299.86100727098562
 21
184.26640790872261
 31
0.0
  0
LINE
  8
SIZE
  6
CONTINUOUS
 62
    30
 10
-22.802757766340392
 20
184.26640790872261
 30
0.0
 11
22.802757766340392
 21
184.26640790872261
 31
0.0
  0
CIRCLE
  8
SIZE
  6
CONTINUOUS
 62
    30
 10
-22.802757766340392
 20
184.26640790872261
 30
0.0
 40
6.0
  0
LINE
  8
SIZE
  6
CONTINUOUS
 62
    30
 10
-22.802757766340392
 20
184.26640790872261
 30
0.0
 11
-34.802757766340392
 21
184.26640790872261
 31
0.0
  0
CIRCLE
  8
SIZE
  6
CONTINUOUS
 62
    30
 10
22.802757766340392
 20
184.26640790872261
 30
0.0
 40
6.0
  0
LINE
  8
SIZE
  6
CONTINUOUS
 62
    30
 10
22.802757766340392
 20
184.26640790872261
 30
0.0
 11
34.802757766340392
 21
184.26640790872261
 31
0.0
  0
TEXT
  8
SIZE
  6
CONTINUOUS
 62
    30
 10
113.8552929852713
 20
219.93307457538941
 30
0.0
 40
64.0
  1
φ46
 41
0.9
 72
     1
 11
199.43243584241421
 21
219.93307457538941
 31
0.0
  0
LINE
  8
SIZE
  6
CONTINUOUS
 62
    30
 10
-69.716727307831434
 20
20.0
 30
0.0
 11
-69.716727307831434
 21
359.54395982338559
 31
0.0
  0
LINE
  8
SIZE
  6
CONTINUOUS
 62
    30
 10
69.811447054151586
 20
20.0
 30
0.0
 11
69.811447054151586
 21
359.54395982338559
 31
0.0
  0
LINE
  8
SIZE
  6
CONTINUOUS
 62
    30
 10
-57.716727307831427
 20
339.54395982338559
 30
0.0
 11
57.811447054151593
 21
339.54395982338559
 31
0.0
  0
LINE
  8
SIZE
  6
CONTINUOUS
 62
    30
 10
69.811447054151586
 20
339.54395982338559
 30
0.0
 11
331.53852860084851
 21
339.54395982338559
 31
0.0
  0
CIRCLE
  8
SIZE
  6
CONTINUOUS
 62
    30
 10
-69.716727307831434
 20
339.54395982338559
 30
0.0
 40
6.0
  0
LINE
  8
SIZE
  6
CONTINUOUS
 62
    30
 10
-69.716727307831434
 20
339.54395982338559
 30
0.0
 11
-57.716727307831427
 21
339.54395982338559
 31
0.0
  0
CIRCLE
  8
SIZE
  6
CONTINUOUS
 62
    30
 10
69.811447054151586
 20
339.54395982338559
 30
0.0
 40
6.0
  0
LINE
  8
SIZE
  6
CONTINUOUS
 62
    30
 10
69.811447054151586
 20
339.54395982338559
 30
0.0
 11
57.811447054151593
 21
339.54395982338559
 31
0.0
  0
TEXT
  8
SIZE
  6
CONTINUOUS
 62
    30
 10
98.904242886562841
 20
375.21062649005228
 30
0.0
 40
64.0
  1
φ140
 41
0.9
 72
     1
 11
207.7956714579914
 21
375.21062649005228
 31
0.0
  0
LINE
  8
NOTE
  6
CONTINUOUS
 62
     4
 10
-95.0
 20
10.0
 30
0.0
 11
-95.0
 21
-10.0
 31
0.0
  0
LINE
  8
NOTE
  6
CONTINUOUS
 62
     4
 10
94.999320455673796
 20
10.0
 30
0.0
 11
94.999320455673796
 21
-10.0
 31
0.0
  0
CIRCLE
  8
FIX
  6
CONTINUOUS
 62
    11
 10
94.999320455673796
 20
0.0
 30
0.0
 40
2.5
  0
CIRCLE
  8
FIX
  6
CONTINUOUS
 62
    11
 10
-95.0
 20
0.0
 30
0.0
 40
2.5
  0
LINE
  8
SIZE
  6
CONTINUOUS
 62
    30
 10
-95.0
 20
30.0
 30
0.0
 11
-94.999999999999943
 21
554.47037379501762
 31
0.0
  0
LINE
  8
SIZE
  6
CONTINUOUS
 62
    30
 10
94.999320455673796
 20
29.83513244325172
 30
0.0
 11
94.999320455673796
 21
554.47037379501762
 31
0.0
  0
LINE
  8
SIZE
  6
CONTINUOUS
 62
    30
 10
-83.0
 20
534.47037379501762
 30
0.0
 11
82.999320455673796
 21
534.47037379501762
 31
0.0
  0
CIRCLE
  8
SIZE
  6
CONTINUOUS
 62
    30
 10
-94.999999999999943
 20
534.47037379501762
 30
0.0
 40
6.0
  0
LINE
  8
SIZE
  6
CONTINUOUS
 62
    30
 10
-94.999999999999943
 20
534.47037379501762
 30
0.0
 11
-83.0
 21
534.47037379501762
 31
0.0
  0
CIRCLE
  8
SIZE
  6
CONTINUOUS
 62
    30
 10
94.999320455673796
 20
534.47037379501762
 30
0.0
 40
6.0
  0
LINE
  8
SIZE
  6
CONTINUOUS
 62
    30
 10
94.999320455673796
 20
534.47037379501762
 30
0.0
 11
82.999320455673796
 21
534.47037379501762
 31
0.0
  0
TEXT
  8
SIZE
  6
CONTINUOUS
 62
    30
 10
-68.571428571428569
 20
559.47037379501762
 30
0.0
 40
64.0
  1
190
 41
0.9
 72
     1
 11
0.0
 21
559.47037379501762
 31
0.0
  0
LINE
  8
SIZE
  6
CONTINUOUS
 62
    30
 10
-104.96510354610341
 20
-20.30523572199991
 30
0.0
 11
-104.96510354610341
 21
-241.87012389972011
 31
0.0
  0
LINE
  8
SIZE
  6
CONTINUOUS
 62
    30
 10
105.02424063519651
 20
-20.30523572199991
 30
0.0
 11
105.02424063519651
 21
-241.87012389972011
 31
0.0
  0
LINE
  8
SIZE
  6
CONTINUOUS
 62
    30
 10
93.02424063519652
 20
-221.87012389972011
 30
0.0
 11
-92.965103546103364
 21
-221.87012389972011
 31
0.0
  0
LINE
  8
SIZE
  6
CONTINUOUS
 62
    30
 10
-104.96510354610341
 20
-221.87012389972011
 30
0.0
 11
-369.38796068896067
 21
-221.87012389972011
 31
0.0
  0
CIRCLE
  8
SIZE
  6
CONTINUOUS
 62
    30
 10
105.02424063519651
 20
-221.87012389972011
 30
0.0
 40
6.0
  0
LINE
  8
SIZE
  6
CONTINUOUS
 62
    30
 10
105.02424063519651
 20
-221.87012389972011
 30
0.0
 11
93.02424063519652
 21
-221.87012389972011
 31
0.0
  0
CIRCLE
  8
SIZE
  6
CONTINUOUS
 62
    30
 10
-104.96510354610341
 20
-221.87012389972011
 30
0.0
 40
6.0
  0
LINE
  8
SIZE
  6
CONTINUOUS
 62
    30
 10
-104.96510354610341
 20
-221.87012389972011
 30
0.0
 11
-92.965103546103421
 21
-221.87012389972011
 31
0.0
  0
TEXT
  8
SIZE
  6
CONTINUOUS
 62
    30
 10
-348.22796068896059
 20
-196.87012389972011
 30
0.0
 40
64.0
  1
□210
 41
0.9
 72
     1
 11
-243.17653211753199
 21
-196.87012389972011
 31
0.0
  0
LINE
  8
SIZE
  6
CONTINUOUS
 62
    30
 10
-20.0
 20
-58.300000000000637
 30
0.0
 11
-301.24014326142083
 21
-58.300000000000537
 31
0.0
  0
LINE
  8
SIZE
  6
CONTINUOUS
 62
    30
 10
-145.45612470509059
 20
0.0
 30
0.0
 11
-301.24014326142083
 21
0.0000000000000568
 31
0.0
  0
LINE
  8
SIZE
  6
CONTINUOUS
 62
    30
 10
-281.2401432614206
 20
-70.30000000000058
 30
0.0
 11
-281.2401432614206
 21
-82.30000000000058
 31
0.0
  0
LINE
  8
SIZE
  6
CONTINUOUS
 62
    30
 10
-281.2401432614206
 20
12.00000000000003
 30
0.0
 11
-281.2401432614206
 21
24.00000000000006
 31
0.0
  0
LINE
  8
SIZE
  6
CONTINUOUS
 62
    30
 10
-281.2401432614206
 20
-58.30000000000058
 30
0.0
 11
-281.2401432614206
 21
0.0000000000000568
 31
0.0
  0
CIRCLE
  8
SIZE
  6
CONTINUOUS
 62
    30
 10
-281.2401432614206
 20
-58.30000000000058
 30
0.0
 40
6.0
  0
LINE
  8
SIZE
  6
CONTINUOUS
 62
    30
 10
-281.2401432614206
 20
-58.30000000000058
 30
0.0
 11
-281.2401432614206
 21
-70.300000000000523
 31
0.0
  0
CIRCLE
  8
SIZE
  6
CONTINUOUS
 62
    30
 10
-281.2401432614206
 20
0.0000000000000568
 30
0.0
 40
6.0
  0
LINE
  8
SIZE
  6
CONTINUOUS
 62
    30
 10
-281.2401432614206
 20
0.0000000000000568
 30
0.0
 11
-281.2401432614206
 21
12.00000000000006
 31
0.0
  0
TEXT
  8
SIZE
  6
CONTINUOUS
 62
    30
 10
-306.24014326142083
 20
-75.778571428571738
 30
0.0
 40
64.0
  1
58
 50
90.0
 41
0.9
 72
     1
 11
-306.24014326142083
 21
-29.150000000000318
 31
0.0
  0
LINE
  8
SIZE
  6
CONTINUOUS
 62
    30
 10
-39.632986652399957
 20
70.399999999999636
 30
0.0
 11
-301.24014326142083
 21
70.39999999999975
 31
0.0
  0
LINE
  8
SIZE
  6
CONTINUOUS
 62
    30
 10
-145.45612470509059
 20
0.0
 30
0.0
 11
-301.24014326142083
 21
0.0000000000000568
 31
0.0
  0
LINE
  8
SIZE
  6
CONTINUOUS
 62
    30
 10
-281.2401432614206
 20
-11.99999999999997
 30
0.0
 11
-281.2401432614206
 21
-23.99999999999994
 31
0.0
  0
LINE
  8
SIZE
  6
CONTINUOUS
 62
    30
 10
-281.2401432614206
 20
82.399999999999707
 30
0.0
 11
-281.24014326142049
 21
237.65714285714259
 31
0.0
  0
LINE
  8
SIZE
  6
CONTINUOUS
 62
    30
 10
-281.2401432614206
 20
0.0000000000000568
 30
0.0
 11
-281.2401432614206
 21
70.399999999999679
 31
0.0
  0
CIRCLE
  8
SIZE
  6
CONTINUOUS
 62
    30
 10
-281.2401432614206
 20
0.0000000000000568
 30
0.0
 40
6.0
  0
LINE
  8
SIZE
  6
CONTINUOUS
 62
    30
 10
-281.2401432614206
 20
0.0000000000000568
 30
0.0
 11
-281.2401432614206
 21
-11.99999999999994
 31
0.0
  0
CIRCLE
  8
SIZE
  6
CONTINUOUS
 62
    30
 10
-281.2401432614206
 20
70.399999999999679
 30
0.0
 40
6.0
  0
LINE
  8
SIZE
  6
CONTINUOUS
 62
    30
 10
-281.2401432614206
 20
70.399999999999679
 30
0.0
 11
-281.2401432614206
 21
82.399999999999707
 31
0.0
  0
TEXT
  8
SIZE
  6
CONTINUOUS
 62
    30
 10
-306.24014326142083
 20
119.39999999999969
 30
0.0
 40
64.0
  1
70
 50
90.0
 41
0.9
 72
     1
 11
-306.24014326142083
 21
166.0285714285711
 31
0.0
  0
TEXT
  8
NOTE
  6
CONTINUOUS
 62
     4
 10
369.48198626294197
 20
122.5070051672692
 30
0.0
 40
64.0
  1
2-φ4×10
 41
0.9
  0
LINE
  8
NOTE
  6
CONTINUOUS
 62
     4
 10
101.2107677373623
 20
-0.0512050466650749
 30
0.0
 11
94.999320455673796
 21
0.0
 31
0.0
  0
LINE
  8
NOTE
  6
CONTINUOUS
 62
     4
 10
94.999320455673796
 20
0.0
 30
0.0
 11
100.4041895058847
 21
3.0613869144673909
 31
0.0
  0
LINE
  8
NOTE
  6
CONTINUOUS
 62
     4
 10
94.999320455673796
 20
0.0
 30
0.0
 11
106.61563678757329
 21
3.010181867802316
 31
0.0
  0
LINE
  8
NOTE
  6
CONTINUOUS
 62
     4
 10
106.61563678757329
 20
3.010181867802316
 30
0.0
 11
371.78991635578859
 21
77.073209171673398
 31
0.0
  0
LINE
  8
NOTE
  6
CONTINUOUS
 62
     4
 10
371.78991635578859
 20
77.073209171673398
 30
0.0
 11
764.56705921293133
 21
77.073209171673398
 31
0.0
  0
LINE
  8
SIZE
  6
CONTINUOUS
 62
    30
 10
-99.318232138800127
 20
57.699999999999818
 30
0.0
 11
-180.8242548857406
 21
57.699999999999818
 31
0.0
  0
LINE
  8
SIZE
  6
CONTINUOUS
 62
    30
 10
-145.45612470509059
 20
0.0
 30
0.0
 11
-180.8242548857406
 21
0.0000000000000284
 31
0.0
  0
LINE
  8
SIZE
  6
CONTINUOUS
 62
    30
 10
-160.8242548857406
 20
-12.0
 30
0.0
 11
-160.8242548857406
 21
-24.0
 31
0.0
  0
LINE
  8
SIZE
  6
CONTINUOUS
 62
    30
 10
-160.8242548857406
 20
69.699999999999889
 30
0.0
 11
-160.8242548857406
 21
225.97134375450611
 31
0.0
  0
LINE
  8
SIZE
  6
CONTINUOUS
 62
    30
 10
-160.8242548857406
 20
0.0
 30
0.0
 11
-160.8242548857406
 21
57.699999999999818
 31
0.0
  0
CIRCLE
  8
SIZE
  6
CONTINUOUS
 62
    30
 10
-160.8242548857406
 20
0.0
 30
0.0
 40
6.0
  0
LINE
  8
SIZE
  6
CONTINUOUS
 62
    30
 10
-160.8242548857406
 20
0.0
 30
0.0
 11
-160.8242548857406
 21
-12.0
 31
0.0
  0
CIRCLE
  8
SIZE
  6
CONTINUOUS
 62
    30
 10
-160.8242548857406
 20
57.699999999999818
 30
0.0
 40
6.0
  0
LINE
  8
SIZE
  6
CONTINUOUS
 62
    30
 10
-160.8242548857406
 20
57.699999999999818
 30
0.0
 11
-160.8242548857406
 21
69.699999999999818
 31
0.0
  0
TEXT
  8
SIZE
  6
CONTINUOUS
 62
    30
 10
-185.8242548857406
 20
107.7142008973633
 30
0.0
 40
64.0
  1
58
 50
90.0
 41
0.9
 72
     1
 11
-185.8242548857406
 21
154.3427723259347
 31
0.0
  0
LINE
  8
DETAIL
  6
CONTINUOUS
 62
     5
 10
-11.526182597400011
 20
-14.74727923651724
 30
0.0
 11
11.526182597400121
 21
-14.74727923651727
 31
0.0
  0
ARC
  8
DETAIL
  6
CONTINUOUS
 62
     5
 10
-11.52613921299934
 20
-15.747322620917229
 30
0.0
 40
1.000045264000017
 50
90.011210104599385
 51
269.86312150661769
  0
LINE
  8
DETAIL
  6
CONTINUOUS
 62
     5
 10
-11.526182571262151
 20
-16.745244935993949
 30
0.0
 11
11.526182623537981
 21
-16.745244935993981
 31
0.0
  0
ARC
  8
DETAIL
  6
CONTINUOUS
 62
     5
 10
11.526182623537981
 20
-15.745244935994091
 30
0.0
 40
1.0000000000000151
 50
270.0
 51
89.771869177696246
  0
CIRCLE
  8
ARRANGE
  6
CONTINUOUS
 62
     1
 10
0.0
 20
0.0
 30
0.0
 40
40.0
  0
POINT
  8
ARRANGE
  6
CONTINUOUS
 62
     1
 10
0.0
 20
0.0
 30
0.0
  0
LINE
  8
DETAIL
  6
CONTINUOUS
 62
     5
 10
-104.6651492376034
 20
0.0
 30
0.0
 11
104.7242863265967
 21
0.0
 31
0.0
  0
ARC
  8
DETAIL
  6
CONTINUOUS
 62
     5
 10
104.7242863265967
 20
-0.3000000000001819
 30
0.0
 40
0.3000000000000275
 50
359.00000000000477
 51
90.0
  0
LINE
  8
DETAIL
  6
CONTINUOUS
 62
     5
 10
104.4767894020415
 20
-50.668695864148958
 30
0.0
 11
105.02424063519651
 21
-0.3052357219999067
 31
0.0
  0
LINE
  8
DETAIL
  6
CONTINUOUS
 62
     5
 10
-104.41761589633759
 20
-50.670782170474013
 30
0.0
 11
-104.96510354610341
 21
-0.3052357219999067
 31
0.0
  0
ARC
  8
DETAIL
  6
CONTINUOUS
 62
     5
 10
-104.6651492375577
 20
-0.3000000000001819
 30
0.0
 40
0.300000000000065
 50
90.0
 51
180.99999999999531
  0
ARC
  8
DETAIL
  6
CONTINUOUS
 62
     5
 10
0.0000000000002274
 20
2741.6999999999989
 30
0.0
 40
2800.0
 50
267.98134102836809
 51
272.0198731801982
  0
ARC
  8
DETAIL
  6
CONTINUOUS
 62
     5
 10
-98.418529725399367
 20
-50.56606773185058
 30
0.0
 40
5.9999999999999956
 50
180.99999999999531
 51
267.98134102836809
  0
ARC
  8
DETAIL
  6
CONTINUOUS
 62
     5
 10
98.477703231103305
 20
-50.563981425525533
 30
0.0
 40
6.0000000000002052
 50
272.0198731801982
 51
358.99999999999818
  0
LINE
  8
DETAIL
  6
CONTINUOUS
 62
     5
 10
69.284861461295861
 20
57.699999999999818
 30
0.0
 11
69.811447054151586
 21
0.0
 31
0.0
  0
LINE
  8
DETAIL
  6
CONTINUOUS
 62
     5
 10
-69.190141714948709
 20
57.699999999999818
 30
0.0
 11
-69.716727307831434
 21
0.0
 31
0.0
  0
ARC
  8
DETAIL
  6
CONTINUOUS
 62
     5
 10
19.63298665239995
 20
67.400000000000091
 30
0.0
 40
2.9999999999999289
 50
1.0000000000017619
 51
90.0
  0
LINE
  8
DETAIL
  6
CONTINUOUS
 62
     5
 10
22.802757766340392
 20
57.699999999999818
 30
0.0
 11
22.632529737900089
 21
67.452357219299756
 31
0.0
  0
ARC
  8
DETAIL
  6
CONTINUOUS
 62
     5
 10
-19.63298665239995
 20
67.400000000000091
 30
0.0
 40
2.9999999999999978
 50
90.0
 51
178.99999999999829
  0
LINE
  8
DETAIL
  6
CONTINUOUS
 62
     5
 10
-22.802757766340392
 20
57.699999999999818
 30
0.0
 11
-22.632529737899858
 21
67.452357219299756
 31
0.0
  0
LINE
  8
DETAIL
  6
CONTINUOUS
 62
     5
 10
-19.63298665239995
 20
70.399999999999636
 30
0.0
 11
19.63298665239995
 21
70.399999999999636
 31
0.0
  0
LINE
  8
DETAIL
  6
CONTINUOUS
 62
     5
 10
69.284861461295861
 20
57.699999999999797
 30
0.0
 11
-69.190141714948709
 21
57.699999999999797
 31
0.0
  0
LINE
  8
OUTLINE
  6
CONTINUOUS
 62
     3
 10
-104.6651492376034
 20
0.0
 30
0.0
 11
104.7242863265967
 21
0.0
 31
0.0
  0
ARC
  8
OUTLINE
  6
CONTINUOUS
 62
     3
 10
104.7242863265967
 20
-0.3000000000001819
 30
0.0
 40
0.3000000000000275
 50
358.99999999999818
 51
90.0
  0
LINE
  8
OUTLINE
  6
CONTINUOUS
 62
     3
 10
104.4767894020415
 20
-50.668695864148958
 30
0.0
 11
105.02424063519651
 21
-0.3052357219999067
 31
0.0
  0
LINE
  8
OUTLINE
  6
CONTINUOUS
 62
     3
 10
-104.41761589633759
 20
-50.670782170474013
 30
0.0
 11
-104.96510354610341
 21
-0.3052357219999067
 31
0.0
  0
ARC
  8
OUTLINE
  6
CONTINUOUS
 62
     3
 10
-104.6651492375577
 20
-0.3000000000001819
 30
0.0
 40
0.300000000000065
 50
90.0
 51
180.99999999998869
  0
ARC
  8
OUTLINE
  6
CONTINUOUS
 62
     3
 10
0.0000000000002274
 20
2741.6999999999989
 30
0.0
 40
2800.0
 50
267.98134102836809
 51
272.0198731801982
  0
ARC
  8
OUTLINE
  6
CONTINUOUS
 62
     3
 10
-98.418529725399367
 20
-50.56606773185058
 30
0.0
 40
5.9999999999999956
 50
180.99999999998869
 51
267.98134102836809
  0
ARC
  8
OUTLINE
  6
CONTINUOUS
 62
     3
 10
98.477703231103305
 20
-50.563981425525533
 30
0.0
 40
6.0000000000002052
 50
272.0198731801982
 51
358.99999999999818
  0
LINE
  8
OUTLINE
  6
CONTINUOUS
 62
     3
 10
69.284861461295861
 20
57.699999999999818
 30
0.0
 11
69.811447054151586
 21
0.0
 31
0.0
  0
ARC
  8
OUTLINE
  6
CONTINUOUS
 62
     3
 10
19.63298665239995
 20
67.400000000000091
 30
0.0
 40
2.9999999999999289
 50
1.0000000000017619
 51
90.0
  0
LINE
  8
OUTLINE
  6
CONTINUOUS
 62
     3
 10
22.802757766340392
 20
57.699999999999818
 30
0.0
 11
22.632529737900089
 21
67.452357219299756
 31
0.0
  0
ARC
  8
OUTLINE
  6
CONTINUOUS
 62
     3
 10
-19.63298665239995
 20
67.400000000000091
 30
0.0
 40
2.9999999999999978
 50
90.0
 51
178.99999999999829
  0
LINE
  8
OUTLINE
  6
CONTINUOUS
 62
     3
 10
-22.802757766340392
 20
57.699999999999818
 30
0.0
 11
-22.632529737899858
 21
67.452357219299756
 31
0.0
  0
LINE
  8
OUTLINE
  6
CONTINUOUS
 62
     3
 10
-19.63298665239995
 20
70.399999999999636
 30
0.0
 11
19.63298665239995
 21
70.399999999999636
 31
0.0
  0
LINE
  8
OUTLINE
  6
CONTINUOUS
 62
     3
 10
69.284861461295861
 20
57.699999999999797
 30
0.0
 11
-69.190141714948709
 21
57.699999999999797
 31
0.0
  0
LINE
  8
OUTLINE
  6
CONTINUOUS
 62
     3
 10
-69.190142915676461
 20
57.699999999999818
 30
0.0
 11
-69.716728508481083
 21
0.0000000085633474
 31
0.0
  0
ENDSEC
  0
EOF
