  0
SECTION
  2
HEADER
  9
$ACADVER
  1
AC1009
  9
$DWGCODEPAGE
  3
dos932
  9
$INSBASE
 10
0.0
 20
0.0
 30
0.0
  9
$EXTMIN
 10
-180.8604680808517
 20
-263.9048191027614
 30
0.0
  9
$EXTMAX
 10
2090.519371007436
 20
1346.360996184176
 30
50.0
  9
$LIMMIN
 10
-2970.0
 20
-2100.0
  9
$LIMMAX
 10
2970.0
 20
2100.0
  9
$ORTHOMODE
 70
     0
  9
$REGENMODE
 70
     1
  9
$FILLMODE
 70
     1
  9
$QTEXTMODE
 70
     0
  9
$MIRRTEXT
 70
     0
  9
$DRAGMODE
 70
     2
  9
$LTSCALE
 40
20.0
  9
$OSMODE
 70
    37
  9
$ATTMODE
 70
     1
  9
$TEXTSIZE
 40
64.0
  9
$TRACEWID
 40
0.05
  9
$TEXTSTYLE
  7
STANDARD
  9
$CLAYER
  8
DETAIL
  9
$CELTYPE
  6
CONTINUOUS
  9
$CECOLOR
 62
     7
  9
$DIMSCALE
 40
1.0
  9
$DIMASZ
 40
12.0
  9
$DIMEXO
 40
20.0
  9
$DIMDLI
 40
200.0
  9
$DIMRND
 40
0.0
  9
$DIMDLE
 40
0.0
  9
$DIMEXE
 40
20.0
  9
$DIMTP
 40
0.0
  9
$DIMTM
 40
0.0
  9
$DIMTXT
 40
64.0
  9
$DIMCEN
 40
0.09
  9
$DIMTSZ
 40
0.0
  9
$DIMTOL
 70
     0
  9
$DIMLIM
 70
     0
  9
$DIMTIH
 70
     0
  9
$DIMTOH
 70
     0
  9
$DIMSE1
 70
     0
  9
$DIMSE2
 70
     0
  9
$DIMTAD
 70
     1
  9
$DIMZIN
 70
     8
  9
$DIMBLK
  1

  9
$DIMASO
 70
     1
  9
$DIMSHO
 70
     0
  9
$DIMPOST
  1

  9
$DIMAPOST
  1

  9
$DIMALT
 70
     0
  9
$DIMALTD
 70
     2
  9
$DIMALTF
 40
25.4
  9
$DIMLFAC
 40
1.0
  9
$DIMTOFL
 70
     1
  9
$DIMTVP
 40
0.0
  9
$DIMTIX
 70
     1
  9
$DIMSOXD
 70
     0
  9
$DIMSAH
 70
     0
  9
$DIMBLK1
  1

  9
$DIMBLK2
  1

  9
$DIMSTYLE
  2
STANDARD
  9
$DIMCLRD
 70
     7
  9
$DIMCLRE
 70
     7
  9
$DIMCLRT
 70
     7
  9
$DIMTFAC
 40
1.0
  9
$DIMGAP
 40
25.0
  9
$LUNITS
 70
     2
  9
$LUPREC
 70
     4
  9
$SKETCHINC
 40
0.1
  9
$FILLETRAD
 40
3.0
  9
$AUNITS
 70
     1
  9
$AUPREC
 70
     3
  9
$MENU
  1
ACAD
  9
$ELEVATION
 40
0.0
  9
$PELEVATION
 40
0.0
  9
$THICKNESS
 40
50.0
  9
$LIMCHECK
 70
     0
  9
$CHAMFERA
 40
0.0
  9
$CHAMFERB
 40
0.0
  9
$SKPOLY
 70
     0
  9
$TDCREATE
 40
2453019.623010359
  9
$TDUPDATE
 40
2457485.586244491
  9
$TDINDWG
 40
1.7538244792
  9
$TDUSRTIMER
 40
1.7538244792
  9
$USRTIMER
 70
     1
  9
$ANGBASE
 50
0.0
  9
$ANGDIR
 70
     0
  9
$PDMODE
 70
     3
  9
$PDSIZE
 40
-2.0
  9
$PLINEWID
 40
0.0
  9
$COORDS
 70
     1
  9
$SPLFRAME
 70
     0
  9
$SPLINETYPE
 70
     6
  9
$SPLINESEGS
 70
     8
  9
$ATTDIA
 70
     0
  9
$ATTREQ
 70
     1
  9
$HANDLING
 70
     1
  9
$HANDSEED
  5
23BE3
  9
$SURFTAB1
 70
     6
  9
$SURFTAB2
 70
     6
  9
$SURFTYPE
 70
     6
  9
$SURFU
 70
     6
  9
$SURFV
 70
     6
  9
$UCSNAME
  2

  9
$UCSORG
 10
0.0
 20
0.0
 30
0.0
  9
$UCSXDIR
 10
1.0
 20
0.0
 30
0.0
  9
$UCSYDIR
 10
0.0
 20
1.0
 30
0.0
  9
$PUCSNAME
  2

  9
$PUCSORG
 10
0.0
 20
0.0
 30
0.0
  9
$PUCSXDIR
 10
1.0
 20
0.0
 30
0.0
  9
$PUCSYDIR
 10
0.0
 20
1.0
 30
0.0
  9
$USERI1
 70
     0
  9
$USERI2
 70
     0
  9
$USERI3
 70
     0
  9
$USERI4
 70
     0
  9
$USERI5
 70
     0
  9
$USERR1
 40
20.0
  9
$USERR2
 40
0.0
  9
$USERR3
 40
0.0
  9
$USERR4
 40
0.0
  9
$USERR5
 40
0.0
  9
$WORLDVIEW
 70
     1
  9
$SHADEDGE
 70
     3
  9
$SHADEDIF
 70
    70
  9
$TILEMODE
 70
     1
  9
$MAXACTVP
 70
    48
  9
$PLIMCHECK
 70
     0
  9
$PEXTMIN
 10
-1.000000000000000E+20
 20
-1.000000000000000E+20
 30
-1.000000000000000E+20
  9
$PEXTMAX
 10
1.000000000000000E+20
 20
1.000000000000000E+20
 30
1.000000000000000E+20
  9
$PLIMMIN
 10
0.0
 20
0.0
  9
$PLIMMAX
 10
12.0
 20
9.0
  9
$UNITMODE
 70
     0
  9
$VISRETAIN
 70
     0
  9
$PLINEGEN
 70
     0
  9
$PSLTSCALE
 70
     0
  0
ENDSEC
  0
SECTION
  2
TABLES
  0
TABLE
  2
VPORT
 70
     1
  0
VPORT
  2
*ACTIVE
 70
     0
 10
0.0
 20
0.0
 11
1.0
 21
1.0
 12
954.8294514632922
 22
541.2280885407075
 13
0.0
 23
0.0
 14
1.0
 24
1.0
 15
0.0
 25
0.0
 16
0.0
 26
0.0
 36
1.0
 17
0.0
 27
0.0
 37
0.0
 40
1755.076197944865
 41
1.302139037433155
 42
50.0
 43
0.0
 44
0.0
 50
0.0
 51
0.0
 71
     0
 72
  1000
 73
     1
 74
     0
 75
     0
 76
     0
 77
     0
 78
     0
  0
ENDTAB
  0
TABLE
  2
LTYPE
 70
     3
  0
LTYPE
  2
CONTINUOUS
 70
     0
  3
実線
 72
    65
 73
     0
 40
0.0
  0
LTYPE
  2
DASHDOT
 70
     0
  3
____ _ ____ _ ____ _ ____ _ ____ _ ____ _ ____
 72
    65
 73
     4
 40
5.5
 49
4.0
 49
-0.6
 49
0.3
 49
-0.6
  0
LTYPE
  2
DIVIDE
 70
     0
  3
Divide ____ . . ____ . . ____ . . ____ . . ____
 72
    65
 73
     6
 40
1.25
 49
0.5
 49
-0.25
 49
0.0
 49
-0.25
 49
0.0
 49
-0.25
  0
ENDTAB
  0
TABLE
  2
LAYER
 70
    12
  0
LAYER
  2
0
 70
     0
 62
     7
  6
CONTINUOUS
  0
LAYER
  2
BASIS
 70
     0
 62
     6
  6
DASHDOT
  0
LAYER
  2
OUTLINE
 70
     0
 62
     3
  6
CONTINUOUS
  0
LAYER
  2
DETAIL
 70
     0
 62
     5
  6
CONTINUOUS
  0
LAYER
  2
SIZE
 70
     0
 62
    30
  6
CONTINUOUS
  0
LAYER
  2
ARRANGE
 70
     0
 62
     1
  6
CONTINUOUS
  0
LAYER
  2
DEFPOINTS
 70
     0
 62
     7
  6
CONTINUOUS
  0
LAYER
  2
ETC
 70
     0
 62
    61
  6
CONTINUOUS
  0
LAYER
  2
FIX
 70
     0
 62
    11
  6
CONTINUOUS
  0
LAYER
  2
NOTE
 70
     0
 62
     4
  6
CONTINUOUS
  0
LAYER
  2
SERVICESPACE
 70
     0
 62
     2
  6
DASHDOT
  0
LAYER
  2
SYMBOLLINE
 70
     0
 62
    15
  6
CONTINUOUS
  0
ENDTAB
  0
TABLE
  2
STYLE
 70
     1
  0
STYLE
  2
STANDARD
 70
     0
 40
64.0
 41
0.9
 50
0.0
 71
     0
 42
64.0
  3
SIMPLEX.shx
  4
BIGFONT.shx
  0
ENDTAB
  0
TABLE
  2
VIEW
 70
     1
  0
VIEW
  2
ALL
 70
     0
 40
4282.619807999999
 10
0.0
 20
41.309904
 41
5940.0
 11
0.0
 21
0.0
 31
1.0
 12
0.0
 22
0.0
 32
0.0
 42
50.0
 43
0.0
 44
0.0
 50
0.0
 71
     0
  0
ENDTAB
  0
TABLE
  2
UCS
 70
     0
  0
ENDTAB
  0
TABLE
  2
APPID
 70
    15
  0
APPID
  2
ACAD
 70
     0
  0
APPID
  2
AUTOCAD_POSTSCRIPT_FIGURE
 70
     0
  0
APPID
  2
ACAD_EXEMPT_FROM_CAD_STAND
 70
     0
  0
APPID
  2
ACAD_PSEXT
 70
     0
  0
APPID
  2
ACAUTHENVIRON
 70
     0
  0
APPID
  2
GENIUS_GENOENT_13
 70
     0
  0
APPID
  2
GENIUS_GENCFG_13
 70
     0
  0
APPID
  2
GENIUS_GENCFG0_13
 70
     0
  0
APPID
  2
GENIUS_GENCFG1_13
 70
     0
  0
APPID
  2
GENIUS_GENCFG2_13
 70
     0
  0
APPID
  2
GENIUS_GENCFG3_13
 70
     0
  0
APPID
  2
GENIUS_GENCFG4_13
 70
     0
  0
APPID
  2
GENIUS_GEVCFG0_13
 70
     0
  0
APPID
  2
CONTENTBLOCKICON
 70
     0
  0
APPID
  2
CONTENTBLOCKDESCRIPTION
 70
     0
  0
ENDTAB
  0
TABLE
  2
DIMSTYLE
 70
     1
  0
DIMSTYLE
  2
STANDARD
 70
     0
  3

  4

  5
ORIGIN
  6

  7

 40
1.0
 41
12.0
 42
20.0
 43
200.0
 44
20.0
 45
0.0
 46
0.0
 47
0.0
 48
0.0
140
64.0
141
0.09
142
0.0
143
25.4
144
1.0
145
0.0
146
1.0
147
25.0
 71
     0
 72
     0
 73
     0
 74
     0
 75
     0
 76
     0
 77
     1
 78
     8
170
     0
171
     2
172
     1
173
     0
174
     1
175
     0
176
     7
177
     7
178
     7
  0
ENDTAB
  0
ENDSEC
  0
SECTION
  2
BLOCKS
  0
BLOCK
  8
0
  2
$MODEL_SPACE
 70
     0
 10
0.0
 20
0.0
 30
0.0
  3
$MODEL_SPACE
  1

  0
ENDBLK
  5
23BBB
  8
0
  0
BLOCK
 67
     1
  8
0
  2
$PAPER_SPACE
 70
     0
 10
0.0
 20
0.0
 30
0.0
  3
$PAPER_SPACE
  1

  0
ENDBLK
  5
23BBD
 67
     1
  8
0
  0
BLOCK
  8
0
  2
_ORIGIN
 70
     0
 10
0.0
 20
0.0
 30
0.0
  3
_ORIGIN
  1

  0
CIRCLE
  5
2364C
  8
0
  6
CONTINUOUS
 62
     7
 10
0.0
 20
0.0
 30
0.0
 40
0.5
  0
LINE
  5
2364D
  8
0
  6
CONTINUOUS
 62
     7
 10
0.0
 20
0.0
 30
0.0
 11
-1.0
 21
0.0
 31
0.0
  0
ENDBLK
  5
2364E
  8
0
  0
ENDSEC
  0
SECTION
  2
ENTITIES
  0
TEXT
  5
2364F
  8
ETC
  6
CONTINUOUS
 62
    61
 10
862.6237775419245
 20
961.734755514098
 30
0.0
 40
64.0
  1
V-142BZL_5
 41
0.9
  0
TEXT
  5
23650
  8
ETC
  6
CONTINUOUS
 62
    61
 10
858.4377835419245
 20
843.779445499267
 30
0.0
 40
64.0
  1
換気扇
 41
0.9
  0
TEXT
  5
23651
  8
ETC
  6
CONTINUOUS
 62
    61
 10
909.0452861941806
 20
736.858509830533
 30
0.0
 40
40.0
  1
V-142BZL
 41
0.9
  0
CIRCLE
  5
23652
  8
ARRANGE
  6
CONTINUOUS
 62
     1
 10
0.0
 20
0.0
 30
0.0
 40
40.0
  0
POINT
  5
23653
  8
ARRANGE
  6
CONTINUOUS
 62
     1
 39
50.0
 10
0.0
 20
0.0
 30
0.0
  0
LINE
  5
23654
  8
BASIS
  6
DASHDOT
 62
     6
 39
50.0
 10
128.789675687467
 20
0.0
 30
0.0
 11
-122.122573722714
 21
0.0
 31
0.0
  0
TEXT
  5
23655
  8
ETC
  6
CONTINUOUS
 62
    61
 10
909.0452861941806
 20
676.858509830533
 30
0.0
 40
40.0
  1
V-143BZL
 41
0.9
  0
TEXT
  5
23656
  8
NOTE
  6
CONTINUOUS
 62
     4
 10
6.036280238178733
 20
81.49207298833238
 30
0.0
 40
40.0
  1
RA2
 41
0.9
  0
TEXT
  5
23657
  8
NOTE
  6
CONTINUOUS
 62
     4
 10
-863.4854137750308
 20
-322.7096913013365
 30
0.0
 40
64.0
  1
据付用穴　12
 41
0.9
  0
LINE
  5
23658
  8
NOTE
  6
CONTINUOUS
 62
     4
 39
50.0
 10
-865.6703472606491
 20
-366.512996533068
 30
0.0
 11
-428.7220843504372
 21
-366.1974717018151
 31
0.0
  0
LINE
  5
23659
  8
NOTE
  6
CONTINUOUS
 62
     4
 39
50.0
 10
-428.7220843504372
 20
-366.1974717018151
 30
0.0
 11
-213.4551562985479
 21
-1.713210059179687
 31
0.0
  0
LINE
  5
2365A
  8
BASIS
  6
DASHDOT
 62
     6
 10
0.0
 20
-48.65485788386923
 30
0.0
 11
0.0
 21
231.8319735050854
 31
0.0
  0
LINE
  5
2365B
  8
NOTE
  6
CONTINUOUS
 62
     4
 39
50.0
 10
-213.455156298548
 20
-1.713210059179801
 30
0.0
 11
-215.6719943763445
 21
-3.368252180915817
 31
0.0
  0
LINE
  5
2365C
  8
NOTE
  6
CONTINUOUS
 62
     4
 39
50.0
 10
-213.4551562985478
 20
-1.713210059179801
 30
0.0
 11
-213.7639958010657
 21
-4.587877184603485
 31
0.0
  0
LINE
  5
2365D
  8
BASIS
  6
DASHDOT
 62
     6
 10
0.0
 20
-70.78678640892622
 30
0.0
 11
0.0
 21
231.8319735050854
 31
0.0
  0
LINE
  5
2365E
  8
SIZE
  6
CONTINUOUS
 62
    30
 10
-236.0116744481589
 20
-48.5174497484004
 30
0.0
 11
-236.0116744481589
 21
-584.5310597728394
 31
0.0
  0
LINE
  5
2365F
  8
SIZE
  6
CONTINUOUS
 62
    30
 10
235.9521860650405
 20
-48.5174497484004
 30
0.0
 11
235.9521860650405
 21
-584.5310597728394
 31
0.0
  0
LINE
  5
23660
  8
SIZE
  6
CONTINUOUS
 62
    30
 10
-224.0116744481589
 20
-564.5310597728394
 30
0.0
 11
223.9521860650405
 21
-564.5310597728394
 31
0.0
  0
CIRCLE
  5
23661
  8
SIZE
  6
CONTINUOUS
 62
    30
 10
-236.0116744481589
 20
-564.5310597728394
 30
0.0
 40
6.0
  0
LINE
  5
23662
  8
SIZE
  6
CONTINUOUS
 62
    30
 10
-236.0116744481589
 20
-564.5310597728394
 30
0.0
 11
-224.0116744481589
 21
-564.5310597728394
 31
0.0
  0
CIRCLE
  5
23663
  8
SIZE
  6
CONTINUOUS
 62
    30
 10
235.9521860650405
 20
-564.5310597728394
 30
0.0
 40
6.0
  0
LINE
  5
23664
  8
SIZE
  6
CONTINUOUS
 62
    30
 10
235.9521860650405
 20
-564.5310597728394
 30
0.0
 11
223.9521860650405
 21
-564.5310597728394
 31
0.0
  0
TEXT
  5
23665
  8
SIZE
  6
CONTINUOUS
 62
    30
 10
-82.3154584772736
 20
-539.5310597728393
 30
0.0
 40
64.0
  1
472
 41
0.9
 72
     1
 11
-0.0297441915593026
 21
-539.5310597728393
 31
0.0
  0
POINT
  5
23666
  8
DEFPOINTS
  6
CONTINUOUS
 62
    30
 10
-236.0116744481589
 20
-29.5174497484004
 30
0.0
  0
POINT
  5
23667
  8
DEFPOINTS
  6
CONTINUOUS
 62
    30
 10
235.9521860650405
 20
-29.5174497484004
 30
0.0
  0
POINT
  5
23668
  8
DEFPOINTS
  6
CONTINUOUS
 62
    30
 10
235.9521860650405
 20
-564.5310597728394
 30
0.0
  0
POINT
  5
23669
  8
DEFPOINTS
  6
CONTINUOUS
 62
    30
 10
0.0
 20
-39.00000000000028
 30
0.0
  0
POINT
  5
2366A
  8
DEFPOINTS
  6
CONTINUOUS
 62
    30
 10
-219.3318345176374
 20
0.0
 30
0.0
  0
LINE
  5
2366B
  8
SIZE
  6
CONTINUOUS
 62
    30
 10
-132.5128238216602
 20
-27.31131640298099
 30
0.0
 11
-132.5128238216602
 21
-231.4911669227977
 31
0.0
  0
LINE
  5
2366C
  8
SIZE
  6
CONTINUOUS
 62
    30
 10
132.5128238216598
 20
-27.31131640298099
 30
0.0
 11
132.5128238216598
 21
-231.4911669227977
 31
0.0
  0
LINE
  5
2366D
  8
SIZE
  6
CONTINUOUS
 62
    30
 10
-120.5128238216603
 20
-211.4911669227977
 30
0.0
 11
120.5128238216598
 21
-211.4911669227977
 31
0.0
  0
LINE
  5
2366E
  8
SIZE
  6
CONTINUOUS
 62
    30
 10
132.5128238216598
 20
-211.4911669227977
 30
0.0
 11
899.6254831982606
 21
-211.4911669227977
 31
0.0
  0
CIRCLE
  5
2366F
  8
SIZE
  6
CONTINUOUS
 62
    30
 10
-132.5128238216602
 20
-211.4911669227977
 30
0.0
 40
6.0
  0
LINE
  5
23670
  8
SIZE
  6
CONTINUOUS
 62
    30
 10
-132.5128238216602
 20
-211.4911669227977
 30
0.0
 11
-120.5128238216602
 21
-211.4911669227977
 31
0.0
  0
CIRCLE
  5
23671
  8
SIZE
  6
CONTINUOUS
 62
    30
 10
132.5128238216598
 20
-211.4911669227977
 30
0.0
 40
6.0
  0
LINE
  5
23672
  8
SIZE
  6
CONTINUOUS
 62
    30
 10
132.5128238216598
 20
-211.4911669227977
 30
0.0
 11
120.5128238216598
 21
-211.4911669227977
 31
0.0
  0
TEXT
  5
23673
  8
SIZE
  6
CONTINUOUS
 62
    30
 10
318.3740546268322
 20
-186.4911669227976
 30
0.0
 40
64.0
  1
265（本体据付穴）
 41
0.9
 72
     1
 11
573.4597689125465
 21
-186.4911669227976
 31
0.0
  0
POINT
  5
23674
  8
DEFPOINTS
  6
CONTINUOUS
 62
    30
 10
-132.5128238216602
 20
-7.311316402980992
 30
0.0
  0
POINT
  5
23675
  8
DEFPOINTS
  6
CONTINUOUS
 62
    30
 10
132.5128238216598
 20
-7.311316402980992
 30
0.0
  0
POINT
  5
23676
  8
DEFPOINTS
  6
CONTINUOUS
 62
    30
 10
132.5128238216598
 20
-211.4911669227977
 30
0.0
  0
LINE
  5
23677
  8
SIZE
  6
CONTINUOUS
 62
    30
 10
-139.8297441915588
 20
67.09932055963577
 30
0.0
 11
-139.8297441915588
 21
-344.9808094970722
 31
0.0
  0
LINE
  5
23678
  8
SIZE
  6
CONTINUOUS
 62
    30
 10
139.7702558084404
 20
67.099320559636
 30
0.0
 11
139.7702558084404
 21
-344.9808094970722
 31
0.0
  0
LINE
  5
23679
  8
SIZE
  6
CONTINUOUS
 62
    30
 10
-127.8297441915588
 20
-324.9808094970722
 30
0.0
 11
127.7702558084404
 21
-324.9808094970722
 31
0.0
  0
LINE
  5
2367A
  8
SIZE
  6
CONTINUOUS
 62
    30
 10
139.7702558084404
 20
-324.9808094970722
 30
0.0
 11
902.0806263785964
 21
-324.9808094970722
 31
0.0
  0
CIRCLE
  5
2367B
  8
SIZE
  6
CONTINUOUS
 62
    30
 10
-139.8297441915588
 20
-324.9808094970722
 30
0.0
 40
6.0
  0
LINE
  5
2367C
  8
SIZE
  6
CONTINUOUS
 62
    30
 10
-139.8297441915588
 20
-324.9808094970722
 30
0.0
 11
-127.8297441915588
 21
-324.9808094970722
 31
0.0
  0
CIRCLE
  5
2367D
  8
SIZE
  6
CONTINUOUS
 62
    30
 10
139.7702558084404
 20
-324.9808094970722
 30
0.0
 40
6.0
  0
LINE
  5
2367E
  8
SIZE
  6
CONTINUOUS
 62
    30
 10
139.7702558084404
 20
-324.9808094970722
 30
0.0
 11
127.7702558084404
 21
-324.9808094970722
 31
0.0
  0
TEXT
  5
2367F
  8
SIZE
  6
CONTINUOUS
 62
    30
 10
297.7891978071673
 20
-299.9808094970722
 30
0.0
 40
64.0
  1
279.6（天吊位置）
 41
0.9
 72
     1
 11
569.3320549500245
 21
-299.9808094970722
 31
0.0
  0
POINT
  5
23680
  8
DEFPOINTS
  6
CONTINUOUS
 62
    30
 10
-139.8297441915587
 20
96.29932055963582
 30
0.0
  0
POINT
  5
23681
  8
DEFPOINTS
  6
CONTINUOUS
 62
    30
 10
139.7702558084404
 20
96.29932055963599
 30
0.0
  0
POINT
  5
23682
  8
DEFPOINTS
  6
CONTINUOUS
 62
    30
 10
139.7702558084404
 20
-324.9808094970722
 30
0.0
  0
POINT
  5
23683
  8
DEFPOINTS
  6
CONTINUOUS
 62
    30
 10
-150.8304236319228
 20
99.09999999999991
 30
0.0
  0
POINT
  5
23684
  8
DEFPOINTS
  6
CONTINUOUS
 62
    30
 10
-219.3318345176374
 20
0.0
 30
0.0
  0
LINE
  5
23685
  8
OUTLINE
  6
CONTINUOUS
 62
     3
 10
205.829744191559
 20
16.0
 30
0.0
 11
205.829744191559
 21
3.0
 31
0.0
  0
LINE
  5
23686
  8
OUTLINE
  6
CONTINUOUS
 62
     3
 10
208.829744191559
 20
34.5
 30
0.0
 11
208.829744191559
 21
190.1999999999997
 31
0.0
  0
LINE
  5
23687
  8
OUTLINE
  6
CONTINUOUS
 62
     3
 10
136.6297441915592
 20
186.1999999999997
 30
0.0
 11
133.0257425903603
 21
186.1999999999997
 31
0.0
  0
LINE
  5
23688
  8
OUTLINE
  6
CONTINUOUS
 62
     3
 10
49.54136594795887
 20
200.0439999999999
 30
0.0
 11
48.82977824755994
 21
200.0439999999999
 31
0.0
  0
LINE
  5
23689
  8
OUTLINE
  6
CONTINUOUS
 62
     3
 10
-198.7702558084405
 20
112.1343145750511
 30
0.0
 11
-198.7702558084405
 21
113.6000000000004
 31
0.0
  0
LINE
  5
2368A
  8
OUTLINE
  6
CONTINUOUS
 62
     3
 10
-184.7702558084405
 20
62.30000000000018
 30
0.0
 11
-186.2702558084405
 21
62.30000000000018
 31
0.0
  0
LINE
  5
2368B
  8
OUTLINE
  6
CONTINUOUS
 62
     3
 10
-196.6702558084403
 20
62.30000000000018
 30
0.0
 11
-199.1702558084409
 21
62.30000000000018
 31
0.0
  0
LINE
  5
2368C
  8
OUTLINE
  6
CONTINUOUS
 62
     3
 10
205.0297441915596
 20
0.0
 30
0.0
 11
220.2297441915596
 21
0.0
 31
0.0
  0
LINE
  5
2368D
  8
OUTLINE
  6
CONTINUOUS
 62
     3
 10
233.2297441915596
 20
-29.0
 30
0.0
 11
235.5119790347592
 21
-29.0
 31
0.0
  0
LINE
  5
2368E
  8
OUTLINE
  6
CONTINUOUS
 62
     3
 10
220.2297441915596
 20
-1.0
 30
0.0
 11
220.2297441915596
 21
0.0
 31
0.0
  0
ARC
  5
2368F
  8
OUTLINE
  6
CONTINUOUS
 62
     3
 10
205.0297441915596
 20
0.1999999999998181
 30
0.0
 40
0.199999999999818
 50
180.0
 51
270.0
  0
LINE
  5
23690
  8
OUTLINE
  6
CONTINUOUS
 62
     3
 10
-220.170255808441
 20
0.0
 30
0.0
 11
-204.9702558084412
 21
0.0
 31
0.0
  0
LINE
  5
23691
  8
OUTLINE
  6
CONTINUOUS
 62
     3
 10
220.2297441915596
 20
-1.0
 30
0.0
 11
224.5209404951598
 21
-1.0
 31
0.0
  0
LINE
  5
23692
  8
OUTLINE
  6
CONTINUOUS
 62
     3
 10
-224.4614521118403
 20
-1.0
 30
0.0
 11
-220.170255808441
 21
-1.0
 31
0.0
  0
LINE
  5
23693
  8
OUTLINE
  6
CONTINUOUS
 62
     3
 10
-220.170255808441
 20
-1.0
 30
0.0
 11
-220.170255808441
 21
0.0
 31
0.0
  0
LINE
  5
23694
  8
OUTLINE
  6
CONTINUOUS
 62
     3
 10
-204.7702558084414
 20
3.0
 30
0.0
 11
-205.7702558084405
 21
3.0
 31
0.0
  0
LINE
  5
23695
  8
OUTLINE
  6
CONTINUOUS
 62
     3
 10
-204.7702558084414
 20
0.2000000000002728
 30
0.0
 11
-204.7702558084414
 21
3.0
 31
0.0
  0
LINE
  5
23696
  8
OUTLINE
  6
CONTINUOUS
 62
     3
 10
-205.7702558084405
 20
29.0
 30
0.0
 11
-205.7702558084405
 21
3.0
 31
0.0
  0
ARC
  5
23697
  8
OUTLINE
  6
CONTINUOUS
 62
     3
 10
-204.9702558084412
 20
0.2000000000002728
 30
0.0
 40
0.200000000000045
 50
270.0
 51
0.0
  0
LINE
  5
23698
  8
OUTLINE
  6
CONTINUOUS
 62
     3
 10
-205.7702558084405
 20
29.0
 30
0.0
 11
-199.7702558084405
 21
29.0
 31
0.0
  0
LINE
  5
23699
  8
OUTLINE
  6
CONTINUOUS
 62
     3
 10
-199.7702558084405
 20
29.0
 30
0.0
 11
-199.7702558084405
 21
61.69999999999982
 31
0.0
  0
LINE
  5
2369A
  8
OUTLINE
  6
CONTINUOUS
 62
     3
 10
205.829744191559
 20
29.0
 30
0.0
 11
205.829744191559
 21
13.96892149299987
 31
0.0
  0
LINE
  5
2369B
  8
OUTLINE
  6
CONTINUOUS
 62
     3
 10
204.329744191559
 20
30.5
 30
0.0
 11
204.8297441915599
 21
30.5
 31
0.0
  0
ARC
  5
2369C
  8
OUTLINE
  6
CONTINUOUS
 62
     3
 10
204.8297441915599
 20
34.5
 30
0.0
 40
4.0
 50
270.0
 51
0.0
  0
LINE
  5
2369D
  8
OUTLINE
  6
CONTINUOUS
 62
     3
 10
204.329744191559
 20
30.5
 30
0.0
 11
204.329744191559
 21
29.0
 31
0.0
  0
LINE
  5
2369E
  8
OUTLINE
  6
CONTINUOUS
 62
     3
 10
204.329744191559
 20
29.0
 30
0.0
 11
205.829744191559
 21
29.0
 31
0.0
  0
LINE
  5
2369F
  8
OUTLINE
  6
CONTINUOUS
 62
     3
 10
204.8297441915599
 20
3.0
 30
0.0
 11
205.829744191559
 21
3.0
 31
0.0
  0
LINE
  5
236A0
  8
OUTLINE
  6
CONTINUOUS
 62
     3
 10
204.8297441915599
 20
0.1999999999998181
 30
0.0
 11
204.8297441915599
 21
3.0
 31
0.0
  0
LINE
  5
236A1
  8
OUTLINE
  6
CONTINUOUS
 62
     3
 10
-234.6204385692404
 20
-38.99999999999983
 30
0.0
 11
122.1790032173597
 21
-39.0
 31
0.0
  0
LINE
  5
236A2
  8
OUTLINE
  6
CONTINUOUS
 62
     3
 10
-14.97025580844138
 20
187.0
 30
0.0
 11
-14.97025580844138
 21
194.1999999999997
 31
0.0
  0
LINE
  5
236A3
  8
OUTLINE
  6
CONTINUOUS
 62
     3
 10
-235.45249065144
 20
-28.99999999999983
 30
0.0
 11
-231.9702558084416
 21
-28.99999999999983
 31
0.0
  0
LINE
  5
236A4
  8
OUTLINE
  6
CONTINUOUS
 62
     3
 10
-17.25819295204064
 20
187.0
 30
0.0
 11
-14.97025580844138
 21
187.0
 31
0.0
  0
LINE
  5
236A5
  8
OUTLINE
  6
CONTINUOUS
 62
     3
 10
-17.27215700404076
 20
186.1999999999997
 30
0.0
 11
-26.6702558084412
 21
186.1999999999997
 31
0.0
  0
LINE
  5
236A6
  8
OUTLINE
  6
CONTINUOUS
 62
     3
 10
-14.97025580844138
 20
194.1999999999997
 30
0.0
 11
-4.370255808441016
 21
194.1999999999997
 31
0.0
  0
LINE
  5
236A7
  8
OUTLINE
  6
CONTINUOUS
 62
     3
 10
124.3297441915599
 20
190.8000000000001
 30
0.0
 11
128.6296904541593
 21
190.8000000000002
 31
0.0
  0
LINE
  5
236A8
  8
OUTLINE
  6
CONTINUOUS
 62
     3
 10
189.1122082655586
 20
186.1999999999997
 30
0.0
 11
146.0297441915588
 21
186.1999999999997
 31
0.0
  0
LINE
  5
236A9
  8
OUTLINE
  6
CONTINUOUS
 62
     3
 10
-4.370255808441016
 20
194.6000000000004
 30
0.0
 11
-4.370255808441016
 21
196.1999999999997
 31
0.0
  0
LINE
  5
236AA
  8
OUTLINE
  6
CONTINUOUS
 62
     3
 10
-4.370255808441016
 20
194.6000000000004
 30
0.0
 11
-4.370255808441016
 21
194.1999999999997
 31
0.0
  0
LINE
  5
236AB
  8
OUTLINE
  6
CONTINUOUS
 62
     3
 10
9.629744191558984
 20
196.1999999999997
 30
0.0
 11
-4.370255808441016
 21
196.1999999999997
 31
0.0
  0
LINE
  5
236AC
  8
OUTLINE
  6
CONTINUOUS
 62
     3
 10
43.32974419155994
 20
196.1999999999997
 30
0.0
 11
11.62974419155921
 21
196.1999999999997
 31
0.0
  0
LINE
  5
236AD
  8
OUTLINE
  6
CONTINUOUS
 62
     3
 10
9.629744191558984
 20
196.1999999999997
 30
0.0
 11
10.62974419155898
 21
194.4679491923998
 31
0.0
  0
LINE
  5
236AE
  8
OUTLINE
  6
CONTINUOUS
 62
     3
 10
10.62974419155898
 20
194.4679491923998
 30
0.0
 11
11.62974419155921
 21
196.1999999999997
 31
0.0
  0
LINE
  5
236AF
  8
OUTLINE
  6
CONTINUOUS
 62
     3
 10
-198.7702558084405
 20
100.1999999999998
 30
0.0
 11
-186.7702558084405
 21
100.1999999999998
 31
0.0
  0
ARC
  5
236B0
  8
OUTLINE
  6
CONTINUOUS
 62
     3
 10
-234.6204385692404
 20
-37.99999999999983
 30
0.0
 40
0.999999999999841
 50
181.9999999999908
 51
270.0
  0
ARC
  5
236B1
  8
OUTLINE
  6
CONTINUOUS
 62
     3
 10
141.329744191559
 20
181.9775
 30
0.0
 40
6.522500000000449
 50
43.89739816710481
 51
136.1026018328906
  0
ARC
  5
236B2
  8
OUTLINE
  6
CONTINUOUS
 62
     3
 10
128.6297441915592
 20
186.8000000000002
 30
0.0
 40
4.000000000000216
 50
2.292442776097144
 51
90.0
  0
ARC
  5
236B3
  8
OUTLINE
  6
CONTINUOUS
 62
     3
 10
204.8297441915599
 20
190.1999999999997
 30
0.0
 40
3.99999999999909
 50
0.0
 51
90.0
  0
ARC
  5
236B4
  8
OUTLINE
  6
CONTINUOUS
 62
     3
 10
202.2297441915596
 20
194.6000000000004
 30
0.0
 40
1.600000000000363
 50
0.0
 51
90.0
  0
ARC
  5
236B5
  8
OUTLINE
  6
CONTINUOUS
 62
     3
 10
201.6120965663594
 20
194.6000000000004
 30
0.0
 40
1.599999999999909
 50
90.0
 51
129.9999999999888
  0
ARC
  5
236B6
  8
OUTLINE
  6
CONTINUOUS
 62
     3
 10
133.6257425903602
 20
187.0
 30
0.0
 40
1.000000000000179
 50
182.2924427753015
 51
233.1301023541631
  0
LINE
  5
236B7
  8
OUTLINE
  6
CONTINUOUS
 62
     3
 10
203.8297441915599
 20
194.6000000000004
 30
0.0
 11
203.8297441915599
 21
196.1999999999997
 31
0.0
  0
LINE
  5
236B8
  8
OUTLINE
  6
CONTINUOUS
 62
     3
 10
204.329744191559
 20
196.1999999999997
 30
0.0
 11
204.329744191559
 21
194.1999999999997
 31
0.0
  0
LINE
  5
236B9
  8
OUTLINE
  6
CONTINUOUS
 62
     3
 10
191.8853020253584
 20
-38.69029871999993
 30
0.0
 11
191.8798966201585
 21
-39.0
 31
0.0
  0
LINE
  5
236BA
  8
OUTLINE
  6
CONTINUOUS
 62
     3
 10
122.1795918635592
 20
-39.0
 30
0.0
 11
122.4839344637587
 21
-38.69029871999993
 31
0.0
  0
LINE
  5
236BB
  8
OUTLINE
  6
CONTINUOUS
 62
     3
 10
225.0208643427602
 20
-1.508726203200183
 30
0.0
 11
224.9223090609592
 21
-7.154954515399993
 31
0.0
  0
LINE
  5
236BC
  8
OUTLINE
  6
CONTINUOUS
 62
     3
 10
236.0116744481586
 20
-29.51744974840022
 30
0.0
 11
235.67931777936
 21
-38.03489949679988
 31
0.0
  0
LINE
  5
236BD
  8
OUTLINE
  6
CONTINUOUS
 62
     3
 10
224.9223090609592
 20
-7.154954515399993
 30
0.0
 11
223.2896887899731
 21
-9.509695290824823
 31
0.0
  0
LINE
  5
236BE
  8
OUTLINE
  6
CONTINUOUS
 62
     3
 10
-196.2702558084405
 20
71.5
 30
0.0
 11
-186.2702558084405
 21
71.5
 31
0.0
  0
ARC
  5
236BF
  8
OUTLINE
  6
CONTINUOUS
 62
     3
 10
-219.970255808441
 20
-17.49999999999983
 30
0.0
 40
6.500000000000018
 50
137.4531565692711
 51
180.0
  0
ARC
  5
236C0
  8
OUTLINE
  6
CONTINUOUS
 62
     3
 10
-227.0019190716416
 20
-23.71833673679998
 30
0.0
 40
0.9997437534000168
 50
90.00385707119855
 51
179.9961429287472
  0
ARC
  5
236C1
  8
OUTLINE
  6
CONTINUOUS
 62
     3
 10
-235.4524901526403
 20
-29.49999999999983
 30
0.0
 40
0.5000000000000222
 50
90.00005717031752
 51
181.9999980047911
  0
ARC
  5
236C2
  8
OUTLINE
  6
CONTINUOUS
 62
     3
 10
-224.4614521118403
 20
-1.5
 30
0.0
 40
0.5
 50
90.0
 51
181.0000000000014
  0
LINE
  5
236C3
  8
OUTLINE
  6
CONTINUOUS
 62
     3
 10
-235.9521860650405
 20
-29.51744974839988
 30
0.0
 11
-235.6198293962399
 21
-38.03489949679988
 31
0.0
  0
LINE
  5
236C4
  8
OUTLINE
  6
CONTINUOUS
 62
     3
 10
-224.7589666623846
 20
-13.10474706560279
 30
0.0
 11
-224.96137595944
 21
-1.508726203199785
 31
0.0
  0
LINE
  5
236C5
  8
OUTLINE
  6
CONTINUOUS
 62
     3
 10
-27.27025580844065
 20
76.5
 30
0.0
 11
-28.77025580844042
 21
76.5
 31
0.0
  0
LINE
  5
236C6
  8
OUTLINE
  6
CONTINUOUS
 62
     3
 10
-228.001674925241
 20
-23.7184285783996
 30
0.0
 11
-228.001674925241
 21
-24.67063903653712
 31
0.0
  0
LINE
  5
236C7
  8
OUTLINE
  6
CONTINUOUS
 62
     3
 10
-226.4702558084412
 20
-22.71858088319999
 30
0.0
 11
-226.4702558084412
 21
-17.49999999999983
 31
0.0
  0
LINE
  5
236C8
  8
OUTLINE
  6
CONTINUOUS
 62
     3
 10
189.1122082655586
 20
186.1999999999997
 30
0.0
 11
200.5836363909591
 21
195.8256711089998
 31
0.0
  0
ARC
  5
236C9
  8
OUTLINE
  6
CONTINUOUS
 62
     3
 10
-191.9702558084412
 20
58.2775000000002
 30
0.0
 40
6.522499999999971
 50
131.2431877907136
 51
136.1026018328903
  0
ARC
  5
236CA
  8
OUTLINE
  6
CONTINUOUS
 62
     3
 10
-184.7702558084405
 20
63.30000000000018
 30
0.0
 40
1.0
 50
180.0
 51
270.0
  0
ARC
  5
236CB
  8
OUTLINE
  6
CONTINUOUS
 62
     3
 10
-199.1702558084409
 20
61.69999999999982
 30
0.0
 40
0.600000000000136
 50
90.0
 51
180.0
  0
LINE
  5
236CC
  8
OUTLINE
  6
CONTINUOUS
 62
     3
 10
-199.7702558084405
 20
112.6999999999998
 30
0.0
 11
-199.7702558084405
 21
116.5
 31
0.0
  0
LINE
  5
236CD
  8
OUTLINE
  6
CONTINUOUS
 62
     3
 10
-199.1702558084409
 20
116.5
 30
0.0
 11
-199.1702558084409
 21
112.6999999999998
 31
0.0
  0
LINE
  5
236CE
  8
OUTLINE
  6
CONTINUOUS
 62
     3
 10
-198.7702558084405
 20
100.1999999999998
 30
0.0
 11
-198.7702558084405
 21
111.5167840433801
 31
0.0
  0
LINE
  5
236CF
  8
OUTLINE
  6
CONTINUOUS
 62
     3
 10
-198.7702558084405
 20
113.6000000000004
 30
0.0
 11
-198.7702558084405
 21
125.499456602
 31
0.0
  0
LINE
  5
236D0
  8
OUTLINE
  6
CONTINUOUS
 62
     3
 10
-196.6702558084403
 20
62.80000000000018
 30
0.0
 11
-196.6702558084403
 21
62.30000000000018
 31
0.0
  0
LINE
  5
236D1
  8
OUTLINE
  6
CONTINUOUS
 62
     3
 10
-196.2702558084405
 20
63.18188642951458
 30
0.0
 11
-196.2702558084405
 21
71.499159598
 31
0.0
  0
LINE
  5
236D2
  8
OUTLINE
  6
CONTINUOUS
 62
     3
 10
-28.77025580844065
 20
111.5
 30
0.0
 11
-28.42025580844029
 21
111.5
 31
0.0
  0
LINE
  5
236D3
  8
OUTLINE
  6
CONTINUOUS
 62
     3
 10
-186.2702558084405
 20
62.30000000000018
 30
0.0
 11
-186.2702558084405
 21
71.499159598
 31
0.0
  0
LINE
  5
236D4
  8
OUTLINE
  6
CONTINUOUS
 62
     3
 10
-185.7702558084405
 20
99.19999999999982
 30
0.0
 11
-185.7702558084405
 21
63.30000000000018
 31
0.0
  0
LINE
  5
236D5
  8
OUTLINE
  6
CONTINUOUS
 62
     3
 10
-183.9097060118407
 20
168.69559441
 30
0.0
 11
-198.7374795974404
 21
125.695051012
 31
0.0
  0
LINE
  5
236D6
  8
OUTLINE
  6
CONTINUOUS
 62
     3
 10
191.575553919359
 20
-38.69029871999993
 30
0.0
 11
191.8798965195585
 21
-39.0
 31
0.0
  0
LINE
  5
236D7
  8
OUTLINE
  6
CONTINUOUS
 62
     3
 10
-226.4702558084412
 20
-22.71858088319999
 30
0.0
 11
-227.0018272300409
 21
-22.71858088319999
 31
0.0
  0
LINE
  5
236D8
  8
OUTLINE
  6
CONTINUOUS
 62
     3
 10
-173.4702558084413
 20
169.6000000000004
 30
0.0
 11
-173.4702558084413
 21
169.1000000000004
 31
0.0
  0
LINE
  5
236D9
  8
OUTLINE
  6
CONTINUOUS
 62
     3
 10
-198.7702558084405
 20
113.6000000000004
 30
0.0
 11
-198.7493726998405
 21
113.6000000000004
 31
0.0
  0
LINE
  5
236DA
  8
OUTLINE
  6
CONTINUOUS
 62
     3
 10
-164.0702558084399
 20
169.6000000000004
 30
0.0
 11
-164.0702558084399
 21
169.1000000000004
 31
0.0
  0
ARC
  5
236DB
  8
OUTLINE
  6
CONTINUOUS
 62
     3
 10
-198.57025580844
 20
112.6999999999998
 30
0.0
 40
1.200000000000728
 50
180.0
 51
260.4059317730963
  0
LINE
  5
236DC
  8
OUTLINE
  6
CONTINUOUS
 62
     3
 10
-199.1702558084409
 20
116.5
 30
0.0
 11
-199.7702558084405
 21
116.5
 31
0.0
  0
LINE
  5
236DD
  8
OUTLINE
  6
CONTINUOUS
 62
     3
 10
-28.37025580844102
 20
116.5
 30
0.0
 11
-27.77025580844065
 21
116.5
 31
0.0
  0
ARC
  5
236DE
  8
OUTLINE
  6
CONTINUOUS
 62
     3
 10
-186.7702558084405
 20
99.19999999999982
 30
0.0
 40
1.0
 50
0.0
 51
90.0
  0
ARC
  5
236DF
  8
OUTLINE
  6
CONTINUOUS
 62
     3
 10
-198.57025580844
 20
112.6999999999998
 30
0.0
 40
0.600000000001273
 50
180.0
 51
250.5287793654448
  0
ARC
  5
236E0
  8
OUTLINE
  6
CONTINUOUS
 62
     3
 10
-198.1702558084403
 20
125.499456602
 30
0.0
 40
0.6000000000001241
 50
160.9743939623887
 51
180.0
  0
LINE
  5
236E1
  8
OUTLINE
  6
CONTINUOUS
 62
     3
 10
122.1795917631582
 20
-39.0
 30
0.0
 11
122.1741863579593
 21
-38.69029871999993
 31
0.0
  0
ARC
  5
236E2
  8
OUTLINE
  6
CONTINUOUS
 62
     3
 10
-168.7702558084404
 20
165.0775000000003
 30
0.0
 40
6.522499999999794
 50
43.89739816710931
 51
136.1026018328949
  0
ARC
  5
236E3
  8
OUTLINE
  6
CONTINUOUS
 62
     3
 10
-183.3424822228413
 20
168.5
 30
0.0
 40
0.599999999999909
 50
90.0
 51
160.9743939623868
  0
ARC
  5
236E4
  8
OUTLINE
  6
CONTINUOUS
 62
     3
 10
-33.12025580844011
 20
115.5225
 30
0.0
 40
6.522499999999971
 50
311.829960263145
 51
316.1026018328906
  0
LINE
  5
236E5
  8
OUTLINE
  6
CONTINUOUS
 62
     3
 10
-28.42025580844029
 20
169.1000000000004
 30
0.0
 11
-29.37025580844011
 21
169.1000000000004
 31
0.0
  0
ARC
  5
236E6
  8
OUTLINE
  6
CONTINUOUS
 62
     3
 10
-28.97025580844047
 20
112.6999999999998
 30
0.0
 40
1.199999999999862
 50
279.5974133171987
 51
0.0
  0
LINE
  5
236E7
  8
OUTLINE
  6
CONTINUOUS
 62
     3
 10
-183.3424822228413
 20
169.1000000000004
 30
0.0
 11
-173.4702558084413
 21
169.1000000000004
 31
0.0
  0
LINE
  5
236E8
  8
OUTLINE
  6
CONTINUOUS
 62
     3
 10
-164.0702558084399
 20
169.1000000000004
 30
0.0
 11
-37.82025580843992
 21
169.1000000000004
 31
0.0
  0
ARC
  5
236E9
  8
OUTLINE
  6
CONTINUOUS
 62
     3
 10
-28.97025580844047
 20
112.6999999999998
 30
0.0
 40
0.599999999999746
 50
289.4751803727299
 51
0.0
  0
ARC
  5
236EA
  8
OUTLINE
  6
CONTINUOUS
 62
     3
 10
-33.12025580844011
 20
165.0775000000003
 30
0.0
 40
6.522499999999794
 50
43.89739816710931
 51
136.1026018328949
  0
LINE
  5
236EB
  8
OUTLINE
  6
CONTINUOUS
 62
     3
 10
-231.9702558084416
 20
-28.99999999999983
 30
0.0
 11
-228.001674925241
 21
-24.67063903653712
 31
0.0
  0
ARC
  5
236EC
  8
OUTLINE
  6
CONTINUOUS
 62
     3
 10
-29.37025580844011
 20
168.5
 30
0.0
 40
0.599999999999454
 50
0.0
 51
90.0
  0
LINE
  5
236ED
  8
OUTLINE
  6
CONTINUOUS
 62
     3
 10
136.6297441915592
 20
186.5
 30
0.0
 11
136.6297441915592
 21
186.1999999999997
 31
0.0
  0
ARC
  5
236EE
  8
OUTLINE
  6
CONTINUOUS
 62
     3
 10
-26.37025580844011
 20
185.3000000000001
 30
0.0
 40
0.599999999999965
 50
120.0000000001223
 51
150.000000000009
  0
LINE
  5
236EF
  8
OUTLINE
  6
CONTINUOUS
 62
     3
 10
191.880485165759
 20
-39.0
 30
0.0
 11
234.6799269523592
 21
-39.0
 31
0.0
  0
LINE
  5
236F0
  8
OUTLINE
  6
CONTINUOUS
 62
     3
 10
191.5872029835592
 20
-38.70215289380013
 30
0.0
 11
122.4722853995593
 21
-38.70215289380013
 31
0.0
  0
LINE
  5
236F1
  8
OUTLINE
  6
CONTINUOUS
 62
     3
 10
122.1741863201589
 20
-38.69029871999993
 30
0.0
 11
191.8853020631589
 21
-38.69029871999993
 31
0.0
  0
LINE
  5
236F2
  8
OUTLINE
  6
CONTINUOUS
 62
     3
 10
-26.88987105071078
 20
185.6000000000004
 30
0.0
 11
-27.27025580844065
 21
185.6000000000004
 31
0.0
  0
LINE
  5
236F3
  8
OUTLINE
  6
CONTINUOUS
 62
     3
 10
-12.67025580844029
 20
194.1999999999997
 30
0.0
 11
-13.47025580844138
 21
194.1999999999997
 31
0.0
  0
LINE
  5
236F4
  8
OUTLINE
  6
CONTINUOUS
 62
     3
 10
204.329744191559
 20
194.1999999999997
 30
0.0
 11
204.8297441915599
 21
194.1999999999997
 31
0.0
  0
LINE
  5
236F5
  8
OUTLINE
  6
CONTINUOUS
 62
     3
 10
146.0297441915588
 20
186.5
 30
0.0
 11
146.0297441915588
 21
186.1999999999997
 31
0.0
  0
LINE
  5
236F6
  8
OUTLINE
  6
CONTINUOUS
 62
     3
 10
-37.82025580843992
 20
169.6000000000004
 30
0.0
 11
-37.82025580843992
 21
169.1000000000004
 31
0.0
  0
ARC
  5
236F7
  8
OUTLINE
  6
CONTINUOUS
 62
     3
 10
205.829744191559
 20
1.0
 30
0.0
 40
0.9999999999990908
 50
180.0
 51
182.8842800711924
  0
ARC
  5
236F8
  8
OUTLINE
  6
CONTINUOUS
 62
     3
 10
234.6799269523592
 20
-38.0
 30
0.0
 40
1.0
 50
270.0
 51
358.0000000000093
  0
LINE
  5
236F9
  8
OUTLINE
  6
CONTINUOUS
 62
     3
 10
204.329744191559
 20
196.1999999999997
 30
0.0
 11
203.8297441915599
 21
196.1999999999997
 31
0.0
  0
ARC
  5
236FA
  8
OUTLINE
  6
CONTINUOUS
 62
     3
 10
235.5119790347592
 20
-29.5
 30
0.0
 40
0.499999999999924
 50
357.9999999999961
 51
90.0
  0
ARC
  5
236FB
  8
OUTLINE
  6
CONTINUOUS
 62
     3
 10
224.5209404951598
 20
-1.5
 30
0.0
 40
0.5000000000002341
 50
358.999999999999
 51
90.0
  0
LINE
  5
236FC
  8
OUTLINE
  6
CONTINUOUS
 62
     3
 10
-28.77025580844065
 20
168.5
 30
0.0
 11
-28.77025580844065
 21
113.5999999999999
 31
0.0
  0
LINE
  5
236FD
  8
OUTLINE
  6
CONTINUOUS
 62
     3
 10
-28.77025580844042
 20
76.5
 30
0.0
 11
-28.77025580844065
 21
80.10000000000042
 31
0.0
  0
LINE
  5
236FE
  8
OUTLINE
  6
CONTINUOUS
 62
     3
 10
201.6120965663594
 20
196.1999999999997
 30
0.0
 11
202.2297441915596
 21
196.1999999999997
 31
0.0
  0
LINE
  5
236FF
  8
OUTLINE
  6
CONTINUOUS
 62
     3
 10
-28.77025580844065
 20
80.10000000000042
 30
0.0
 11
-28.77025580844065
 21
110.6624067652974
 31
0.0
  0
LINE
  5
23700
  8
OUTLINE
  6
CONTINUOUS
 62
     3
 10
-28.77025580844065
 20
112.1343145750506
 30
0.0
 11
-28.77025580844065
 21
113.5999999999999
 31
0.0
  0
LINE
  5
23701
  8
OUTLINE
  6
CONTINUOUS
 62
     3
 10
233.2297441915596
 20
-29.0
 30
0.0
 11
223.2896887899731
 21
-9.509695290824823
 31
0.0
  0
LINE
  5
23702
  8
OUTLINE
  6
CONTINUOUS
 62
     3
 10
-28.42025580844029
 20
169.6000000000004
 30
0.0
 11
-28.42025580844029
 21
169.1000000000004
 31
0.0
  0
LINE
  5
23703
  8
OUTLINE
  6
CONTINUOUS
 62
     3
 10
-28.42025580844029
 20
111.0
 30
0.0
 11
-28.42025580844029
 21
111.5
 31
0.0
  0
LINE
  5
23704
  8
OUTLINE
  6
CONTINUOUS
 62
     3
 10
-28.37025580844102
 20
112.6999999999998
 30
0.0
 11
-28.37025580844102
 21
116.5
 31
0.0
  0
LINE
  5
23705
  8
OUTLINE
  6
CONTINUOUS
 62
     3
 10
-27.77025580844065
 20
112.6999999999998
 30
0.0
 11
-27.77025580844065
 21
116.5
 31
0.0
  0
LINE
  5
23706
  8
OUTLINE
  6
CONTINUOUS
 62
     3
 10
-27.27025580844065
 20
76.5
 30
0.0
 11
-27.27025580844065
 21
185.6000000000004
 31
0.0
  0
LINE
  5
23707
  8
OUTLINE
  6
CONTINUOUS
 62
     3
 10
-26.6702558084412
 20
185.8196152422701
 30
0.0
 11
-26.6702558084412
 21
186.1999999999997
 31
0.0
  0
LINE
  5
23708
  8
OUTLINE
  6
CONTINUOUS
 62
     3
 10
-17.27215700404076
 20
186.1999999999997
 30
0.0
 11
-17.25819295204064
 21
187.0
 31
0.0
  0
ARC
  5
23709
  8
OUTLINE
  6
CONTINUOUS
 62
     3
 10
48.82974419155994
 20
194.5439999999999
 30
0.0
 40
5.5
 50
90.0
 51
162.4768625697965
  0
LINE
  5
2370A
  8
OUTLINE
  6
CONTINUOUS
 62
     3
 10
118.829710135559
 20
200.0439999999999
 30
0.0
 11
118.1181224351601
 21
200.0439999999999
 31
0.0
  0
LINE
  5
2370B
  8
OUTLINE
  6
CONTINUOUS
 62
     3
 10
124.3297441915599
 20
190.8000000000001
 30
0.0
 11
124.3297441915599
 21
194.5439999999999
 31
0.0
  0
ARC
  5
2370C
  8
OUTLINE
  6
CONTINUOUS
 62
     3
 10
118.829744191559
 20
194.5439999999999
 30
0.0
 40
5.500000000000909
 50
0.0
 51
90.0
  0
LINE
  5
2370D
  8
DETAIL
  6
CONTINUOUS
 62
     5
 10
-183.4402794278408
 20
168.2163881053998
 30
0.0
 11
-183.4471525557331
 21
168.2250321035667
 31
0.0
  0
LINE
  5
2370E
  8
DETAIL
  6
CONTINUOUS
 62
     5
 10
-183.4471525557331
 20
168.2250321035667
 30
0.0
 11
-183.4540209191559
 21
168.2336778617264
 31
0.0
  0
LINE
  5
2370F
  8
DETAIL
  6
CONTINUOUS
 62
     5
 10
-183.4540209191559
 20
168.2336778617264
 30
0.0
 11
-183.4540209191559
 21
168.2336778617264
 31
0.0
  0
LINE
  5
23710
  8
DETAIL
  6
CONTINUOUS
 62
     5
 10
-183.4540209191559
 20
168.2336778617264
 30
0.0
 11
-183.4608806572708
 21
168.2423284115007
 31
0.0
  0
LINE
  5
23711
  8
DETAIL
  6
CONTINUOUS
 62
     5
 10
-183.4608806572708
 20
168.2423284115007
 30
0.0
 11
-183.467731523777
 21
168.2509918710248
 31
0.0
  0
LINE
  5
23712
  8
DETAIL
  6
CONTINUOUS
 62
     5
 10
-183.467731523777
 20
168.2509918710248
 30
0.0
 11
-183.467731523777
 21
168.2509918710248
 31
0.0
  0
LINE
  5
23713
  8
DETAIL
  6
CONTINUOUS
 62
     5
 10
-183.467731523777
 20
168.2509918710248
 30
0.0
 11
-183.4745704581148
 21
168.2596726627507
 31
0.0
  0
LINE
  5
23714
  8
DETAIL
  6
CONTINUOUS
 62
     5
 10
-183.4745704581148
 20
168.2596726627507
 30
0.0
 11
-183.4813795281603
 21
168.2683553398915
 31
0.0
  0
LINE
  5
23715
  8
DETAIL
  6
CONTINUOUS
 62
     5
 10
-183.4813795281603
 20
168.2683553398915
 30
0.0
 11
-183.4813795281603
 21
168.2683553398915
 31
0.0
  0
LINE
  5
23716
  8
DETAIL
  6
CONTINUOUS
 62
     5
 10
-183.4813795281603
 20
168.2683553398915
 30
0.0
 11
-183.4881510518264
 21
168.2770380859606
 31
0.0
  0
LINE
  5
23717
  8
DETAIL
  6
CONTINUOUS
 62
     5
 10
-183.4881510518264
 20
168.2770380859606
 30
0.0
 11
-183.4949332187603
 21
168.285793474925
 31
0.0
  0
LINE
  5
23718
  8
DETAIL
  6
CONTINUOUS
 62
     5
 10
-183.4949332187603
 20
168.285793474925
 30
0.0
 11
-183.4949332187603
 21
168.285793474925
 31
0.0
  0
LINE
  5
23719
  8
DETAIL
  6
CONTINUOUS
 62
     5
 10
-183.4949332187603
 20
168.285793474925
 30
0.0
 11
-183.5017360326999
 21
168.2946432552221
 31
0.0
  0
LINE
  5
2371A
  8
DETAIL
  6
CONTINUOUS
 62
     5
 10
-183.5017360326999
 20
168.2946432552221
 30
0.0
 11
-183.5083608820328
 21
168.3033314827226
 31
0.0
  0
LINE
  5
2371B
  8
DETAIL
  6
CONTINUOUS
 62
     5
 10
-183.5083608820328
 20
168.3033314827226
 30
0.0
 11
-183.5083608820328
 21
168.3033314827226
 31
0.0
  0
LINE
  5
2371C
  8
DETAIL
  6
CONTINUOUS
 62
     5
 10
-183.5083608820328
 20
168.3033314827226
 30
0.0
 11
-183.5146392095564
 21
168.3116415650029
 31
0.0
  0
LINE
  5
2371D
  8
DETAIL
  6
CONTINUOUS
 62
     5
 10
-183.5146392095564
 20
168.3116415650029
 30
0.0
 11
-183.5207312910455
 21
168.3197920090215
 31
0.0
  0
LINE
  5
2371E
  8
DETAIL
  6
CONTINUOUS
 62
     5
 10
-183.5207312910455
 20
168.3197920090215
 30
0.0
 11
-183.5207312910455
 21
168.3197920090215
 31
0.0
  0
LINE
  5
2371F
  8
DETAIL
  6
CONTINUOUS
 62
     5
 10
-183.5207312910455
 20
168.3197920090215
 30
0.0
 11
-183.5268282421131
 21
168.3280435820816
 31
0.0
  0
LINE
  5
23720
  8
DETAIL
  6
CONTINUOUS
 62
     5
 10
-183.5268282421131
 20
168.3280435820816
 30
0.0
 11
-183.532915704713
 21
168.3363909934742
 31
0.0
  0
LINE
  5
23721
  8
DETAIL
  6
CONTINUOUS
 62
     5
 10
-183.532915704713
 20
168.3363909934742
 30
0.0
 11
-183.532915704713
 21
168.3363909934742
 31
0.0
  0
LINE
  5
23722
  8
DETAIL
  6
CONTINUOUS
 62
     5
 10
-183.532915704713
 20
168.3363909934742
 30
0.0
 11
-183.5389361911969
 21
168.344771452726
 31
0.0
  0
LINE
  5
23723
  8
DETAIL
  6
CONTINUOUS
 62
     5
 10
-183.5389361911969
 20
168.344771452726
 30
0.0
 11
-183.5448651691462
 21
168.3531582283094
 31
0.0
  0
LINE
  5
23724
  8
DETAIL
  6
CONTINUOUS
 62
     5
 10
-183.5448651691462
 20
168.3531582283094
 30
0.0
 11
-183.5448651691462
 21
168.3531582283094
 31
0.0
  0
LINE
  5
23725
  8
DETAIL
  6
CONTINUOUS
 62
     5
 10
-183.5448651691462
 20
168.3531582283094
 30
0.0
 11
-183.5507047581337
 21
168.3615640589915
 31
0.0
  0
LINE
  5
23726
  8
DETAIL
  6
CONTINUOUS
 62
     5
 10
-183.5507047581337
 20
168.3615640589915
 30
0.0
 11
-183.5565307304519
 21
168.3701235057565
 31
0.0
  0
LINE
  5
23727
  8
DETAIL
  6
CONTINUOUS
 62
     5
 10
-183.5565307304519
 20
168.3701235057565
 30
0.0
 11
-183.5565307304519
 21
168.3701235057565
 31
0.0
  0
LINE
  5
23728
  8
DETAIL
  6
CONTINUOUS
 62
     5
 10
-183.5565307304519
 20
168.3701235057565
 30
0.0
 11
-183.5623553800453
 21
168.3788707481872
 31
0.0
  0
LINE
  5
23729
  8
DETAIL
  6
CONTINUOUS
 62
     5
 10
-183.5623553800453
 20
168.3788707481872
 30
0.0
 11
-183.5678634347437
 21
168.3873166180433
 31
0.0
  0
LINE
  5
2372A
  8
DETAIL
  6
CONTINUOUS
 62
     5
 10
-183.5678634347437
 20
168.3873166180433
 30
0.0
 11
-183.5678634347437
 21
168.3873166180433
 31
0.0
  0
LINE
  5
2372B
  8
DETAIL
  6
CONTINUOUS
 62
     5
 10
-183.5678634347437
 20
168.3873166180433
 30
0.0
 11
-183.5727898404585
 21
168.3950470938476
 31
0.0
  0
LINE
  5
2372C
  8
DETAIL
  6
CONTINUOUS
 62
     5
 10
-183.5727898404585
 20
168.3950470938476
 30
0.0
 11
-183.5773979815208
 21
168.4024720890111
 31
0.0
  0
LINE
  5
2372D
  8
DETAIL
  6
CONTINUOUS
 62
     5
 10
-183.5773979815208
 20
168.4024720890111
 30
0.0
 11
-183.5773979815208
 21
168.4024720890111
 31
0.0
  0
LINE
  5
2372E
  8
DETAIL
  6
CONTINUOUS
 62
     5
 10
-183.5773979815208
 20
168.4024720890111
 30
0.0
 11
-183.5819986547237
 21
168.410080589364
 31
0.0
  0
LINE
  5
2372F
  8
DETAIL
  6
CONTINUOUS
 62
     5
 10
-183.5819986547237
 20
168.410080589364
 30
0.0
 11
-183.5865638682722
 21
168.4178539355271
 31
0.0
  0
LINE
  5
23730
  8
DETAIL
  6
CONTINUOUS
 62
     5
 10
-183.5865638682722
 20
168.4178539355271
 30
0.0
 11
-183.5865638682722
 21
168.4178539355271
 31
0.0
  0
LINE
  5
23731
  8
DETAIL
  6
CONTINUOUS
 62
     5
 10
-183.5865638682722
 20
168.4178539355271
 30
0.0
 11
-183.5909989047544
 21
168.4256691801311
 31
0.0
  0
LINE
  5
23732
  8
DETAIL
  6
CONTINUOUS
 62
     5
 10
-183.5909989047544
 20
168.4256691801311
 30
0.0
 11
-183.5952809328879
 21
168.4334938690522
 31
0.0
  0
LINE
  5
23733
  8
DETAIL
  6
CONTINUOUS
 62
     5
 10
-183.5952809328879
 20
168.4334938690522
 30
0.0
 11
-183.5952809328879
 21
168.4334938690522
 31
0.0
  0
LINE
  5
23734
  8
DETAIL
  6
CONTINUOUS
 62
     5
 10
-183.5952809328879
 20
168.4334938690522
 30
0.0
 11
-183.5994179039396
 21
168.4413545895345
 31
0.0
  0
LINE
  5
23735
  8
DETAIL
  6
CONTINUOUS
 62
     5
 10
-183.5994179039396
 20
168.4413545895345
 30
0.0
 11
-183.603469013257
 21
168.4494236010446
 31
0.0
  0
LINE
  5
23736
  8
DETAIL
  6
CONTINUOUS
 62
     5
 10
-183.603469013257
 20
168.4494236010446
 30
0.0
 11
-183.603469013257
 21
168.4494236010446
 31
0.0
  0
LINE
  5
23737
  8
DETAIL
  6
CONTINUOUS
 62
     5
 10
-183.603469013257
 20
168.4494236010446
 30
0.0
 11
-183.6074370515948
 21
168.4577412855724
 31
0.0
  0
LINE
  5
23738
  8
DETAIL
  6
CONTINUOUS
 62
     5
 10
-183.6074370515948
 20
168.4577412855724
 30
0.0
 11
-183.6110479472684
 21
168.4656748429643
 31
0.0
  0
LINE
  5
23739
  8
DETAIL
  6
CONTINUOUS
 62
     5
 10
-183.6110479472684
 20
168.4656748429643
 30
0.0
 11
-183.6110479472684
 21
168.4656748429643
 31
0.0
  0
LINE
  5
2373A
  8
DETAIL
  6
CONTINUOUS
 62
     5
 10
-183.6110479472684
 20
168.4656748429643
 30
0.0
 11
-183.6140740363419
 21
168.4726879125574
 31
0.0
  0
LINE
  5
2373B
  8
DETAIL
  6
CONTINUOUS
 62
     5
 10
-183.6140740363419
 20
168.4726879125574
 30
0.0
 11
-183.6167501483147
 21
168.4793030737728
 31
0.0
  0
LINE
  5
2373C
  8
DETAIL
  6
CONTINUOUS
 62
     5
 10
-183.6167501483147
 20
168.4793030737728
 30
0.0
 11
-183.6167501483147
 21
168.4793030737728
 31
0.0
  0
LINE
  5
2373D
  8
DETAIL
  6
CONTINUOUS
 62
     5
 10
-183.6167501483147
 20
168.4793030737728
 30
0.0
 11
-183.6193486862614
 21
168.4861433257279
 31
0.0
  0
LINE
  5
2373E
  8
DETAIL
  6
CONTINUOUS
 62
     5
 10
-183.6193486862614
 20
168.4861433257279
 30
0.0
 11
-183.6218298541428
 21
168.4931744062192
 31
0.0
  0
LINE
  5
2373F
  8
DETAIL
  6
CONTINUOUS
 62
     5
 10
-183.6218298541428
 20
168.4931744062192
 30
0.0
 11
-183.6218298541428
 21
168.4931744062192
 31
0.0
  0
LINE
  5
23740
  8
DETAIL
  6
CONTINUOUS
 62
     5
 10
-183.6218298541428
 20
168.4931744062192
 30
0.0
 11
-183.6240960847248
 21
168.500232515878
 31
0.0
  0
LINE
  5
23741
  8
DETAIL
  6
CONTINUOUS
 62
     5
 10
-183.6240960847248
 20
168.500232515878
 30
0.0
 11
-183.6261309251491
 21
168.5072929679772
 31
0.0
  0
LINE
  5
23742
  8
DETAIL
  6
CONTINUOUS
 62
     5
 10
-183.6261309251491
 20
168.5072929679772
 30
0.0
 11
-183.6261309251491
 21
168.5072929679772
 31
0.0
  0
LINE
  5
23743
  8
DETAIL
  6
CONTINUOUS
 62
     5
 10
-183.6261309251491
 20
168.5072929679772
 30
0.0
 11
-183.6279351365595
 21
168.5143910566376
 31
0.0
  0
LINE
  5
23744
  8
DETAIL
  6
CONTINUOUS
 62
     5
 10
-183.6279351365595
 20
168.5143910566376
 30
0.0
 11
-183.6294972217287
 21
168.5216628867229
 31
0.0
  0
LINE
  5
23745
  8
DETAIL
  6
CONTINUOUS
 62
     5
 10
-183.6294972217287
 20
168.5216628867229
 30
0.0
 11
-183.6294972217287
 21
168.5216628867229
 31
0.0
  0
LINE
  5
23746
  8
DETAIL
  6
CONTINUOUS
 62
     5
 10
-183.6294972217287
 20
168.5216628867229
 30
0.0
 11
-183.6307945986144
 21
168.5291341768798
 31
0.0
  0
LINE
  5
23747
  8
DETAIL
  6
CONTINUOUS
 62
     5
 10
-183.6307945986144
 20
168.5291341768798
 30
0.0
 11
-183.6317726042766
 21
168.5362882901318
 31
0.0
  0
LINE
  5
23748
  8
DETAIL
  6
CONTINUOUS
 62
     5
 10
-183.6317726042766
 20
168.5362882901318
 30
0.0
 11
-183.6317726042766
 21
168.5362882901318
 31
0.0
  0
LINE
  5
23749
  8
DETAIL
  6
CONTINUOUS
 62
     5
 10
-183.6317726042766
 20
168.5362882901318
 30
0.0
 11
-183.6323945542218
 21
168.5426863121766
 31
0.0
  0
LINE
  5
2374A
  8
DETAIL
  6
CONTINUOUS
 62
     5
 10
-183.6323945542218
 20
168.5426863121766
 30
0.0
 11
-183.6327277586611
 21
168.5487425750139
 31
0.0
  0
LINE
  5
2374B
  8
DETAIL
  6
CONTINUOUS
 62
     5
 10
-183.6327277586611
 20
168.5487425750139
 30
0.0
 11
-183.6327277586611
 21
168.5487425750139
 31
0.0
  0
LINE
  5
2374C
  8
DETAIL
  6
CONTINUOUS
 62
     5
 10
-183.6327277586611
 20
168.5487425750139
 30
0.0
 11
-183.6328429937271
 21
168.5549484459521
 31
0.0
  0
LINE
  5
2374D
  8
DETAIL
  6
CONTINUOUS
 62
     5
 10
-183.6328429937271
 20
168.5549484459521
 30
0.0
 11
-183.6327209045526
 21
168.5612501872183
 31
0.0
  0
LINE
  5
2374E
  8
DETAIL
  6
CONTINUOUS
 62
     5
 10
-183.6327209045526
 20
168.5612501872183
 30
0.0
 11
-183.6327209045526
 21
168.5612501872183
 31
0.0
  0
LINE
  5
2374F
  8
DETAIL
  6
CONTINUOUS
 62
     5
 10
-183.6327209045526
 20
168.5612501872183
 30
0.0
 11
-183.6323285312122
 21
168.5674953252596
 31
0.0
  0
LINE
  5
23750
  8
DETAIL
  6
CONTINUOUS
 62
     5
 10
-183.6323285312122
 20
168.5674953252596
 30
0.0
 11
-183.6316686245686
 21
168.5736815484684
 31
0.0
  0
LINE
  5
23751
  8
DETAIL
  6
CONTINUOUS
 62
     5
 10
-183.6316686245686
 20
168.5736815484684
 30
0.0
 11
-183.6316686245686
 21
168.5736815484684
 31
0.0
  0
LINE
  5
23752
  8
DETAIL
  6
CONTINUOUS
 62
     5
 10
-183.6316686245686
 20
168.5736815484684
 30
0.0
 11
-183.6307396851458
 21
168.5798302000476
 31
0.0
  0
LINE
  5
23753
  8
DETAIL
  6
CONTINUOUS
 62
     5
 10
-183.6307396851458
 20
168.5798302000476
 30
0.0
 11
-183.6294875013247
 21
168.5859070804877
 31
0.0
  0
LINE
  5
23754
  8
DETAIL
  6
CONTINUOUS
 62
     5
 10
-183.6294875013247
 20
168.5859070804877
 30
0.0
 11
-183.6294875013247
 21
168.5859070804877
 31
0.0
  0
LINE
  5
23755
  8
DETAIL
  6
CONTINUOUS
 62
     5
 10
-183.6294875013247
 20
168.5859070804877
 30
0.0
 11
-183.6278884678964
 21
168.5918821068258
 31
0.0
  0
LINE
  5
23756
  8
DETAIL
  6
CONTINUOUS
 62
     5
 10
-183.6278884678964
 20
168.5918821068258
 30
0.0
 11
-183.6260941174401
 21
168.597797205
 31
0.0
  0
LINE
  5
23757
  8
DETAIL
  6
CONTINUOUS
 62
     5
 10
-183.1355856712412
 20
169.0999999999999
 30
0.0
 11
-183.1395369618508
 21
169.0996028051495
 31
0.0
  0
LINE
  5
23758
  8
DETAIL
  6
CONTINUOUS
 62
     5
 10
-183.1395369618508
 20
169.0996028051495
 30
0.0
 11
-183.1434256440374
 21
169.0988861656856
 31
0.0
  0
LINE
  5
23759
  8
DETAIL
  6
CONTINUOUS
 62
     5
 10
-183.1434256440374
 20
169.0988861656856
 30
0.0
 11
-183.1434256440374
 21
169.0988861656856
 31
0.0
  0
LINE
  5
2375A
  8
DETAIL
  6
CONTINUOUS
 62
     5
 10
-183.1434256440374
 20
169.0988861656856
 30
0.0
 11
-183.1472014916915
 21
169.0976086297983
 31
0.0
  0
LINE
  5
2375B
  8
DETAIL
  6
CONTINUOUS
 62
     5
 10
-183.1472014916915
 20
169.0976086297983
 30
0.0
 11
-183.1508638079588
 21
169.0958407168837
 31
0.0
  0
LINE
  5
2375C
  8
DETAIL
  6
CONTINUOUS
 62
     5
 10
-183.1508638079588
 20
169.0958407168837
 30
0.0
 11
-183.1508638079588
 21
169.0958407168837
 31
0.0
  0
LINE
  5
2375D
  8
DETAIL
  6
CONTINUOUS
 62
     5
 10
-183.1508638079588
 20
169.0958407168837
 30
0.0
 11
-183.1544162374474
 21
169.0937159298956
 31
0.0
  0
LINE
  5
2375E
  8
DETAIL
  6
CONTINUOUS
 62
     5
 10
-183.1544162374474
 20
169.0937159298956
 30
0.0
 11
-183.1578302613382
 21
169.0913077348064
 31
0.0
  0
LINE
  5
2375F
  8
DETAIL
  6
CONTINUOUS
 62
     5
 10
-183.1578302613382
 20
169.0913077348064
 30
0.0
 11
-183.1578302613382
 21
169.0913077348064
 31
0.0
  0
LINE
  5
23760
  8
DETAIL
  6
CONTINUOUS
 62
     5
 10
-183.1578302613382
 20
169.0913077348064
 30
0.0
 11
-183.1610891010689
 21
169.0886566325248
 31
0.0
  0
LINE
  5
23761
  8
DETAIL
  6
CONTINUOUS
 62
     5
 10
-183.1610891010689
 20
169.0886566325248
 30
0.0
 11
-183.1642551025091
 21
169.0857313006677
 31
0.0
  0
LINE
  5
23762
  8
DETAIL
  6
CONTINUOUS
 62
     5
 10
-183.1642551025091
 20
169.0857313006677
 30
0.0
 11
-183.1642551025091
 21
169.0857313006677
 31
0.0
  0
LINE
  5
23763
  8
DETAIL
  6
CONTINUOUS
 62
     5
 10
-183.1642551025091
 20
169.0857313006677
 30
0.0
 11
-183.1673393090605
 21
169.0825692935637
 31
0.0
  0
LINE
  5
23764
  8
DETAIL
  6
CONTINUOUS
 62
     5
 10
-183.1673393090605
 20
169.0825692935637
 30
0.0
 11
-183.1700684298071
 21
169.0795554956799
 31
0.0
  0
LINE
  5
23765
  8
DETAIL
  6
CONTINUOUS
 62
     5
 10
-183.1700684298071
 20
169.0795554956799
 30
0.0
 11
-183.1700684298071
 21
169.0795554956799
 31
0.0
  0
LINE
  5
23766
  8
DETAIL
  6
CONTINUOUS
 62
     5
 10
-183.1700684298071
 20
169.0795554956799
 30
0.0
 11
-183.1722202289872
 21
169.0770151406554
 31
0.0
  0
LINE
  5
23767
  8
DETAIL
  6
CONTINUOUS
 62
     5
 10
-183.1722202289872
 20
169.0770151406554
 30
0.0
 11
-183.1740610257689
 21
169.0746875286859
 31
0.0
  0
LINE
  5
23768
  8
DETAIL
  6
CONTINUOUS
 62
     5
 10
-183.1740610257689
 20
169.0746875286859
 30
0.0
 11
-183.1740610257689
 21
169.0746875286859
 31
0.0
  0
LINE
  5
23769
  8
DETAIL
  6
CONTINUOUS
 62
     5
 10
-183.1740610257689
 20
169.0746875286859
 30
0.0
 11
-183.175898777887
 21
169.0722514986464
 31
0.0
  0
LINE
  5
2376A
  8
DETAIL
  6
CONTINUOUS
 62
     5
 10
-183.175898777887
 20
169.0722514986464
 30
0.0
 11
-183.1777194424163
 21
169.0697299775816
 31
0.0
  0
LINE
  5
2376B
  8
DETAIL
  6
CONTINUOUS
 62
     5
 10
-183.1777194424163
 20
169.0697299775816
 30
0.0
 11
-183.1777194424163
 21
169.0697299775816
 31
0.0
  0
LINE
  5
2376C
  8
DETAIL
  6
CONTINUOUS
 62
     5
 10
-183.1777194424163
 20
169.0697299775816
 30
0.0
 11
-183.1794502337073
 21
169.0672090672306
 31
0.0
  0
LINE
  5
2376D
  8
DETAIL
  6
CONTINUOUS
 62
     5
 10
-183.1794502337073
 20
169.0672090672306
 30
0.0
 11
-183.1811053958849
 21
169.0646834799468
 31
0.0
  0
LINE
  5
2376E
  8
DETAIL
  6
CONTINUOUS
 62
     5
 10
-183.1811053958849
 20
169.0646834799468
 30
0.0
 11
-183.1811053958849
 21
169.0646834799468
 31
0.0
  0
LINE
  5
2376F
  8
DETAIL
  6
CONTINUOUS
 62
     5
 10
-183.1811053958849
 20
169.0646834799468
 30
0.0
 11
-183.1827144009119
 21
169.062130448081
 31
0.0
  0
LINE
  5
23770
  8
DETAIL
  6
CONTINUOUS
 62
     5
 10
-183.1827144009119
 20
169.062130448081
 30
0.0
 11
-183.1842806023147
 21
169.05954867336
 31
0.0
  0
LINE
  5
23771
  8
DETAIL
  6
CONTINUOUS
 62
     5
 10
-183.1842806023147
 20
169.05954867336
 30
0.0
 11
-183.1842806023147
 21
169.05954867336
 31
0.0
  0
LINE
  5
23772
  8
DETAIL
  6
CONTINUOUS
 62
     5
 10
-183.1842806023147
 20
169.05954867336
 30
0.0
 11
-183.1858051850033
 21
169.0569436028259
 31
0.0
  0
LINE
  5
23773
  8
DETAIL
  6
CONTINUOUS
 62
     5
 10
-183.1858051850033
 20
169.0569436028259
 30
0.0
 11
-183.1873067778411
 21
169.0543261953999
 31
0.0
  0
LINE
  5
23774
  8
DETAIL
  6
CONTINUOUS
 62
     5
 10
-183.1873067778411
 20
169.0543261953999
 30
0.0
 11
-183.1891654547347
 21
169.0509688350621
 31
0.0
  0
LINE
  5
23775
  8
DETAIL
  6
CONTINUOUS
 62
     5
 10
-183.1891654547347
 20
169.0509688350621
 30
0.0
 11
-183.1910078741107
 21
169.0475799401429
 31
0.0
  0
LINE
  5
23776
  8
DETAIL
  6
CONTINUOUS
 62
     5
 10
-183.1910078741107
 20
169.0475799401429
 30
0.0
 11
-183.1910078741107
 21
169.0475799401429
 31
0.0
  0
LINE
  5
23777
  8
DETAIL
  6
CONTINUOUS
 62
     5
 10
-183.1910078741107
 20
169.0475799401429
 30
0.0
 11
-183.1928173799641
 21
169.0441446346467
 31
0.0
  0
LINE
  5
23778
  8
DETAIL
  6
CONTINUOUS
 62
     5
 10
-183.1928173799641
 20
169.0441446346467
 30
0.0
 11
-183.1945757223515
 21
169.0407146769139
 31
0.0
  0
LINE
  5
23779
  8
DETAIL
  6
CONTINUOUS
 62
     5
 10
-183.1945757223515
 20
169.0407146769139
 30
0.0
 11
-183.1945757223515
 21
169.0407146769139
 31
0.0
  0
LINE
  5
2377A
  8
DETAIL
  6
CONTINUOUS
 62
     5
 10
-183.1945757223515
 20
169.0407146769139
 30
0.0
 11
-183.1962833954051
 21
169.037309355565
 31
0.0
  0
LINE
  5
2377B
  8
DETAIL
  6
CONTINUOUS
 62
     5
 10
-183.1962833954051
 20
169.037309355565
 30
0.0
 11
-183.1980174635058
 21
169.0337514460034
 31
0.0
  0
LINE
  5
2377C
  8
DETAIL
  6
CONTINUOUS
 62
     5
 10
-183.1980174635058
 20
169.0337514460034
 30
0.0
 11
-183.1980174635058
 21
169.0337514460034
 31
0.0
  0
LINE
  5
2377D
  8
DETAIL
  6
CONTINUOUS
 62
     5
 10
-183.1980174635058
 20
169.0337514460034
 30
0.0
 11
-183.1997979618365
 21
169.0299944499616
 31
0.0
  0
LINE
  5
2377E
  8
DETAIL
  6
CONTINUOUS
 62
     5
 10
-183.1997979618365
 20
169.0299944499616
 30
0.0
 11
-183.2013402385211
 21
169.0267112877054
 31
0.0
  0
LINE
  5
2377F
  8
DETAIL
  6
CONTINUOUS
 62
     5
 10
-183.2013402385211
 20
169.0267112877054
 30
0.0
 11
-183.2013402385211
 21
169.0267112877054
 31
0.0
  0
LINE
  5
23780
  8
DETAIL
  6
CONTINUOUS
 62
     5
 10
-183.2013402385211
 20
169.0267112877054
 30
0.0
 11
-183.2025690144135
 21
169.0240844439045
 31
0.0
  0
LINE
  5
23781
  8
DETAIL
  6
CONTINUOUS
 62
     5
 10
-183.2025690144135
 20
169.0240844439045
 30
0.0
 11
-183.2045511883402
 21
169.0196152423109
 31
0.0
  0
LINE
  5
23782
  8
DETAIL
  6
CONTINUOUS
 62
     5
 10
-183.2045511883402
 20
169.0196152423109
 30
0.0
 11
-183.2045511883402
 21
169.0196152423109
 31
0.0
  0
LINE
  5
23783
  8
DETAIL
  6
CONTINUOUS
 62
     5
 10
-183.2045511883402
 20
169.0196152423109
 30
0.0
 11
-183.2081747753585
 21
169.0111858945384
 31
0.0
  0
LINE
  5
23784
  8
DETAIL
  6
CONTINUOUS
 62
     5
 10
-183.2081747753585
 20
169.0111858945384
 30
0.0
 11
-183.2124700774887
 21
169.0008833245688
 31
0.0
  0
LINE
  5
23785
  8
DETAIL
  6
CONTINUOUS
 62
     5
 10
-183.2124700774887
 20
169.0008833245688
 30
0.0
 11
-183.2124700774887
 21
169.0008833245688
 31
0.0
  0
LINE
  5
23786
  8
DETAIL
  6
CONTINUOUS
 62
     5
 10
-183.2124700774887
 20
169.0008833245688
 30
0.0
 11
-183.2163074487424
 21
168.9911877168843
 31
0.0
  0
LINE
  5
23787
  8
DETAIL
  6
CONTINUOUS
 62
     5
 10
-183.2163074487424
 20
168.9911877168843
 30
0.0
 11
-183.2197751641301
 21
168.9819475855998
 31
0.0
  0
LINE
  5
23788
  8
DETAIL
  6
CONTINUOUS
 62
     5
 10
-183.2197751641301
 20
168.9819475855998
 30
0.0
 11
-183.2197751641301
 21
168.9819475855998
 31
0.0
  0
LINE
  5
23789
  8
DETAIL
  6
CONTINUOUS
 62
     5
 10
-183.2197751641301
 20
168.9819475855998
 30
0.0
 11
-183.2231905331262
 21
168.972509345967
 31
0.0
  0
LINE
  5
2378A
  8
DETAIL
  6
CONTINUOUS
 62
     5
 10
-183.2231905331262
 20
168.972509345967
 30
0.0
 11
-183.2265690820664
 21
168.9628426881454
 31
0.0
  0
LINE
  5
2378B
  8
DETAIL
  6
CONTINUOUS
 62
     5
 10
-183.2265690820664
 20
168.9628426881454
 30
0.0
 11
-183.2265690820664
 21
168.9628426881454
 31
0.0
  0
LINE
  5
2378C
  8
DETAIL
  6
CONTINUOUS
 62
     5
 10
-183.2265690820664
 20
168.9628426881454
 30
0.0
 11
-183.229848194392
 21
168.9531077637057
 31
0.0
  0
LINE
  5
2378D
  8
DETAIL
  6
CONTINUOUS
 62
     5
 10
-183.229848194392
 20
168.9531077637057
 30
0.0
 11
-183.2329544651014
 21
168.9436032949461
 31
0.0
  0
LINE
  5
2378E
  8
DETAIL
  6
CONTINUOUS
 62
     5
 10
-183.2329544651014
 20
168.9436032949461
 30
0.0
 11
-183.2329544651014
 21
168.9436032949461
 31
0.0
  0
LINE
  5
2378F
  8
DETAIL
  6
CONTINUOUS
 62
     5
 10
-183.2329544651014
 20
168.9436032949461
 30
0.0
 11
-183.2358980263099
 21
168.9343682573917
 31
0.0
  0
LINE
  5
23790
  8
DETAIL
  6
CONTINUOUS
 62
     5
 10
-183.2358980263099
 20
168.9343682573917
 30
0.0
 11
-183.2390339470386
 21
168.9242640687435
 31
0.0
  0
LINE
  5
23791
  8
DETAIL
  6
CONTINUOUS
 62
     5
 10
-183.2390339470386
 20
168.9242640687435
 30
0.0
 11
-183.2390339470386
 21
168.9242640687435
 31
0.0
  0
LINE
  5
23792
  8
DETAIL
  6
CONTINUOUS
 62
     5
 10
-183.2390339470386
 20
168.9242640687435
 30
0.0
 11
-183.2426545521051
 21
168.9123392227948
 31
0.0
  0
LINE
  5
23793
  8
DETAIL
  6
CONTINUOUS
 62
     5
 10
-183.2426545521051
 20
168.9123392227948
 30
0.0
 11
-183.2464562526259
 21
168.899568075542
 31
0.0
  0
LINE
  5
23794
  8
DETAIL
  6
CONTINUOUS
 62
     5
 10
-183.2464562526259
 20
168.899568075542
 30
0.0
 11
-183.2464562526259
 21
168.899568075542
 31
0.0
  0
LINE
  5
23795
  8
DETAIL
  6
CONTINUOUS
 62
     5
 10
-183.2464562526259
 20
168.899568075542
 30
0.0
 11
-183.250085236808
 21
168.8870901989657
 31
0.0
  0
LINE
  5
23796
  8
DETAIL
  6
CONTINUOUS
 62
     5
 10
-183.250085236808
 20
168.8870901989657
 30
0.0
 11
-183.2535827149426
 21
168.8747801667832
 31
0.0
  0
LINE
  5
23797
  8
DETAIL
  6
CONTINUOUS
 62
     5
 10
-183.2535827149426
 20
168.8747801667832
 30
0.0
 11
-183.2535827149426
 21
168.8747801667832
 31
0.0
  0
LINE
  5
23798
  8
DETAIL
  6
CONTINUOUS
 62
     5
 10
-183.2535827149426
 20
168.8747801667832
 30
0.0
 11
-183.2570515633436
 21
168.8623234175884
 31
0.0
  0
LINE
  5
23799
  8
DETAIL
  6
CONTINUOUS
 62
     5
 10
-183.2570515633436
 20
168.8623234175884
 30
0.0
 11
-183.2604463003304
 21
168.8499138477491
 31
0.0
  0
LINE
  5
2379A
  8
DETAIL
  6
CONTINUOUS
 62
     5
 10
-183.2604463003304
 20
168.8499138477491
 30
0.0
 11
-183.2604463003304
 21
168.8499138477491
 31
0.0
  0
LINE
  5
2379B
  8
DETAIL
  6
CONTINUOUS
 62
     5
 10
-183.2604463003304
 20
168.8499138477491
 30
0.0
 11
-183.2637339571963
 21
168.8376802598696
 31
0.0
  0
LINE
  5
2379C
  8
DETAIL
  6
CONTINUOUS
 62
     5
 10
-183.2637339571963
 20
168.8376802598696
 30
0.0
 11
-183.2670799751307
 21
168.8249826237211
 31
0.0
  0
LINE
  5
2379D
  8
DETAIL
  6
CONTINUOUS
 62
     5
 10
-183.2670799751307
 20
168.8249826237211
 30
0.0
 11
-183.2670799751307
 21
168.8249826237211
 31
0.0
  0
LINE
  5
2379E
  8
DETAIL
  6
CONTINUOUS
 62
     5
 10
-183.2670799751307
 20
168.8249826237211
 30
0.0
 11
-183.2705380773992
 21
168.8116304192567
 31
0.0
  0
LINE
  5
2379F
  8
DETAIL
  6
CONTINUOUS
 62
     5
 10
-183.2705380773992
 20
168.8116304192567
 30
0.0
 11
-183.2735167056846
 21
168.799999999981
 31
0.0
  0
LINE
  5
237A0
  8
DETAIL
  6
CONTINUOUS
 62
     5
 10
-183.2735167056846
 20
168.799999999981
 30
0.0
 11
-183.2735167056846
 21
168.799999999981
 31
0.0
  0
LINE
  5
237A1
  8
DETAIL
  6
CONTINUOUS
 62
     5
 10
-183.2735167056846
 20
168.799999999981
 30
0.0
 11
-183.275517377703
 21
168.7921053040827
 31
0.0
  0
LINE
  5
237A2
  8
DETAIL
  6
CONTINUOUS
 62
     5
 10
-183.275517377703
 20
168.7921053040827
 30
0.0
 11
-183.2770591968815
 21
168.7859437349252
 31
0.0
  0
LINE
  5
237A3
  8
DETAIL
  6
CONTINUOUS
 62
     5
 10
-183.2770591968815
 20
168.7859437349252
 30
0.0
 11
-183.2770591968815
 21
168.7859437349252
 31
0.0
  0
LINE
  5
237A4
  8
DETAIL
  6
CONTINUOUS
 62
     5
 10
-183.2770591968815
 20
168.7859437349252
 30
0.0
 11
-183.2787522762263
 21
168.779143962819
 31
0.0
  0
LINE
  5
237A5
  8
DETAIL
  6
CONTINUOUS
 62
     5
 10
-183.2787522762263
 20
168.779143962819
 30
0.0
 11
-183.2805531813196
 21
168.7718762606719
 31
0.0
  0
LINE
  5
237A6
  8
DETAIL
  6
CONTINUOUS
 62
     5
 10
-183.2805531813196
 20
168.7718762606719
 30
0.0
 11
-183.2805531813196
 21
168.7718762606719
 31
0.0
  0
LINE
  5
237A7
  8
DETAIL
  6
CONTINUOUS
 62
     5
 10
-183.2805531813196
 20
168.7718762606719
 30
0.0
 11
-183.2822989342911
 21
168.7647761237045
 31
0.0
  0
LINE
  5
237A8
  8
DETAIL
  6
CONTINUOUS
 62
     5
 10
-183.2822989342911
 20
168.7647761237045
 30
0.0
 11
-183.2840019308555
 21
168.7577983337883
 31
0.0
  0
LINE
  5
237A9
  8
DETAIL
  6
CONTINUOUS
 62
     5
 10
-183.2840019308555
 20
168.7577983337883
 30
0.0
 11
-183.2840019308555
 21
168.7577983337883
 31
0.0
  0
LINE
  5
237AA
  8
DETAIL
  6
CONTINUOUS
 62
     5
 10
-183.2840019308555
 20
168.7577983337883
 30
0.0
 11
-183.285706423391
 21
168.7507728071578
 31
0.0
  0
LINE
  5
237AB
  8
DETAIL
  6
CONTINUOUS
 62
     5
 10
-183.285706423391
 20
168.7507728071578
 30
0.0
 11
-183.2874087173442
 21
168.7437107108417
 31
0.0
  0
LINE
  5
237AC
  8
DETAIL
  6
CONTINUOUS
 62
     5
 10
-183.2874087173442
 20
168.7437107108417
 30
0.0
 11
-183.2874087173442
 21
168.7437107108417
 31
0.0
  0
LINE
  5
237AD
  8
DETAIL
  6
CONTINUOUS
 62
     5
 10
-183.2874087173442
 20
168.7437107108417
 30
0.0
 11
-183.2890972349608
 21
168.7366574521102
 31
0.0
  0
LINE
  5
237AE
  8
DETAIL
  6
CONTINUOUS
 62
     5
 10
-183.2890972349608
 20
168.7366574521102
 30
0.0
 11
-183.29077681264
 21
168.7296141483998
 31
0.0
  0
LINE
  5
237AF
  8
DETAIL
  6
CONTINUOUS
 62
     5
 10
-183.4402794278408
 20
168.2163881053998
 30
0.0
 11
-183.4559096091022
 21
168.2280302482
 31
0.0
  0
LINE
  5
237B0
  8
DETAIL
  6
CONTINUOUS
 62
     5
 10
-183.4559096091022
 20
168.2280302482
 30
0.0
 11
-183.4715341455025
 21
168.239674065107
 31
0.0
  0
LINE
  5
237B1
  8
DETAIL
  6
CONTINUOUS
 62
     5
 10
-183.4715341455025
 20
168.239674065107
 30
0.0
 11
-183.4715341455025
 21
168.239674065107
 31
0.0
  0
LINE
  5
237B2
  8
DETAIL
  6
CONTINUOUS
 62
     5
 10
-183.4715341455025
 20
168.239674065107
 30
0.0
 11
-183.4871499925164
 21
168.2513236664663
 31
0.0
  0
LINE
  5
237B3
  8
DETAIL
  6
CONTINUOUS
 62
     5
 10
-183.4871499925164
 20
168.2513236664663
 30
0.0
 11
-183.50276450695
 21
168.2629929075624
 31
0.0
  0
LINE
  5
237B4
  8
DETAIL
  6
CONTINUOUS
 62
     5
 10
-183.50276450695
 20
168.2629929075624
 30
0.0
 11
-183.50276450695
 21
168.2629929075624
 31
0.0
  0
LINE
  5
237B5
  8
DETAIL
  6
CONTINUOUS
 62
     5
 10
-183.50276450695
 20
168.2629929075624
 30
0.0
 11
-183.5183764431777
 21
168.2746892965024
 31
0.0
  0
LINE
  5
237B6
  8
DETAIL
  6
CONTINUOUS
 62
     5
 10
-183.5183764431777
 20
168.2746892965024
 30
0.0
 11
-183.53393974451
 21
168.2863852077257
 31
0.0
  0
LINE
  5
237B7
  8
DETAIL
  6
CONTINUOUS
 62
     5
 10
-183.53393974451
 20
168.2863852077257
 30
0.0
 11
-183.53393974451
 21
168.2863852077257
 31
0.0
  0
LINE
  5
237B8
  8
DETAIL
  6
CONTINUOUS
 62
     5
 10
-183.53393974451
 20
168.2863852077257
 30
0.0
 11
-183.5494393622203
 21
168.2980769296869
 31
0.0
  0
LINE
  5
237B9
  8
DETAIL
  6
CONTINUOUS
 62
     5
 10
-183.5494393622203
 20
168.2980769296869
 30
0.0
 11
-183.5650290905091
 21
168.3098915405576
 31
0.0
  0
LINE
  5
237BA
  8
DETAIL
  6
CONTINUOUS
 62
     5
 10
-183.5650290905091
 20
168.3098915405576
 30
0.0
 11
-183.5650290905091
 21
168.3098915405576
 31
0.0
  0
LINE
  5
237BB
  8
DETAIL
  6
CONTINUOUS
 62
     5
 10
-183.5650290905091
 20
168.3098915405576
 30
0.0
 11
-183.5807472941505
 21
168.3218668096392
 31
0.0
  0
LINE
  5
237BC
  8
DETAIL
  6
CONTINUOUS
 62
     5
 10
-183.5807472941505
 20
168.3218668096392
 30
0.0
 11
-183.59600177728
 21
168.3335524810186
 31
0.0
  0
LINE
  5
237BD
  8
DETAIL
  6
CONTINUOUS
 62
     5
 10
-183.59600177728
 20
168.3335524810186
 30
0.0
 11
-183.59600177728
 21
168.3335524810186
 31
0.0
  0
LINE
  5
237BE
  8
DETAIL
  6
CONTINUOUS
 62
     5
 10
-183.59600177728
 20
168.3335524810186
 30
0.0
 11
-183.6102918949514
 21
168.3445679135784
 31
0.0
  0
LINE
  5
237BF
  8
DETAIL
  6
CONTINUOUS
 62
     5
 10
-183.6102918949514
 20
168.3445679135784
 30
0.0
 11
-183.6241137665021
 21
168.3552989505806
 31
0.0
  0
LINE
  5
237C0
  8
DETAIL
  6
CONTINUOUS
 62
     5
 10
-183.6241137665021
 20
168.3552989505806
 30
0.0
 11
-183.6241137665021
 21
168.3552989505806
 31
0.0
  0
LINE
  5
237C1
  8
DETAIL
  6
CONTINUOUS
 62
     5
 10
-183.6241137665021
 20
168.3552989505806
 30
0.0
 11
-183.6380540377473
 21
168.3662023870152
 31
0.0
  0
LINE
  5
237C2
  8
DETAIL
  6
CONTINUOUS
 62
     5
 10
-183.6380540377473
 20
168.3662023870152
 30
0.0
 11
-183.6520646961167
 21
168.3772523403922
 31
0.0
  0
LINE
  5
237C3
  8
DETAIL
  6
CONTINUOUS
 62
     5
 10
-183.6520646961167
 20
168.3772523403922
 30
0.0
 11
-183.6520646961167
 21
168.3772523403922
 31
0.0
  0
LINE
  5
237C4
  8
DETAIL
  6
CONTINUOUS
 62
     5
 10
-183.6520646961167
 20
168.3772523403922
 30
0.0
 11
-183.6659822669682
 21
168.3883337206116
 31
0.0
  0
LINE
  5
237C5
  8
DETAIL
  6
CONTINUOUS
 62
     5
 10
-183.6659822669682
 20
168.3883337206116
 30
0.0
 11
-183.6798160857763
 21
168.3994572846018
 31
0.0
  0
LINE
  5
237C6
  8
DETAIL
  6
CONTINUOUS
 62
     5
 10
-183.6798160857763
 20
168.3994572846018
 30
0.0
 11
-183.6798160857763
 21
168.3994572846018
 31
0.0
  0
LINE
  5
237C7
  8
DETAIL
  6
CONTINUOUS
 62
     5
 10
-183.6798160857763
 20
168.3994572846018
 30
0.0
 11
-183.6936045450237
 21
168.4106600733899
 31
0.0
  0
LINE
  5
237C8
  8
DETAIL
  6
CONTINUOUS
 62
     5
 10
-183.6936045450237
 20
168.4106600733899
 30
0.0
 11
-183.7073294551323
 21
168.4219584173547
 31
0.0
  0
LINE
  5
237C9
  8
DETAIL
  6
CONTINUOUS
 62
     5
 10
-183.7073294551323
 20
168.4219584173547
 30
0.0
 11
-183.7073294551323
 21
168.4219584173547
 31
0.0
  0
LINE
  5
237CA
  8
DETAIL
  6
CONTINUOUS
 62
     5
 10
-183.7073294551323
 20
168.4219584173547
 30
0.0
 11
-183.7209718605451
 21
168.4333527181038
 31
0.0
  0
LINE
  5
237CB
  8
DETAIL
  6
CONTINUOUS
 62
     5
 10
-183.7209718605451
 20
168.4333527181038
 30
0.0
 11
-183.7345663238407
 21
168.4448003727998
 31
0.0
  0
LINE
  5
237CC
  8
DETAIL
  6
CONTINUOUS
 62
     5
 10
-183.7504916630398
 20
168.4584665384
 30
0.0
 11
-183.7598826734987
 21
168.4666876306732
 31
0.0
  0
LINE
  5
237CD
  8
DETAIL
  6
CONTINUOUS
 62
     5
 10
-183.7598826734987
 20
168.4666876306732
 30
0.0
 11
-183.7692208352665
 21
168.4749468062751
 31
0.0
  0
LINE
  5
237CE
  8
DETAIL
  6
CONTINUOUS
 62
     5
 10
-183.7692208352665
 20
168.4749468062751
 30
0.0
 11
-183.7692208352665
 21
168.4749468062751
 31
0.0
  0
LINE
  5
237CF
  8
DETAIL
  6
CONTINUOUS
 62
     5
 10
-183.7692208352665
 20
168.4749468062751
 30
0.0
 11
-183.7784698171002
 21
168.4832842223672
 31
0.0
  0
LINE
  5
237D0
  8
DETAIL
  6
CONTINUOUS
 62
     5
 10
-183.7784698171002
 20
168.4832842223672
 30
0.0
 11
-183.7876593575369
 21
168.4917483314448
 31
0.0
  0
LINE
  5
237D1
  8
DETAIL
  6
CONTINUOUS
 62
     5
 10
-183.7876593575369
 20
168.4917483314448
 30
0.0
 11
-183.7876593575369
 21
168.4917483314448
 31
0.0
  0
LINE
  5
237D2
  8
DETAIL
  6
CONTINUOUS
 62
     5
 10
-183.7876593575369
 20
168.4917483314448
 30
0.0
 11
-183.7967967710871
 21
168.5003501322553
 31
0.0
  0
LINE
  5
237D3
  8
DETAIL
  6
CONTINUOUS
 62
     5
 10
-183.7967967710871
 20
168.5003501322553
 30
0.0
 11
-183.8057336063644
 21
168.5089425132264
 31
0.0
  0
LINE
  5
237D4
  8
DETAIL
  6
CONTINUOUS
 62
     5
 10
-183.8057336063644
 20
168.5089425132264
 30
0.0
 11
-183.8057336063644
 21
168.5089425132264
 31
0.0
  0
LINE
  5
237D5
  8
DETAIL
  6
CONTINUOUS
 62
     5
 10
-183.8057336063644
 20
168.5089425132264
 30
0.0
 11
-183.8144217189586
 21
168.5174948716922
 31
0.0
  0
LINE
  5
237D6
  8
DETAIL
  6
CONTINUOUS
 62
     5
 10
-183.8144217189586
 20
168.5174948716922
 30
0.0
 11
-183.8233699582584
 21
168.5266007509381
 31
0.0
  0
LINE
  5
237D7
  8
DETAIL
  6
CONTINUOUS
 62
     5
 10
-183.8233699582584
 20
168.5266007509381
 30
0.0
 11
-183.8233699582584
 21
168.5266007509381
 31
0.0
  0
LINE
  5
237D8
  8
DETAIL
  6
CONTINUOUS
 62
     5
 10
-183.8233699582584
 20
168.5266007509381
 30
0.0
 11
-183.8327083697774
 21
168.5364251123679
 31
0.0
  0
LINE
  5
237D9
  8
DETAIL
  6
CONTINUOUS
 62
     5
 10
-183.8327083697774
 20
168.5364251123679
 30
0.0
 11
-183.8404947897321
 21
168.544794443897
 31
0.0
  0
LINE
  5
237DA
  8
DETAIL
  6
CONTINUOUS
 62
     5
 10
-183.8404947897321
 20
168.544794443897
 30
0.0
 11
-183.8404947897321
 21
168.544794443897
 31
0.0
  0
LINE
  5
237DB
  8
DETAIL
  6
CONTINUOUS
 62
     5
 10
-183.8404947897321
 20
168.544794443897
 30
0.0
 11
-183.8450988291603
 21
168.5498586715239
 31
0.0
  0
LINE
  5
237DC
  8
DETAIL
  6
CONTINUOUS
 62
     5
 10
-183.8450988291603
 20
168.5498586715239
 30
0.0
 11
-183.8482094076992
 21
168.5533999470558
 31
0.0
  0
LINE
  5
237DD
  8
DETAIL
  6
CONTINUOUS
 62
     5
 10
-183.8482094076992
 20
168.5533999470558
 30
0.0
 11
-183.8482094076992
 21
168.5533999470558
 31
0.0
  0
LINE
  5
237DE
  8
DETAIL
  6
CONTINUOUS
 62
     5
 10
-183.8482094076992
 20
168.5533999470558
 30
0.0
 11
-183.8518132009648
 21
168.5575414826376
 31
0.0
  0
LINE
  5
237DF
  8
DETAIL
  6
CONTINUOUS
 62
     5
 10
-183.8518132009648
 20
168.5575414826376
 30
0.0
 11
-183.8557685998881
 21
168.5621385059516
 31
0.0
  0
LINE
  5
237E0
  8
DETAIL
  6
CONTINUOUS
 62
     5
 10
-183.8557685998881
 20
168.5621385059516
 30
0.0
 11
-183.8557685998881
 21
168.5621385059516
 31
0.0
  0
LINE
  5
237E1
  8
DETAIL
  6
CONTINUOUS
 62
     5
 10
-183.8557685998881
 20
168.5621385059516
 30
0.0
 11
-183.8595397169325
 21
168.5666244617455
 31
0.0
  0
LINE
  5
237E2
  8
DETAIL
  6
CONTINUOUS
 62
     5
 10
-183.8595397169325
 20
168.5666244617455
 30
0.0
 11
-183.8631418353629
 21
168.5710136474891
 31
0.0
  0
LINE
  5
237E3
  8
DETAIL
  6
CONTINUOUS
 62
     5
 10
-183.8631418353629
 20
168.5710136474891
 30
0.0
 11
-183.8631418353629
 21
168.5710136474891
 31
0.0
  0
LINE
  5
237E4
  8
DETAIL
  6
CONTINUOUS
 62
     5
 10
-183.8631418353629
 20
168.5710136474891
 30
0.0
 11
-183.8667089315149
 21
168.5754517172272
 31
0.0
  0
LINE
  5
237E5
  8
DETAIL
  6
CONTINUOUS
 62
     5
 10
-183.8667089315149
 20
168.5754517172272
 30
0.0
 11
-183.8702985831908
 21
168.5800288985724
 31
0.0
  0
LINE
  5
237E6
  8
DETAIL
  6
CONTINUOUS
 62
     5
 10
-183.8702985831908
 20
168.5800288985724
 30
0.0
 11
-183.8702985831908
 21
168.5800288985724
 31
0.0
  0
LINE
  5
237E7
  8
DETAIL
  6
CONTINUOUS
 62
     5
 10
-183.8702985831908
 20
168.5800288985724
 30
0.0
 11
-183.8738878743924
 21
168.5847317757812
 31
0.0
  0
LINE
  5
237E8
  8
DETAIL
  6
CONTINUOUS
 62
     5
 10
-183.8738878743924
 20
168.5847317757812
 30
0.0
 11
-183.8772083124373
 21
168.5891877861063
 31
0.0
  0
LINE
  5
237E9
  8
DETAIL
  6
CONTINUOUS
 62
     5
 10
-183.8772083124373
 20
168.5891877861063
 30
0.0
 11
-183.8772083124373
 21
168.5891877861063
 31
0.0
  0
LINE
  5
237EA
  8
DETAIL
  6
CONTINUOUS
 62
     5
 10
-183.8772083124373
 20
168.5891877861063
 30
0.0
 11
-183.8800426832815
 21
168.5930911337246
 31
0.0
  0
LINE
  5
237EB
  8
DETAIL
  6
CONTINUOUS
 62
     5
 10
-183.8800426832815
 20
168.5930911337246
 30
0.0
 11
-183.8826244640842
 21
168.5967622375133
 31
0.0
  0
LINE
  5
237EC
  8
DETAIL
  6
CONTINUOUS
 62
     5
 10
-183.8826244640842
 20
168.5967622375133
 30
0.0
 11
-183.8826244640842
 21
168.5967622375133
 31
0.0
  0
LINE
  5
237ED
  8
DETAIL
  6
CONTINUOUS
 62
     5
 10
-183.8826244640842
 20
168.5967622375133
 30
0.0
 11
-183.8852241201092
 21
168.6005757939165
 31
0.0
  0
LINE
  5
237EE
  8
DETAIL
  6
CONTINUOUS
 62
     5
 10
-183.8852241201092
 20
168.6005757939165
 30
0.0
 11
-183.8878093778226
 21
168.6044973949543
 31
0.0
  0
LINE
  5
237EF
  8
DETAIL
  6
CONTINUOUS
 62
     5
 10
-183.8878093778226
 20
168.6044973949543
 30
0.0
 11
-183.8878093778226
 21
168.6044973949543
 31
0.0
  0
LINE
  5
237F0
  8
DETAIL
  6
CONTINUOUS
 62
     5
 10
-183.8878093778226
 20
168.6044973949543
 30
0.0
 11
-183.8902986381875
 21
168.6084326627168
 31
0.0
  0
LINE
  5
237F1
  8
DETAIL
  6
CONTINUOUS
 62
     5
 10
-183.8902986381875
 20
168.6084326627168
 30
0.0
 11
-183.8927157389573
 21
168.6124564440015
 31
0.0
  0
LINE
  5
237F2
  8
DETAIL
  6
CONTINUOUS
 62
     5
 10
-183.8927157389573
 20
168.6124564440015
 30
0.0
 11
-183.8927157389573
 21
168.6124564440015
 31
0.0
  0
LINE
  5
237F3
  8
DETAIL
  6
CONTINUOUS
 62
     5
 10
-183.8927157389573
 20
168.6124564440015
 30
0.0
 11
-183.8950811249921
 21
168.6166189431815
 31
0.0
  0
LINE
  5
237F4
  8
DETAIL
  6
CONTINUOUS
 62
     5
 10
-183.8950811249921
 20
168.6166189431815
 30
0.0
 11
-183.8972962327867
 21
168.6207025702302
 31
0.0
  0
LINE
  5
237F5
  8
DETAIL
  6
CONTINUOUS
 62
     5
 10
-183.8972962327867
 20
168.6207025702302
 30
0.0
 11
-183.8972962327867
 21
168.6207025702302
 31
0.0
  0
LINE
  5
237F6
  8
DETAIL
  6
CONTINUOUS
 62
     5
 10
-183.8972962327867
 20
168.6207025702302
 30
0.0
 11
-183.8993253959114
 21
168.6246482747451
 31
0.0
  0
LINE
  5
237F7
  8
DETAIL
  6
CONTINUOUS
 62
     5
 10
-183.8993253959114
 20
168.6246482747451
 30
0.0
 11
-183.9015035446104
 21
168.6292989592125
 31
0.0
  0
LINE
  5
237F8
  8
DETAIL
  6
CONTINUOUS
 62
     5
 10
-183.9015035446104
 20
168.6292989592125
 30
0.0
 11
-183.9015035446104
 21
168.6292989592125
 31
0.0
  0
LINE
  5
237F9
  8
DETAIL
  6
CONTINUOUS
 62
     5
 10
-183.9015035446104
 20
168.6292989592125
 30
0.0
 11
-183.9040941947715
 21
168.6353729966804
 31
0.0
  0
LINE
  5
237FA
  8
DETAIL
  6
CONTINUOUS
 62
     5
 10
-183.9040941947715
 20
168.6353729966804
 30
0.0
 11
-183.9067046081749
 21
168.6421886895478
 31
0.0
  0
LINE
  5
237FB
  8
DETAIL
  6
CONTINUOUS
 62
     5
 10
-183.9067046081749
 20
168.6421886895478
 30
0.0
 11
-183.9067046081749
 21
168.6421886895478
 31
0.0
  0
LINE
  5
237FC
  8
DETAIL
  6
CONTINUOUS
 62
     5
 10
-183.9067046081749
 20
168.6421886895478
 30
0.0
 11
-183.9088819071347
 21
168.6489233284783
 31
0.0
  0
LINE
  5
237FD
  8
DETAIL
  6
CONTINUOUS
 62
     5
 10
-183.9088819071347
 20
168.6489233284783
 30
0.0
 11
-183.9105889102107
 21
168.6555902278387
 31
0.0
  0
LINE
  5
237FE
  8
DETAIL
  6
CONTINUOUS
 62
     5
 10
-183.9105889102107
 20
168.6555902278387
 30
0.0
 11
-183.9105889102107
 21
168.6555902278387
 31
0.0
  0
LINE
  5
237FF
  8
DETAIL
  6
CONTINUOUS
 62
     5
 10
-183.9105889102107
 20
168.6555902278387
 30
0.0
 11
-183.9118716010209
 21
168.6623575025496
 31
0.0
  0
LINE
  5
23800
  8
DETAIL
  6
CONTINUOUS
 62
     5
 10
-183.9118716010209
 20
168.6623575025496
 30
0.0
 11
-183.9126929271883
 21
168.6691764460406
 31
0.0
  0
LINE
  5
23801
  8
DETAIL
  6
CONTINUOUS
 62
     5
 10
-183.9126929271883
 20
168.6691764460406
 30
0.0
 11
-183.9126929271883
 21
168.6691764460406
 31
0.0
  0
LINE
  5
23802
  8
DETAIL
  6
CONTINUOUS
 62
     5
 10
-183.9126929271883
 20
168.6691764460406
 30
0.0
 11
-183.9129741892718
 21
168.675951961935
 31
0.0
  0
LINE
  5
23803
  8
DETAIL
  6
CONTINUOUS
 62
     5
 10
-183.9129741892718
 20
168.675951961935
 30
0.0
 11
-183.9125531355753
 21
168.6826202161096
 31
0.0
  0
LINE
  5
23804
  8
DETAIL
  6
CONTINUOUS
 62
     5
 10
-183.9125531355753
 20
168.6826202161096
 30
0.0
 11
-183.9125531355753
 21
168.6826202161096
 31
0.0
  0
LINE
  5
23805
  8
DETAIL
  6
CONTINUOUS
 62
     5
 10
-183.9125531355753
 20
168.6826202161096
 30
0.0
 11
-183.9113509375929
 21
168.689148133124
 31
0.0
  0
LINE
  5
23806
  8
DETAIL
  6
CONTINUOUS
 62
     5
 10
-183.9113509375929
 20
168.689148133124
 30
0.0
 11
-183.9097060118407
 21
168.69559441
 31
0.0
  0
LINE
  5
23807
  8
DETAIL
  6
CONTINUOUS
 62
     5
 10
220.2297441915596
 20
-1.0
 30
0.0
 11
220.2297441915596
 21
0.0
 31
0.0
  0
CIRCLE
  5
23808
  8
DETAIL
  6
DIVIDE
 62
     5
 10
53.62974419155876
 20
101.4000000000001
 30
0.0
 40
48.5
  0
ARC
  5
23809
  8
DETAIL
  6
CONTINUOUS
 62
     5
 10
148.8297441915588
 20
101.1000000000001
 30
0.0
 40
1.999999999999773
 50
270.0
 51
0.0
  0
ARC
  5
2380A
  8
DETAIL
  6
CONTINUOUS
 62
     5
 10
130.8297441915587
 20
101.1000000000001
 30
0.0
 40
1.99999999999909
 50
180.0
 51
270.0
  0
ARC
  5
2380B
  8
DETAIL
  6
CONTINUOUS
 62
     5
 10
205.0297441915596
 20
0.1999999999998181
 30
0.0
 40
0.199999999999818
 50
180.0
 51
270.0
  0
ARC
  5
2380C
  8
DETAIL
  6
CONTINUOUS
 62
     5
 10
205.0297441915596
 20
0.1999999999998181
 30
0.0
 40
1.199999999999817
 50
180.0
 51
189.603314704902
  0
LINE
  5
2380D
  8
DETAIL
  6
CONTINUOUS
 62
     5
 10
203.8297441915599
 20
1.0
 30
0.0
 11
203.0297441915607
 21
1.0
 31
0.0
  0
ARC
  5
2380E
  8
DETAIL
  6
CONTINUOUS
 62
     5
 10
-130.7702558084405
 20
101.0999999999999
 30
0.0
 40
1.999999999999773
 50
270.0
 51
0.0
  0
ARC
  5
2380F
  8
DETAIL
  6
CONTINUOUS
 62
     5
 10
-148.7702558084403
 20
101.1000000000004
 30
0.0
 40
2.000000000000909
 50
180.0
 51
270.0
  0
LINE
  5
23810
  8
DETAIL
  6
CONTINUOUS
 62
     5
 10
-128.7702558084396
 20
107.0999999999999
 30
0.0
 11
-128.7702558084396
 21
101.0999999999999
 31
0.0
  0
LINE
  5
23811
  8
DETAIL
  6
CONTINUOUS
 62
     5
 10
-130.2702558084405
 20
111.1000000000004
 30
0.0
 11
-130.2702558084405
 21
114.1000000000004
 31
0.0
  0
LINE
  5
23812
  8
DETAIL
  6
CONTINUOUS
 62
     5
 10
-132.2702558084405
 20
108.3000000000002
 30
0.0
 11
-132.2702558084405
 21
111.1000000000004
 31
0.0
  0
LINE
  5
23813
  8
DETAIL
  6
CONTINUOUS
 62
     5
 10
-147.2702558084403
 20
108.3000000000002
 30
0.0
 11
-147.2702558084403
 21
111.1000000000004
 31
0.0
  0
LINE
  5
23814
  8
DETAIL
  6
CONTINUOUS
 62
     5
 10
-149.2702558084403
 20
111.1000000000004
 30
0.0
 11
-149.2702558084403
 21
114.1000000000004
 31
0.0
  0
LINE
  5
23815
  8
DETAIL
  6
CONTINUOUS
 62
     5
 10
-150.7702558084414
 20
107.0999999999999
 30
0.0
 11
-150.7702558084414
 21
101.1000000000004
 31
0.0
  0
LINE
  5
23816
  8
DETAIL
  6
CONTINUOUS
 62
     5
 10
210.2297441915596
 20
-1.0
 30
0.0
 11
210.2297441915596
 21
0.0
 31
0.0
  0
LINE
  5
23817
  8
DETAIL
  6
CONTINUOUS
 62
     5
 10
150.8297441915602
 20
107.1000000000001
 30
0.0
 11
150.8297441915602
 21
101.1000000000001
 31
0.0
  0
LINE
  5
23818
  8
DETAIL
  6
CONTINUOUS
 62
     5
 10
149.3297441915602
 20
111.1000000000006
 30
0.0
 11
149.3297441915602
 21
114.1000000000006
 31
0.0
  0
LINE
  5
23819
  8
DETAIL
  6
CONTINUOUS
 62
     5
 10
147.3297441915593
 20
108.3000000000004
 30
0.0
 11
147.3297441915593
 21
111.1000000000006
 31
0.0
  0
LINE
  5
2381A
  8
DETAIL
  6
CONTINUOUS
 62
     5
 10
132.3297441915593
 20
108.3000000000004
 30
0.0
 11
132.3297441915593
 21
111.1000000000006
 31
0.0
  0
LINE
  5
2381B
  8
DETAIL
  6
CONTINUOUS
 62
     5
 10
130.3297441915602
 20
111.1000000000006
 30
0.0
 11
130.3297441915602
 21
114.1000000000006
 31
0.0
  0
LINE
  5
2381C
  8
DETAIL
  6
CONTINUOUS
 62
     5
 10
128.8297441915602
 20
107.1000000000001
 30
0.0
 11
128.8297441915597
 21
101.1000000000001
 31
0.0
  0
LINE
  5
2381D
  8
DETAIL
  6
CONTINUOUS
 62
     5
 10
130.3297441915602
 20
114.1000000000006
 30
0.0
 11
149.3297441915602
 21
114.1000000000006
 31
0.0
  0
LINE
  5
2381E
  8
DETAIL
  6
CONTINUOUS
 62
     5
 10
-149.2702558084403
 20
114.1000000000004
 30
0.0
 11
-130.2702558084405
 21
114.1000000000004
 31
0.0
  0
LINE
  5
2381F
  8
DETAIL
  6
CONTINUOUS
 62
     5
 10
130.3297441915602
 20
111.1000000000006
 30
0.0
 11
149.3297441915602
 21
111.1000000000006
 31
0.0
  0
LINE
  5
23820
  8
DETAIL
  6
CONTINUOUS
 62
     5
 10
-149.2702558084403
 20
111.1000000000004
 30
0.0
 11
-130.2702558084405
 21
111.1000000000004
 31
0.0
  0
LINE
  5
23821
  8
DETAIL
  6
CONTINUOUS
 62
     5
 10
-130.7702558084405
 20
99.10000000000042
 30
0.0
 11
-148.7702558084403
 21
99.10000000000042
 31
0.0
  0
LINE
  5
23822
  8
DETAIL
  6
CONTINUOUS
 62
     5
 10
148.8297441915588
 20
99.10000000000042
 30
0.0
 11
130.8297441915587
 21
99.10000000000042
 31
0.0
  0
LINE
  5
23823
  8
DETAIL
  6
CONTINUOUS
 62
     5
 10
149.8297441915594
 20
7.29999999999967
 30
0.0
 11
149.8297441915596
 21
96.05735931300052
 31
0.0
  0
LINE
  5
23824
  8
DETAIL
  6
CONTINUOUS
 62
     5
 10
-126.7702558084405
 20
101.5426406870001
 30
0.0
 11
-126.7702558084405
 21
108.3000000000002
 31
0.0
  0
LINE
  5
23825
  8
DETAIL
  6
CONTINUOUS
 62
     5
 10
-129.7702558084416
 20
7.300000000000182
 30
0.0
 11
-129.7702558084414
 21
96.05735931300018
 31
0.0
  0
LINE
  5
23826
  8
DETAIL
  6
CONTINUOUS
 62
     5
 10
-133.7702558084407
 20
30.0
 30
0.0
 11
-133.7702558084407
 21
20.0
 31
0.0
  0
LINE
  5
23827
  8
DETAIL
  6
CONTINUOUS
 62
     5
 10
-135.7702558084416
 20
20.0
 30
0.0
 11
-135.7702558084416
 21
23.0
 31
0.0
  0
LINE
  5
23828
  8
DETAIL
  6
CONTINUOUS
 62
     5
 10
-143.7702558084397
 20
20.0
 30
0.0
 11
-143.7702558084397
 21
23.0
 31
0.0
  0
LINE
  5
23829
  8
DETAIL
  6
CONTINUOUS
 62
     5
 10
-145.7702558084404
 20
20.0
 30
0.0
 11
-145.7702558084404
 21
30.0
 31
0.0
  0
LINE
  5
2382A
  8
DETAIL
  6
CONTINUOUS
 62
     5
 10
-149.7702558084404
 20
7.300000000000182
 30
0.0
 11
-149.7702558084403
 21
96.05735931300018
 31
0.0
  0
LINE
  5
2382B
  8
DETAIL
  6
CONTINUOUS
 62
     5
 10
-152.7702558084403
 20
101.5426406870001
 30
0.0
 11
-152.7702558084403
 21
108.3000000000002
 31
0.0
  0
ARC
  5
2382C
  8
DETAIL
  6
CONTINUOUS
 62
     5
 10
129.8297441915597
 20
101.5426406870004
 30
0.0
 40
3.0
 50
180.0
 51
224.9999999999908
  0
ARC
  5
2382D
  8
DETAIL
  6
CONTINUOUS
 62
     5
 10
149.8297441915596
 20
101.5426406870004
 30
0.0
 40
3.000000000000265
 50
315.0000000000084
 51
0.0
  0
ARC
  5
2382E
  8
DETAIL
  6
CONTINUOUS
 62
     5
 10
152.8297441915602
 20
96.05735931300052
 30
0.0
 40
3.000000000000346
 50
135.0000000000092
 51
180.0
  0
ARC
  5
2382F
  8
DETAIL
  6
CONTINUOUS
 62
     5
 10
144.8297441915595
 20
20.0
 30
0.0
 40
1.0
 50
180.0
 51
0.0
  0
ARC
  5
23830
  8
DETAIL
  6
CONTINUOUS
 62
     5
 10
146.8297441915595
 20
7.29999999999967
 30
0.0
 40
2.999999999999772
 50
270.0
 51
0.0
  0
ARC
  5
23831
  8
DETAIL
  6
CONTINUOUS
 62
     5
 10
126.8297441915597
 20
96.05735931300052
 30
0.0
 40
3.0
 50
0.0
 51
45.00000000002765
  0
ARC
  5
23832
  8
DETAIL
  6
CONTINUOUS
 62
     5
 10
143.8297441915595
 20
30.0
 30
0.0
 40
1.99999999999909
 50
0.0
 51
90.0
  0
ARC
  5
23833
  8
DETAIL
  6
CONTINUOUS
 62
     5
 10
134.8297441915595
 20
20.0
 30
0.0
 40
1.000000000000909
 50
180.0
 51
0.0
  0
ARC
  5
23834
  8
DETAIL
  6
CONTINUOUS
 62
     5
 10
135.8297441915595
 20
30.0
 30
0.0
 40
2.0
 50
90.0
 51
180.0
  0
CIRCLE
  5
23835
  8
DETAIL
  6
CONTINUOUS
 62
     5
 10
139.8297441915586
 20
9.29999999999967
 30
0.0
 40
1.599999999999994
  0
ARC
  5
23836
  8
DETAIL
  6
CONTINUOUS
 62
     5
 10
132.8297441915595
 20
7.29999999999967
 30
0.0
 40
3.0
 50
180.0
 51
270.0
  0
ARC
  5
23837
  8
DETAIL
  6
CONTINUOUS
 62
     5
 10
-149.7702558084403
 20
101.5426406870001
 30
0.0
 40
3.0
 50
180.0
 51
225.0000000000053
  0
ARC
  5
23838
  8
DETAIL
  6
CONTINUOUS
 62
     5
 10
-129.7702558084414
 20
101.5426406870001
 30
0.0
 40
3.000000000000184
 50
315.0000000000092
 51
0.0
  0
ARC
  5
23839
  8
DETAIL
  6
CONTINUOUS
 62
     5
 10
-126.7702558084405
 20
96.05735931300018
 30
0.0
 40
3.000000000000346
 50
135.0000000000092
 51
180.0
  0
ARC
  5
2383A
  8
DETAIL
  6
CONTINUOUS
 62
     5
 10
-152.7702558084403
 20
96.05735931300018
 30
0.0
 40
3.0
 50
0.0
 51
44.9999999999908
  0
ARC
  5
2383B
  8
DETAIL
  6
CONTINUOUS
 62
     5
 10
-134.7702558084407
 20
20.0
 30
0.0
 40
1.000000000000909
 50
180.0
 51
0.0
  0
ARC
  5
2383C
  8
DETAIL
  6
CONTINUOUS
 62
     5
 10
-144.7702558084416
 20
20.0
 30
0.0
 40
0.9999999999990908
 50
180.0
 51
0.0
  0
CIRCLE
  5
2383D
  8
DETAIL
  6
CONTINUOUS
 62
     5
 10
-139.7702558084407
 20
9.300000000000182
 30
0.0
 40
1.599999999999994
  0
ARC
  5
2383E
  8
DETAIL
  6
CONTINUOUS
 62
     5
 10
-143.7702558084397
 20
30.0
 30
0.0
 40
2.0
 50
90.0
 51
180.0
  0
ARC
  5
2383F
  8
DETAIL
  6
CONTINUOUS
 62
     5
 10
-135.7702558084416
 20
30.0
 30
0.0
 40
2.000000000000909
 50
0.0
 51
90.0
  0
ARC
  5
23840
  8
DETAIL
  6
CONTINUOUS
 62
     5
 10
-132.7702558084407
 20
7.300000000000182
 30
0.0
 40
2.999999999999772
 50
270.0
 51
0.0
  0
ARC
  5
23841
  8
DETAIL
  6
CONTINUOUS
 62
     5
 10
-146.7702558084404
 20
7.300000000000182
 30
0.0
 40
2.99999999999909
 50
180.0
 51
270.0
  0
LINE
  5
23842
  8
DETAIL
  6
CONTINUOUS
 62
     5
 10
152.8297441915602
 20
101.5426406870004
 30
0.0
 11
152.8297441915602
 21
108.3000000000004
 31
0.0
  0
LINE
  5
23843
  8
DETAIL
  6
CONTINUOUS
 62
     5
 10
145.8297441915586
 20
30.0
 30
0.0
 11
145.8297441915586
 21
20.0
 31
0.0
  0
LINE
  5
23844
  8
DETAIL
  6
CONTINUOUS
 62
     5
 10
143.8297441915595
 20
20.0
 30
0.0
 11
143.8297441915595
 21
23.0
 31
0.0
  0
LINE
  5
23845
  8
DETAIL
  6
CONTINUOUS
 62
     5
 10
135.8297441915595
 20
20.0
 30
0.0
 11
135.8297441915595
 21
23.0
 31
0.0
  0
LINE
  5
23846
  8
DETAIL
  6
CONTINUOUS
 62
     5
 10
133.8297441915585
 20
20.0
 30
0.0
 11
133.8297441915585
 21
30.0
 31
0.0
  0
LINE
  5
23847
  8
DETAIL
  6
CONTINUOUS
 62
     5
 10
129.8297441915595
 20
7.29999999999967
 30
0.0
 11
129.8297441915597
 21
96.05735931300052
 31
0.0
  0
LINE
  5
23848
  8
DETAIL
  6
CONTINUOUS
 62
     5
 10
151.9510645355604
 20
99.42132034350038
 30
0.0
 11
150.7084238480602
 21
98.17867965650038
 31
0.0
  0
LINE
  5
23849
  8
DETAIL
  6
CONTINUOUS
 62
     5
 10
126.8297441915597
 20
101.5426406870004
 30
0.0
 11
126.8297441915602
 21
108.3000000000004
 31
0.0
  0
LINE
  5
2384A
  8
DETAIL
  6
CONTINUOUS
 62
     5
 10
128.951064535559
 20
98.17867965650038
 30
0.0
 11
127.7084238480597
 21
99.42132034350038
 31
0.0
  0
LINE
  5
2384B
  8
DETAIL
  6
CONTINUOUS
 62
     5
 10
126.8297441915602
 20
108.3000000000004
 30
0.0
 11
152.8297441915602
 21
108.3000000000004
 31
0.0
  0
LINE
  5
2384C
  8
DETAIL
  6
CONTINUOUS
 62
     5
 10
-152.7702558084403
 20
108.3000000000002
 30
0.0
 11
-126.7702558084405
 21
108.3000000000002
 31
0.0
  0
LINE
  5
2384D
  8
DETAIL
  6
CONTINUOUS
 62
     5
 10
126.8297441915602
 20
107.1000000000001
 30
0.0
 11
152.8297441915602
 21
107.1000000000001
 31
0.0
  0
LINE
  5
2384E
  8
DETAIL
  6
CONTINUOUS
 62
     5
 10
-152.7702558084403
 20
107.0999999999999
 30
0.0
 11
-126.7702558084405
 21
107.0999999999999
 31
0.0
  0
LINE
  5
2384F
  8
DETAIL
  6
CONTINUOUS
 62
     5
 10
-135.7702558084416
 20
32.0
 30
0.0
 11
-143.7702558084397
 21
32.0
 31
0.0
  0
LINE
  5
23850
  8
DETAIL
  6
CONTINUOUS
 62
     5
 10
143.8297441915595
 20
32.0
 30
0.0
 11
135.8297441915595
 21
32.0
 31
0.0
  0
LINE
  5
23851
  8
DETAIL
  6
CONTINUOUS
 62
     5
 10
-135.7702558084416
 20
22.00000000000051
 30
0.0
 11
-143.7702558084397
 21
22.00000000000051
 31
0.0
  0
LINE
  5
23852
  8
DETAIL
  6
CONTINUOUS
 62
     5
 10
143.8297441915595
 20
22.0
 30
0.0
 11
135.8297441915595
 21
22.0
 31
0.0
  0
LINE
  5
23853
  8
DETAIL
  6
CONTINUOUS
 62
     5
 10
132.8297441915595
 20
4.300000000000182
 30
0.0
 11
146.8297441915595
 21
4.300000000000182
 31
0.0
  0
LINE
  5
23854
  8
DETAIL
  6
CONTINUOUS
 62
     5
 10
-146.7702558084404
 20
4.300000000000182
 30
0.0
 11
-132.7702558084407
 21
4.300000000000182
 31
0.0
  0
LINE
  5
23855
  8
DETAIL
  6
CONTINUOUS
 62
     5
 10
-127.6489354644403
 20
99.42132034350021
 30
0.0
 11
-128.8915761519405
 21
98.17867965650021
 31
0.0
  0
LINE
  5
23856
  8
DETAIL
  6
CONTINUOUS
 62
     5
 10
-150.6489354644403
 20
98.17867965650021
 30
0.0
 11
-151.8915761519405
 21
99.42132034350021
 31
0.0
  0
LINE
  5
23857
  8
DETAIL
  6
CONTINUOUS
 62
     5
 10
-220.170255808441
 20
0.0
 30
0.0
 11
220.2297441915596
 21
0.0
 31
0.0
  0
LINE
  5
23858
  8
DETAIL
  6
CONTINUOUS
 62
     5
 10
-220.170255808441
 20
-1.0
 30
0.0
 11
220.2297441915596
 21
-1.0
 31
0.0
  0
LINE
  5
23859
  8
DETAIL
  6
CONTINUOUS
 62
     5
 10
-224.4614521118403
 20
-1.0
 30
0.0
 11
224.5209404951598
 21
-1.0
 31
0.0
  0
LINE
  5
2385A
  8
DETAIL
  6
CONTINUOUS
 62
     5
 10
-220.170255808441
 20
-1.0
 30
0.0
 11
-220.170255808441
 21
0.0
 31
0.0
  0
LINE
  5
2385B
  8
DETAIL
  6
CONTINUOUS
 62
     5
 10
-133.7702558084407
 20
29.0
 30
0.0
 11
-145.7702558084404
 21
29.0
 31
0.0
  0
LINE
  5
2385C
  8
DETAIL
  6
CONTINUOUS
 62
     5
 10
-145.7702558084404
 20
23.0
 30
0.0
 11
-133.7702558084407
 21
23.0
 31
0.0
  0
LINE
  5
2385D
  8
DETAIL
  6
CONTINUOUS
 62
     5
 10
-149.7702558084404
 20
29.0
 30
0.0
 11
-205.7702558084405
 21
29.0
 31
0.0
  0
LINE
  5
2385E
  8
DETAIL
  6
CONTINUOUS
 62
     5
 10
-166.9702558084405
 20
23.0
 30
0.0
 11
-187.9702558084402
 21
23.0
 31
0.0
  0
LINE
  5
2385F
  8
DETAIL
  6
CONTINUOUS
 62
     5
 10
-187.9702558084402
 20
17.50000000000051
 30
0.0
 11
-166.9702558084405
 21
17.50000000000051
 31
0.0
  0
LINE
  5
23860
  8
DETAIL
  6
CONTINUOUS
 62
     5
 10
-176.4702558084414
 20
12.0
 30
0.0
 11
-178.4702558084414
 21
12.0
 31
0.0
  0
LINE
  5
23861
  8
DETAIL
  6
CONTINUOUS
 62
     5
 10
-178.4702558084414
 20
7.000000000000512
 30
0.0
 11
-176.4702558084414
 21
7.000000000000512
 31
0.0
  0
LINE
  5
23862
  8
DETAIL
  6
CONTINUOUS
 62
     5
 10
-197.57025580844
 20
3.0
 30
0.0
 11
-205.7702558084405
 21
3.0
 31
0.0
  0
LINE
  5
23863
  8
DETAIL
  6
CONTINUOUS
 62
     5
 10
-204.7702558084414
 20
0.2000000000002728
 30
0.0
 11
-203.7702558084396
 21
0.2000000000002728
 31
0.0
  0
LINE
  5
23864
  8
DETAIL
  6
CONTINUOUS
 62
     5
 10
-166.9702558084405
 20
17.50000000000051
 30
0.0
 11
-166.9702558084405
 21
23.0
 31
0.0
  0
LINE
  5
23865
  8
DETAIL
  6
CONTINUOUS
 62
     5
 10
-187.9702558084402
 20
23.0
 30
0.0
 11
-187.9702558084402
 21
17.50000000000051
 31
0.0
  0
LINE
  5
23866
  8
DETAIL
  6
CONTINUOUS
 62
     5
 10
-197.57025580844
 20
0.0
 30
0.0
 11
-197.57025580844
 21
3.0
 31
0.0
  0
LINE
  5
23867
  8
DETAIL
  6
CONTINUOUS
 62
     5
 10
-203.7702558084396
 20
0.2000000000002728
 30
0.0
 11
-203.7702558084396
 21
3.0
 31
0.0
  0
LINE
  5
23868
  8
DETAIL
  6
CONTINUOUS
 62
     5
 10
-204.7702558084414
 20
0.2000000000002728
 30
0.0
 11
-204.7702558084414
 21
3.0
 31
0.0
  0
LINE
  5
23869
  8
DETAIL
  6
CONTINUOUS
 62
     5
 10
-205.7702558084405
 20
29.0
 30
0.0
 11
-205.7702558084405
 21
3.0
 31
0.0
  0
LINE
  5
2386A
  8
DETAIL
  6
CONTINUOUS
 62
     5
 10
-210.1702558084403
 20
-1.0
 30
0.0
 11
-210.1702558084403
 21
0.0
 31
0.0
  0
ARC
  5
2386B
  8
DETAIL
  6
CONTINUOUS
 62
     5
 10
-204.9702558084412
 20
0.2000000000002728
 30
0.0
 40
0.200000000000045
 50
270.0
 51
0.0
  0
ARC
  5
2386C
  8
DETAIL
  6
CONTINUOUS
 62
     5
 10
-204.9702558084412
 20
0.2000000000002728
 30
0.0
 40
1.200000000000269
 50
350.3966852950963
 51
0.0
  0
ARC
  5
2386D
  8
DETAIL
  6
CONTINUOUS
 62
     5
 10
-176.4702558084414
 20
9.5
 30
0.0
 40
2.499999999999773
 50
270.0
 51
90.0
  0
ARC
  5
2386E
  8
DETAIL
  6
CONTINUOUS
 62
     5
 10
-178.4702558084414
 20
9.5
 30
0.0
 40
2.5
 50
90.0
 51
270.0
  0
LINE
  5
2386F
  8
DETAIL
  6
CONTINUOUS
 62
     5
 10
-204.7702558084405
 20
29.0
 30
0.0
 11
-172.9702558084405
 21
29.0
 31
0.0
  0
ARC
  5
23870
  8
DETAIL
  6
CONTINUOUS
 62
     5
 10
-202.6673120832407
 20
0.2000000000002728
 30
0.0
 40
1.200000000000045
 50
270.0
 51
279.4638631807127
  0
LINE
  5
23871
  8
DETAIL
  6
CONTINUOUS
 62
     5
 10
-199.7702558084405
 20
29.0
 30
0.0
 11
-199.7702558084405
 21
61.69999999999982
 31
0.0
  0
LINE
  5
23872
  8
DETAIL
  6
CONTINUOUS
 62
     5
 10
-199.4702558084412
 20
29.0
 30
0.0
 11
-199.4702558084412
 21
61.69999999999982
 31
0.0
  0
LINE
  5
23873
  8
DETAIL
  6
CONTINUOUS
 62
     5
 10
-199.1702558084409
 20
29.0
 30
0.0
 11
-199.1702558084409
 21
62.30000000000018
 31
0.0
  0
LINE
  5
23874
  8
DETAIL
  6
CONTINUOUS
 62
     5
 10
-30.18968580744013
 20
6.720142500000293
 30
0.0
 11
-32.95082580894132
 21
6.029857500000219
 31
0.0
  0
LINE
  5
23875
  8
DETAIL
  6
CONTINUOUS
 62
     5
 10
-42.57025580843992
 20
15.0
 30
0.0
 11
-33.19336143394094
 21
15.0
 31
0.0
  0
LINE
  5
23876
  8
DETAIL
  6
CONTINUOUS
 62
     5
 10
-29.94715018244142
 20
14.25
 30
0.0
 11
-28.07025580843992
 21
14.25
 31
0.0
  0
LINE
  5
23877
  8
DETAIL
  6
CONTINUOUS
 62
     5
 10
-28.07025580843992
 20
6.75
 30
0.0
 11
-29.94715018244142
 21
6.75
 31
0.0
  0
LINE
  5
23878
  8
DETAIL
  6
CONTINUOUS
 62
     5
 10
-33.19336143394094
 20
6.000000000000512
 30
0.0
 11
-42.57025580843992
 21
6.000000000000512
 31
0.0
  0
LINE
  5
23879
  8
DETAIL
  6
CONTINUOUS
 62
     5
 10
-27.57025580843992
 20
13.75
 30
0.0
 11
-27.57025580843992
 21
7.25
 31
0.0
  0
LINE
  5
2387A
  8
DETAIL
  6
CONTINUOUS
 62
     5
 10
-32.95082580894132
 20
14.97014250000029
 30
0.0
 11
-30.18968580744013
 21
14.27985750000022
 31
0.0
  0
ARC
  5
2387B
  8
DETAIL
  6
CONTINUOUS
 62
     5
 10
-28.07025580843992
 20
13.75
 30
0.0
 40
0.5
 50
0.0
 51
90.0
  0
ARC
  5
2387C
  8
DETAIL
  6
CONTINUOUS
 62
     5
 10
-28.07025580843992
 20
7.25
 30
0.0
 40
0.499999999999773
 50
270.0
 51
0.0
  0
ARC
  5
2387D
  8
DETAIL
  6
CONTINUOUS
 62
     5
 10
-29.94715018244142
 20
5.75
 30
0.0
 40
1.0
 50
90.0
 51
104.036243467853
  0
ARC
  5
2387E
  8
DETAIL
  6
CONTINUOUS
 62
     5
 10
-33.19336143394094
 20
7.0
 30
0.0
 40
0.9999999999997728
 50
270.0
 51
284.0362434679573
  0
ARC
  5
2387F
  8
DETAIL
  6
CONTINUOUS
 62
     5
 10
-33.19336143394094
 20
14.0
 30
0.0
 40
1.000000000000164
 50
75.96375653204193
 51
90.0
  0
ARC
  5
23880
  8
DETAIL
  6
CONTINUOUS
 62
     5
 10
-29.94715018244142
 20
15.25
 30
0.0
 40
0.999999999999723
 50
255.9637565321493
 51
270.0
  0
LINE
  5
23881
  8
DETAIL
  6
CONTINUOUS
 62
     5
 10
-43.07025580843992
 20
6.5
 30
0.0
 11
-43.07025580843992
 21
14.5
 31
0.0
  0
ARC
  5
23882
  8
DETAIL
  6
CONTINUOUS
 62
     5
 10
-42.57025580843992
 20
6.5
 30
0.0
 40
0.5
 50
180.0
 51
270.0
  0
ARC
  5
23883
  8
DETAIL
  6
CONTINUOUS
 62
     5
 10
-42.57025580843992
 20
14.5
 30
0.0
 40
0.5
 50
90.0
 51
180.0
  0
LINE
  5
23884
  8
DETAIL
  6
CONTINUOUS
 62
     5
 10
133.8297441915585
 20
23.0
 30
0.0
 11
145.8297441915586
 21
23.0
 31
0.0
  0
LINE
  5
23885
  8
DETAIL
  6
CONTINUOUS
 62
     5
 10
145.8297441915586
 20
29.0
 30
0.0
 11
133.8297441915585
 21
29.0
 31
0.0
  0
LINE
  5
23886
  8
DETAIL
  6
CONTINUOUS
 62
     5
 10
205.829744191559
 20
29.0
 30
0.0
 11
205.829744191559
 21
3.0
 31
0.0
  0
LINE
  5
23887
  8
DETAIL
  6
CONTINUOUS
 62
     5
 10
149.8297441915594
 20
29.0
 30
0.0
 11
205.829744191559
 21
29.0
 31
0.0
  0
LINE
  5
23888
  8
DETAIL
  6
CONTINUOUS
 62
     5
 10
208.829744191559
 20
34.5
 30
0.0
 11
208.829744191559
 21
190.1999999999997
 31
0.0
  0
LINE
  5
23889
  8
DETAIL
  6
CONTINUOUS
 62
     5
 10
203.0297441915607
 20
30.5
 30
0.0
 11
204.8297441915599
 21
30.5
 31
0.0
  0
ARC
  5
2388A
  8
DETAIL
  6
CONTINUOUS
 62
     5
 10
204.8297441915599
 20
34.5
 30
0.0
 40
4.0
 50
270.0
 51
0.0
  0
LINE
  5
2388B
  8
DETAIL
  6
CONTINUOUS
 62
     5
 10
204.329744191559
 20
30.5
 30
0.0
 11
204.329744191559
 21
29.0
 31
0.0
  0
LINE
  5
2388C
  8
DETAIL
  6
CONTINUOUS
 62
     5
 10
203.8297441915599
 20
30.5
 30
0.0
 11
203.8297441915599
 21
29.0
 31
0.0
  0
LINE
  5
2388D
  8
DETAIL
  6
CONTINUOUS
 62
     5
 10
203.0297441915588
 20
29.0
 30
0.0
 11
203.0297441915588
 21
194.5999999999999
 31
0.0
  0
LINE
  5
2388E
  8
DETAIL
  6
CONTINUOUS
 62
     5
 10
173.0297441915588
 20
29.0
 30
0.0
 11
204.8297441915599
 21
29.0
 31
0.0
  0
ARC
  5
2388F
  8
DETAIL
  6
CONTINUOUS
 62
     5
 10
193.6297441915592
 20
8.0
 30
0.0
 40
5.0
 50
180.0
 51
270.0
  0
LINE
  5
23890
  8
DETAIL
  6
CONTINUOUS
 62
     5
 10
188.6297441915592
 20
8.0
 30
0.0
 11
188.6297441915592
 21
24.0
 31
0.0
  0
LINE
  5
23891
  8
DETAIL
  6
CONTINUOUS
 62
     5
 10
197.6297441915592
 20
3.0
 30
0.0
 11
205.829744191559
 21
3.0
 31
0.0
  0
LINE
  5
23892
  8
DETAIL
  6
CONTINUOUS
 62
     5
 10
204.8297441915599
 20
0.1999999999998181
 30
0.0
 11
204.8297441915599
 21
3.0
 31
0.0
  0
LINE
  5
23893
  8
DETAIL
  6
CONTINUOUS
 62
     5
 10
203.8297441915599
 20
0.1999999999998181
 30
0.0
 11
203.8297441915599
 21
3.0
 31
0.0
  0
LINE
  5
23894
  8
DETAIL
  6
CONTINUOUS
 62
     5
 10
203.0297441915607
 20
3.0
 30
0.0
 11
203.0297441915607
 21
1.0
 31
0.0
  0
LINE
  5
23895
  8
DETAIL
  6
CONTINUOUS
 62
     5
 10
197.6297441915592
 20
0.0
 30
0.0
 11
197.6297441915592
 21
3.0
 31
0.0
  0
LINE
  5
23896
  8
DETAIL
  6
CONTINUOUS
 62
     5
 10
203.8297441915599
 20
1.0
 30
0.0
 11
203.8297441915599
 21
3.0
 31
0.0
  0
LINE
  5
23897
  8
DETAIL
  6
CONTINUOUS
 62
     5
 10
193.6297441915592
 20
3.0
 30
0.0
 11
204.8297441915599
 21
3.0
 31
0.0
  0
LINE
  5
23898
  8
DETAIL
  6
CONTINUOUS
 62
     5
 10
129.8297441915595
 20
29.0
 30
0.0
 11
-129.7702558084416
 21
29.0
 31
0.0
  0
LINE
  5
23899
  8
DETAIL
  6
CONTINUOUS
 62
     5
 10
127.0297441915593
 20
29.0
 30
0.0
 11
-126.9702558084414
 21
29.0
 31
0.0
  0
LINE
  5
2389A
  8
DETAIL
  6
CONTINUOUS
 62
     5
 10
121.4297441915589
 20
30.5
 30
0.0
 11
121.4297441915594
 21
194.1999999999997
 31
0.0
  0
LINE
  5
2389B
  8
DETAIL
  6
CONTINUOUS
 62
     5
 10
122.2297441915582
 20
30.5
 30
0.0
 11
122.2297441915586
 21
194.1999999999997
 31
0.0
  0
LINE
  5
2389C
  8
DETAIL
  6
CONTINUOUS
 62
     5
 10
115.1297441915588
 20
30.5
 30
0.0
 11
122.2297441915582
 21
30.5
 31
0.0
  0
ARC
  5
2389D
  8
DETAIL
  6
DIVIDE
 62
     5
 10
90.62974419155876
 20
56.40000000000009
 30
0.0
 40
30.00000000000021
 50
293.9909935420168
 51
0.0
  0
ARC
  5
2389E
  8
DETAIL
  6
CONTINUOUS
 62
     5
 10
115.1297441915588
 20
29.5
 30
0.0
 40
1.0
 50
90.0
 51
180.0
  0
LINE
  5
2389F
  8
DETAIL
  6
CONTINUOUS
 62
     5
 10
114.1297441915588
 20
29.0
 30
0.0
 11
114.1297441915588
 21
29.5
 31
0.0
  0
CIRCLE
  5
238A0
  8
DETAIL
  6
CONTINUOUS
 62
     5
 10
108.6297441915596
 20
27.19999999999982
 30
0.0
 40
0.600000000000001
  0
ARC
  5
238A1
  8
DETAIL
  6
CONTINUOUS
 62
     5
 10
193.6297441915592
 20
24.0
 30
0.0
 40
5.0
 50
90.0
 51
180.0
  0
LINE
  5
238A2
  8
DETAIL
  6
CONTINUOUS
 62
     5
 10
188.0297441915606
 20
23.0
 30
0.0
 11
167.0297441915588
 21
23.0
 31
0.0
  0
LINE
  5
238A3
  8
DETAIL
  6
CONTINUOUS
 62
     5
 10
167.0297441915588
 20
17.5
 30
0.0
 11
188.0297441915606
 21
17.5
 31
0.0
  0
ARC
  5
238A4
  8
DETAIL
  6
CONTINUOUS
 62
     5
 10
178.5297441915588
 20
9.5
 30
0.0
 40
2.5
 50
270.0
 51
90.0
  0
ARC
  5
238A5
  8
DETAIL
  6
CONTINUOUS
 62
     5
 10
176.5297441915596
 20
9.5
 30
0.0
 40
2.5
 50
90.0
 51
270.0
  0
LINE
  5
238A6
  8
DETAIL
  6
CONTINUOUS
 62
     5
 10
178.5297441915588
 20
12.0
 30
0.0
 11
176.5297441915596
 21
12.0
 31
0.0
  0
LINE
  5
238A7
  8
DETAIL
  6
CONTINUOUS
 62
     5
 10
176.5297441915596
 20
7.0
 30
0.0
 11
178.5297441915588
 21
7.0
 31
0.0
  0
LINE
  5
238A8
  8
DETAIL
  6
CONTINUOUS
 62
     5
 10
188.0297441915606
 20
17.5
 30
0.0
 11
188.0297441915606
 21
23.0
 31
0.0
  0
LINE
  5
238A9
  8
DETAIL
  6
CONTINUOUS
 62
     5
 10
167.0297441915588
 20
23.0
 30
0.0
 11
167.0297441915588
 21
17.5
 31
0.0
  0
LINE
  5
238AA
  8
DETAIL
  6
CONTINUOUS
 62
     5
 10
-73.34486215164134
 20
-14.49999999999983
 30
0.0
 11
220.0297441915593
 21
-14.5
 31
0.0
  0
LINE
  5
238AB
  8
DETAIL
  6
CONTINUOUS
 62
     5
 10
224.9105523214711
 20
-7.171911351199924
 30
0.0
 11
-73.34486215164134
 21
-7.171911351199924
 31
0.0
  0
LINE
  5
238AC
  8
DETAIL
  6
CONTINUOUS
 62
     5
 10
109.3934423571584
 20
-16.2999999999999
 30
0.0
 11
31.82974419155858
 21
-16.29999999999973
 31
0.0
  0
LINE
  5
238AD
  8
DETAIL
  6
CONTINUOUS
 62
     5
 10
74.24917419105827
 20
14.97014250000029
 30
0.0
 11
77.01031419255855
 21
14.27985750000022
 31
0.0
  0
LINE
  5
238AE
  8
DETAIL
  6
CONTINUOUS
 62
     5
 10
64.62974419155876
 20
15.0
 30
0.0
 11
74.00663856605956
 21
15.0
 31
0.0
  0
LINE
  5
238AF
  8
DETAIL
  6
CONTINUOUS
 62
     5
 10
77.25284981755908
 20
14.25
 30
0.0
 11
79.12974419155876
 21
14.25
 31
0.0
  0
CIRCLE
  5
238B0
  8
DETAIL
  6
CONTINUOUS
 62
     5
 10
83.62974419155876
 20
10.5
 30
0.0
 40
0.755278640499995
  0
LINE
  5
238B1
  8
DETAIL
  6
CONTINUOUS
 62
     5
 10
76.62974419155876
 20
14.0
 30
0.0
 11
87.06562320205853
 21
14.0
 31
0.0
  0
ARC
  5
238B2
  8
DETAIL
  6
CONTINUOUS
 62
     5
 10
87.11883322755898
 20
11.52233537749999
 30
0.0
 40
4.520103195499671
 50
274.7071044561984
 51
276.4764935337822
  0
ARC
  5
238B3
  8
DETAIL
  6
CONTINUOUS
 62
     5
 10
87.11882909605833
 20
9.477622424000003
 30
0.0
 40
4.52014559050008
 50
83.52351476457527
 51
85.29288724548059
  0
ARC
  5
238B4
  8
DETAIL
  6
CONTINUOUS
 62
     5
 10
87.22921936655916
 20
9.217420889000095
 30
0.0
 40
4.78190454400008
 50
83.53553649960446
 51
86.87668210039944
  0
ARC
  5
238B5
  8
DETAIL
  6
CONTINUOUS
 62
     5
 10
87.22921797805816
 20
11.78259566550008
 30
0.0
 40
4.781921149500232
 50
273.1233237025111
 51
276.4644576975055
  0
ARC
  5
238B6
  8
DETAIL
  6
CONTINUOUS
 62
     5
 10
87.21774666856004
 20
11.86162168050032
 30
0.0
 40
4.861734222499955
 50
276.4939330748894
 51
292.1169266077926
  0
LINE
  5
238B7
  8
DETAIL
  6
CONTINUOUS
 62
     5
 10
76.62974419155876
 20
7.0
 30
0.0
 11
87.06562320205853
 21
7.0
 31
0.0
  0
ARC
  5
238B8
  8
DETAIL
  6
CONTINUOUS
 62
     5
 10
87.2169613205599
 20
9.135299020000275
 30
0.0
 40
4.86489577599994
 50
67.88815874981233
 51
83.50097853062202
  0
ARC
  5
238B9
  8
DETAIL
  6
CONTINUOUS
 62
     5
 10
87.06563161105919
 20
8.845019749499897
 30
0.0
 40
5.15498025049992
 50
85.280602521497
 51
90.00009346510313
  0
ARC
  5
238BA
  8
DETAIL
  6
CONTINUOUS
 62
     5
 10
87.06563161105919
 20
12.15498025100027
 30
0.0
 40
5.154980251000134
 50
269.9999065351054
 51
274.7193974782937
  0
ARC
  5
238BB
  8
DETAIL
  6
CONTINUOUS
 62
     5
 10
64.62974419155876
 20
6.5
 30
0.0
 40
0.5
 50
180.0
 51
270.0
  0
ARC
  5
238BC
  8
DETAIL
  6
CONTINUOUS
 62
     5
 10
64.62974419155876
 20
14.5
 30
0.0
 40
0.5
 50
90.0
 51
180.0
  0
ARC
  5
238BD
  8
DETAIL
  6
CONTINUOUS
 62
     5
 10
79.12974419155876
 20
13.75
 30
0.0
 40
0.499999999999968
 50
30.03829733670131
 51
90.0
  0
LINE
  5
238BE
  8
DETAIL
  6
CONTINUOUS
 62
     5
 10
79.12974419155876
 20
6.75
 30
0.0
 11
77.25284981755908
 21
6.75
 31
0.0
  0
ARC
  5
238BF
  8
DETAIL
  6
CONTINUOUS
 62
     5
 10
79.12974419155876
 20
7.25
 30
0.0
 40
0.499999999999773
 50
270.0
 51
329.9617026632332
  0
ARC
  5
238C0
  8
DETAIL
  6
CONTINUOUS
 62
     5
 10
76.62974419155876
 20
15.0
 30
0.0
 40
0.9999999999990308
 50
203.3534691945213
 51
270.0
  0
ARC
  5
238C1
  8
DETAIL
  6
CONTINUOUS
 62
     5
 10
76.62974419155876
 20
6.000000000000512
 30
0.0
 40
0.9999999999997728
 50
90.0
 51
156.6465308054792
  0
ARC
  5
238C2
  8
DETAIL
  6
CONTINUOUS
 62
     5
 10
77.25284981755908
 20
5.75
 30
0.0
 40
1.0
 50
90.0
 51
104.036243467853
  0
LINE
  5
238C3
  8
DETAIL
  6
CONTINUOUS
 62
     5
 10
74.00663856605956
 20
6.000000000000512
 30
0.0
 11
64.62974419155876
 21
6.000000000000512
 31
0.0
  0
ARC
  5
238C4
  8
DETAIL
  6
CONTINUOUS
 62
     5
 10
74.00663856605956
 20
7.0
 30
0.0
 40
0.9999999999997728
 50
270.0
 51
284.0362434679036
  0
ARC
  5
238C5
  8
DETAIL
  6
CONTINUOUS
 62
     5
 10
74.00663856605956
 20
14.0
 30
0.0
 40
0.9999999999999428
 50
75.96375653209249
 51
90.0
  0
ARC
  5
238C6
  8
DETAIL
  6
CONTINUOUS
 62
     5
 10
77.25284981755908
 20
15.25
 30
0.0
 40
0.999999999999723
 50
255.9637565321493
 51
270.0
  0
LINE
  5
238C7
  8
DETAIL
  6
CONTINUOUS
 62
     5
 10
77.01031419255855
 20
6.720142500000293
 30
0.0
 11
74.24917419105827
 21
6.029857500000219
 31
0.0
  0
LINE
  5
238C8
  8
DETAIL
  6
CONTINUOUS
 62
     5
 10
89.04818367605844
 20
7.357616545500207
 30
0.0
 11
90.01068485605833
 21
7.748556270500103
 31
0.0
  0
LINE
  5
238C9
  8
DETAIL
  6
CONTINUOUS
 62
     5
 10
90.62974419155967
 20
12.32296703849988
 30
0.0
 11
90.62974419155967
 21
8.677032961500117
 31
0.0
  0
LINE
  5
238CA
  8
DETAIL
  6
CONTINUOUS
 62
     5
 10
87.48976233005965
 20
13.98252250050018
 30
0.0
 11
87.48976233005965
 21
7.017477499500274
 31
0.0
  0
LINE
  5
238CB
  8
DETAIL
  6
CONTINUOUS
 62
     5
 10
79.42055693805855
 20
14.0
 30
0.0
 11
79.42055693805855
 21
7.0
 31
0.0
  0
LINE
  5
238CC
  8
DETAIL
  6
CONTINUOUS
 62
     5
 10
76.72526612955903
 20
14.0
 30
0.0
 11
76.72526612955903
 21
7.0
 31
0.0
  0
LINE
  5
238CD
  8
DETAIL
  6
CONTINUOUS
 62
     5
 10
64.12974419155876
 20
6.5
 30
0.0
 11
64.12974419155876
 21
14.5
 31
0.0
  0
LINE
  5
238CE
  8
DETAIL
  6
CONTINUOUS
 62
     5
 10
90.01068485605833
 20
13.25144372950041
 30
0.0
 11
89.04818367605844
 21
13.6423834545003
 31
0.0
  0
LINE
  5
238CF
  8
DETAIL
  6
CONTINUOUS
 62
     5
 10
-234.6204385692404
 20
-38.99999999999983
 30
0.0
 11
122.1790032173597
 21
-39.0
 31
0.0
  0
LINE
  5
238D0
  8
DETAIL
  6
CONTINUOUS
 62
     5
 10
-14.97025580844138
 20
30.5
 30
0.0
 11
-14.97025580844138
 21
194.1999999999997
 31
0.0
  0
LINE
  5
238D1
  8
DETAIL
  6
CONTINUOUS
 62
     5
 10
-14.97025580844138
 20
30.5
 30
0.0
 11
-7.870255808441016
 21
30.5
 31
0.0
  0
LINE
  5
238D2
  8
DETAIL
  6
CONTINUOUS
 62
     5
 10
-14.17025580844029
 20
30.5
 30
0.0
 11
-14.17025580844029
 21
194.1999999999997
 31
0.0
  0
ARC
  5
238D3
  8
DETAIL
  6
DIVIDE
 62
     5
 10
16.62974419155921
 20
56.40000000000009
 30
0.0
 40
30.0
 50
180.0
 51
246.0090114844055
  0
ARC
  5
238D4
  8
DETAIL
  6
CONTINUOUS
 62
     5
 10
-7.870255808441016
 20
29.5
 30
0.0
 40
1.000000000000909
 50
0.0
 51
90.0
  0
ARC
  5
238D5
  8
DETAIL
  6
DIVIDE
 62
     5
 10
13.62974419155921
 20
53.40000000000009
 30
0.0
 40
15.0
 50
180.0
 51
270.0
  0
LINE
  5
238D6
  8
DETAIL
  6
DIVIDE
 62
     5
 10
13.62974419155921
 20
38.40000000000009
 30
0.0
 11
93.62974419155876
 21
38.40000000000009
 31
0.0
  0
LINE
  5
238D7
  8
DETAIL
  6
CONTINUOUS
 62
     5
 10
-6.870255808440106
 20
29.5
 30
0.0
 11
-6.870255808440106
 21
29.0
 31
0.0
  0
LINE
  5
238D8
  8
DETAIL
  6
CONTINUOUS
 62
     5
 10
30.01068485605833
 20
13.25144372950041
 30
0.0
 11
29.04818367605844
 21
13.6423834545003
 31
0.0
  0
LINE
  5
238D9
  8
DETAIL
  6
CONTINUOUS
 62
     5
 10
14.24917419105964
 20
14.97014250000029
 30
0.0
 11
17.01031419255901
 21
14.27985750000022
 31
0.0
  0
LINE
  5
238DA
  8
DETAIL
  6
CONTINUOUS
 62
     5
 10
4.629744191558984
 20
15.0
 30
0.0
 11
14.00663856606002
 21
15.0
 31
0.0
  0
LINE
  5
238DB
  8
DETAIL
  6
CONTINUOUS
 62
     5
 10
17.25284981755954
 20
14.25
 30
0.0
 11
19.12974419155921
 21
14.25
 31
0.0
  0
LINE
  5
238DC
  8
DETAIL
  6
CONTINUOUS
 62
     5
 10
16.62974419155921
 20
14.0
 30
0.0
 11
27.06562320205899
 21
14.0
 31
0.0
  0
LINE
  5
238DD
  8
DETAIL
  6
CONTINUOUS
 62
     5
 10
16.62974419155921
 20
7.0
 30
0.0
 11
27.06562320205899
 21
7.0
 31
0.0
  0
LINE
  5
238DE
  8
DETAIL
  6
CONTINUOUS
 62
     5
 10
19.12974419155921
 20
6.75
 30
0.0
 11
17.25284981755954
 21
6.75
 31
0.0
  0
LINE
  5
238DF
  8
DETAIL
  6
CONTINUOUS
 62
     5
 10
14.00663856606002
 20
6.000000000000512
 30
0.0
 11
4.629744191558984
 21
6.000000000000512
 31
0.0
  0
LINE
  5
238E0
  8
DETAIL
  6
CONTINUOUS
 62
     5
 10
17.01031419255901
 20
6.720142500000293
 30
0.0
 11
14.24917419105964
 21
6.029857500000219
 31
0.0
  0
ARC
  5
238E1
  8
DETAIL
  6
CONTINUOUS
 62
     5
 10
27.11883322755898
 20
11.52233537749999
 30
0.0
 40
4.520103195499671
 50
274.7071044561984
 51
276.4764935337822
  0
ARC
  5
238E2
  8
DETAIL
  6
CONTINUOUS
 62
     5
 10
27.11882909605833
 20
9.477622424000003
 30
0.0
 40
4.520145591000205
 50
83.5235147646002
 51
85.29288724548061
  0
ARC
  5
238E3
  8
DETAIL
  6
CONTINUOUS
 62
     5
 10
27.22921936655916
 20
9.217420889000095
 30
0.0
 40
4.78190454400008
 50
83.53553649960446
 51
86.87668210039944
  0
ARC
  5
238E4
  8
DETAIL
  6
CONTINUOUS
 62
     5
 10
27.22921797805907
 20
11.78259566550008
 30
0.0
 40
4.781921149500184
 50
273.1233237024838
 51
276.4644576974795
  0
ARC
  5
238E5
  8
DETAIL
  6
CONTINUOUS
 62
     5
 10
27.21774666855822
 20
11.86162168050032
 30
0.0
 40
4.86173422250016
 50
276.4939330749161
 51
292.1169266078205
  0
ARC
  5
238E6
  8
DETAIL
  6
CONTINUOUS
 62
     5
 10
27.2169613205599
 20
9.135299020000275
 30
0.0
 40
4.86489577599994
 50
67.88815874981233
 51
83.50097853062202
  0
ARC
  5
238E7
  8
DETAIL
  6
CONTINUOUS
 62
     5
 10
27.06564432305981
 20
8.845225132999985
 30
0.0
 40
5.154774517500037
 50
85.28055551379265
 51
89.99995208630575
  0
ARC
  5
238E8
  8
DETAIL
  6
CONTINUOUS
 62
     5
 10
27.06564432305981
 20
12.15477486750018
 30
0.0
 40
5.15477451800005
 50
270.0000479137991
 51
274.7194444861023
  0
ARC
  5
238E9
  8
DETAIL
  6
CONTINUOUS
 62
     5
 10
4.629744191558984
 20
6.5
 30
0.0
 40
0.5
 50
180.0
 51
270.0
  0
ARC
  5
238EA
  8
DETAIL
  6
CONTINUOUS
 62
     5
 10
4.629744191558984
 20
14.5
 30
0.0
 40
0.5
 50
90.0
 51
180.0
  0
ARC
  5
238EB
  8
DETAIL
  6
CONTINUOUS
 62
     5
 10
19.12974419155921
 20
13.75
 30
0.0
 40
0.499999999999968
 50
30.03829733670131
 51
90.0
  0
ARC
  5
238EC
  8
DETAIL
  6
CONTINUOUS
 62
     5
 10
19.12974419155921
 20
7.25
 30
0.0
 40
0.499999999999773
 50
270.0
 51
329.9617026632332
  0
CIRCLE
  5
238ED
  8
DETAIL
  6
CONTINUOUS
 62
     5
 10
23.62974419155921
 20
10.5
 30
0.0
 40
0.755278640499995
  0
ARC
  5
238EE
  8
DETAIL
  6
CONTINUOUS
 62
     5
 10
16.62974419155921
 20
15.0
 30
0.0
 40
0.9999999999990308
 50
203.3534691945213
 51
270.0
  0
ARC
  5
238EF
  8
DETAIL
  6
CONTINUOUS
 62
     5
 10
16.62974419155921
 20
6.000000000000512
 30
0.0
 40
0.9999999999997728
 50
90.0
 51
156.6465308054792
  0
ARC
  5
238F0
  8
DETAIL
  6
CONTINUOUS
 62
     5
 10
17.25284981755954
 20
5.75
 30
0.0
 40
1.0
 50
90.0
 51
104.036243467853
  0
ARC
  5
238F1
  8
DETAIL
  6
CONTINUOUS
 62
     5
 10
14.00663856606002
 20
7.0
 30
0.0
 40
0.9999999999997728
 50
270.0
 51
284.0362434679036
  0
ARC
  5
238F2
  8
DETAIL
  6
CONTINUOUS
 62
     5
 10
14.00663856606002
 20
14.0
 30
0.0
 40
0.9999999999999428
 50
75.96375653209249
 51
90.0
  0
ARC
  5
238F3
  8
DETAIL
  6
CONTINUOUS
 62
     5
 10
17.25284981755954
 20
15.25
 30
0.0
 40
0.999999999999723
 50
255.9637565321493
 51
270.0
  0
LINE
  5
238F4
  8
DETAIL
  6
CONTINUOUS
 62
     5
 10
29.04818367605844
 20
7.357616545500207
 30
0.0
 11
30.01068485605833
 21
7.748556270500103
 31
0.0
  0
CIRCLE
  5
238F5
  8
DETAIL
  6
CONTINUOUS
 62
     5
 10
-1.370255808441016
 20
27.19999999999982
 30
0.0
 40
0.600000000000001
  0
LINE
  5
238F6
  8
DETAIL
  6
CONTINUOUS
 62
     5
 10
30.62974419155967
 20
8.677032961500117
 30
0.0
 11
30.62974419155967
 21
12.32296703849988
 31
0.0
  0
LINE
  5
238F7
  8
DETAIL
  6
CONTINUOUS
 62
     5
 10
27.48976233005965
 20
7.017477499500274
 30
0.0
 11
27.48976233005965
 21
13.98252250050018
 31
0.0
  0
LINE
  5
238F8
  8
DETAIL
  6
CONTINUOUS
 62
     5
 10
19.42055693805901
 20
7.0
 30
0.0
 11
19.42055693805901
 21
14.0
 31
0.0
  0
LINE
  5
238F9
  8
DETAIL
  6
CONTINUOUS
 62
     5
 10
16.72526612955949
 20
7.0
 30
0.0
 11
16.72526612955949
 21
14.0
 31
0.0
  0
LINE
  5
238FA
  8
DETAIL
  6
CONTINUOUS
 62
     5
 10
4.129744191558984
 20
6.5
 30
0.0
 11
4.129744191558984
 21
14.5
 31
0.0
  0
LINE
  5
238FB
  8
DETAIL
  6
CONTINUOUS
 62
     5
 10
9.397091971632676
 20
-20.6434292164937
 30
0.0
 11
9.28890227635884
 21
-14.49999999999983
 31
0.0
  0
LINE
  5
238FC
  8
DETAIL
  6
CONTINUOUS
 62
     5
 10
6.394797756759999
 20
-20.50872810659962
 30
0.0
 11
6.289892133159356
 21
-14.49999999999983
 31
0.0
  0
LINE
  5
238FD
  8
DETAIL
  6
CONTINUOUS
 62
     5
 10
15.60844430015982
 20
-18.50872620319979
 30
0.0
 11
15.53847172415931
 21
-14.49999999999983
 31
0.0
  0
LINE
  5
238FE
  8
DETAIL
  6
CONTINUOUS
 62
     5
 10
13.02974419155976
 20
-28.99999999999983
 30
0.0
 11
13.02974419155976
 21
-14.62218545459973
 31
0.0
  0
LINE
  5
238FF
  8
DETAIL
  6
CONTINUOUS
 62
     5
 10
20.02974419155885
 20
-14.49999999999983
 30
0.0
 11
20.02974419155885
 21
-27.95688983259993
 31
0.0
  0
LINE
  5
23900
  8
DETAIL
  6
CONTINUOUS
 62
     5
 10
17.52101665915939
 20
-14.49999999999983
 30
0.0
 11
17.4510440829597
 21
-18.50872620319979
 31
0.0
  0
LINE
  5
23901
  8
DETAIL
  6
CONTINUOUS
 62
     5
 10
11.27058610695872
 20
-14.49999999999983
 30
0.0
 11
11.16476724815925
 21
-20.50880395280001
 31
0.0
  0
LINE
  5
23902
  8
DETAIL
  6
CONTINUOUS
 62
     5
 10
31.60806486695969
 20
-28.99999999999983
 30
0.0
 11
31.82974419155858
 21
-16.29999999999973
 31
0.0
  0
LINE
  5
23903
  8
DETAIL
  6
CONTINUOUS
 62
     5
 10
13.02974419155976
 20
-14.62218545459973
 30
0.0
 11
15.53983970496006
 21
-14.5783715743998
 31
0.0
  0
LINE
  5
23904
  8
DETAIL
  6
CONTINUOUS
 62
     5
 10
17.52025206875965
 20
-14.54380334799998
 30
0.0
 11
20.02974419155885
 21
-14.49999999999983
 31
0.0
  0
ARC
  5
23905
  8
DETAIL
  6
CONTINUOUS
 62
     5
 10
9.901773714567412
 20
-20.46462867303671
 30
0.0
 40
0.5354188042945041
 50
199.5084092965395
 51
269.2369777916889
  0
ARC
  5
23906
  8
DETAIL
  6
CONTINUOUS
 62
     5
 10
6.894721570959064
 20
-20.49999999999983
 30
0.0
 40
0.499999999999325
 50
181.0000000000032
 51
270.0
  0
LINE
  5
23907
  8
DETAIL
  6
CONTINUOUS
 62
     5
 10
10.66484476375945
 20
-20.99999999999983
 30
0.0
 11
6.894721570959064
 21
-20.99999999999983
 31
0.0
  0
LINE
  5
23908
  8
DETAIL
  6
CONTINUOUS
 62
     5
 10
16.95112023536035
 20
-18.99999999999983
 30
0.0
 11
16.10836814776007
 21
-18.99999999999983
 31
0.0
  0
ARC
  5
23909
  8
DETAIL
  6
CONTINUOUS
 62
     5
 10
16.95112023536035
 20
-18.49999999999983
 30
0.0
 40
0.5
 50
270.0
 51
358.9999999999986
  0
ARC
  5
2390A
  8
DETAIL
  6
CONTINUOUS
 62
     5
 10
10.66484476375945
 20
-20.49999999999983
 30
0.0
 40
0.5
 50
270.0
 51
358.9999999999986
  0
ARC
  5
2390B
  8
DETAIL
  6
CONTINUOUS
 62
     5
 10
16.1083680563604
 20
-18.49999476419998
 30
0.0
 40
0.499999999999973
 50
181.0006000630051
 51
270.0000104717547
  0
CIRCLE
  5
2390C
  8
DETAIL
  6
CONTINUOUS
 62
     5
 10
-23.57025580843992
 20
10.5
 30
0.0
 40
2.0
  0
LINE
  5
2390D
  8
DETAIL
  6
CONTINUOUS
 62
     5
 10
-102.5702558084399
 20
15.0
 30
0.0
 11
-93.19336143394094
 21
15.0
 31
0.0
  0
LINE
  5
2390E
  8
DETAIL
  6
CONTINUOUS
 62
     5
 10
-89.94715018244142
 20
14.25
 30
0.0
 11
-88.07025580843992
 21
14.25
 31
0.0
  0
LINE
  5
2390F
  8
DETAIL
  6
CONTINUOUS
 62
     5
 10
-88.07025580843992
 20
6.75
 30
0.0
 11
-89.94715018244142
 21
6.75
 31
0.0
  0
LINE
  5
23910
  8
DETAIL
  6
CONTINUOUS
 62
     5
 10
-93.19336143394094
 20
6.000000000000512
 30
0.0
 11
-102.5702558084399
 21
6.000000000000512
 31
0.0
  0
LINE
  5
23911
  8
DETAIL
  6
CONTINUOUS
 62
     5
 10
-92.95082580894132
 20
14.97014250000029
 30
0.0
 11
-90.18968580744013
 21
14.27985750000022
 31
0.0
  0
LINE
  5
23912
  8
DETAIL
  6
CONTINUOUS
 62
     5
 10
-87.57025580843992
 20
13.75000000000051
 30
0.0
 11
-87.57025580843992
 21
7.25
 31
0.0
  0
LINE
  5
23913
  8
DETAIL
  6
CONTINUOUS
 62
     5
 10
-103.0702558084399
 20
6.5
 30
0.0
 11
-103.0702558084399
 21
14.50000000000051
 31
0.0
  0
ARC
  5
23914
  8
DETAIL
  6
CONTINUOUS
 62
     5
 10
-88.07025580843992
 20
13.75000000000051
 30
0.0
 40
0.5
 50
0.0
 51
90.0
  0
ARC
  5
23915
  8
DETAIL
  6
CONTINUOUS
 62
     5
 10
-88.07025580843992
 20
7.25
 30
0.0
 40
0.499999999999773
 50
270.0
 51
0.0
  0
ARC
  5
23916
  8
DETAIL
  6
CONTINUOUS
 62
     5
 10
-89.94715018244142
 20
5.75
 30
0.0
 40
1.0
 50
90.0
 51
104.036243467853
  0
ARC
  5
23917
  8
DETAIL
  6
CONTINUOUS
 62
     5
 10
-89.94715018244142
 20
15.25000000000051
 30
0.0
 40
0.9999999999999428
 50
255.9637565321462
 51
270.0
  0
CIRCLE
  5
23918
  8
DETAIL
  6
CONTINUOUS
 62
     5
 10
-83.57025580843992
 20
10.5
 30
0.0
 40
2.0
  0
ARC
  5
23919
  8
DETAIL
  6
CONTINUOUS
 62
     5
 10
-102.5702558084399
 20
6.5
 30
0.0
 40
0.5
 50
180.0
 51
270.0
  0
ARC
  5
2391A
  8
DETAIL
  6
CONTINUOUS
 62
     5
 10
-102.5702558084399
 20
14.50000000000051
 30
0.0
 40
0.499999999999773
 50
90.0
 51
180.0
  0
ARC
  5
2391B
  8
DETAIL
  6
CONTINUOUS
 62
     5
 10
-93.19336143394094
 20
7.000000000000512
 30
0.0
 40
1.0
 50
270.0
 51
284.0362434679604
  0
ARC
  5
2391C
  8
DETAIL
  6
CONTINUOUS
 62
     5
 10
-93.19336143394094
 20
14.0
 30
0.0
 40
1.000000000000385
 50
75.96375653203877
 51
90.0
  0
LINE
  5
2391D
  8
DETAIL
  6
CONTINUOUS
 62
     5
 10
-90.18968580744013
 20
6.720142500000293
 30
0.0
 11
-92.95082580894132
 21
6.029857500000219
 31
0.0
  0
LINE
  5
2391E
  8
DETAIL
  6
CONTINUOUS
 62
     5
 10
-76.59564946504133
 20
-5.909890794399928
 30
0.0
 11
-76.59564946504133
 21
-25.38595132439991
 31
0.0
  0
LINE
  5
2391F
  8
DETAIL
  6
CONTINUOUS
 62
     5
 10
-76.47025736304067
 20
-25.71509160300002
 30
0.0
 11
-76.47025736304067
 21
-25.84147422159981
 31
0.0
  0
LINE
  5
23920
  8
DETAIL
  6
CONTINUOUS
 62
     5
 10
-73.47025425364018
 20
-25.84147422139989
 30
0.0
 11
-73.47025425364018
 21
-25.71547538679988
 31
0.0
  0
LINE
  5
23921
  8
DETAIL
  6
CONTINUOUS
 62
     5
 10
-73.34486215164134
 20
-25.38595132379993
 30
0.0
 11
-73.34486215164134
 21
-5.909890794399928
 31
0.0
  0
ARC
  5
23922
  8
DETAIL
  6
CONTINUOUS
 62
     5
 10
-76.94414935524082
 20
-19.49999887199959
 30
0.0
 40
0.500000563999948
 50
269.9999977436306
 51
314.2038402418915
  0
ARC
  5
23923
  8
DETAIL
  6
CONTINUOUS
 62
     5
 10
-75.97025579604042
 20
-25.84146938999993
 30
0.0
 40
0.499999999999699
 50
180.0
 51
267.1730424447788
  0
ARC
  5
23924
  8
DETAIL
  6
CONTINUOUS
 62
     5
 10
-73.97025596544017
 20
-25.84146905939969
 30
0.0
 40
0.500000000000104
 50
272.8268118827067
 51
0.0
  0
ARC
  5
23925
  8
DETAIL
  6
CONTINUOUS
 62
     5
 10
-99.46145211184057
 20
-21.49999999999983
 30
0.0
 40
0.499999999999325
 50
181.0000000000032
 51
270.0
  0
ARC
  5
23926
  8
DETAIL
  6
CONTINUOUS
 62
     5
 10
-72.99636224184042
 20
-22.49999999999983
 30
0.0
 40
0.5
 50
90.0
 51
134.2119376616942
  0
ARC
  5
23927
  8
DETAIL
  6
CONTINUOUS
 62
     5
 10
-72.99636224184042
 20
-19.49999999999983
 30
0.0
 40
0.499999999999799
 50
225.7960692951028
 51
270.0
  0
ARC
  5
23928
  8
DETAIL
  6
CONTINUOUS
 62
     5
 10
-76.94414937504052
 20
-22.49999999999983
 30
0.0
 40
0.4999999999999221
 50
45.765674018725
 51
90.00038352008279
  0
ARC
  5
23929
  8
DETAIL
  6
CONTINUOUS
 62
     5
 10
-99.46145211184057
 20
-20.49999999999983
 30
0.0
 40
0.5
 50
90.0
 51
178.9999999999986
  0
ARC
  5
2392A
  8
DETAIL
  6
CONTINUOUS
 62
     5
 10
-73.84558255944148
 20
-25.3862367797999
 30
0.0
 40
0.499992789200339
 50
280.2449587579513
 51
0.0
  0
ARC
  5
2392B
  8
DETAIL
  6
CONTINUOUS
 62
     5
 10
-76.09505559824038
 20
-25.38569552119998
 30
0.0
 40
0.499992608999953
 50
180.0290184098961
 51
259.8372017479617
  0
ARC
  5
2392C
  8
DETAIL
  6
CONTINUOUS
 62
     5
 10
-76.09492269324119
 20
-5.909890794199782
 30
0.0
 40
0.499999999600056
 50
90.02427012352331
 51
180.0
  0
ARC
  5
2392D
  8
DETAIL
  6
CONTINUOUS
 62
     5
 10
-73.84546250844005
 20
-5.909890794199782
 30
0.0
 40
0.4999999995998231
 50
0.0
 51
89.98250906587182
  0
LINE
  5
2392E
  8
DETAIL
  6
CONTINUOUS
 62
     5
 10
-235.45249065144
 20
-28.99999999999983
 30
0.0
 11
235.5119790347592
 21
-29.0
 31
0.0
  0
LINE
  5
2392F
  8
DETAIL
  6
CONTINUOUS
 62
     5
 10
-74.53771213624032
 20
-26.51212694499992
 30
0.0
 11
-75.40279948004127
 21
-26.51212694499992
 31
0.0
  0
LINE
  5
23930
  8
DETAIL
  6
CONTINUOUS
 62
     5
 10
-50.47905950484119
 20
-21.99999999999983
 30
0.0
 11
-72.9963703592407
 21
-21.99999999999983
 31
0.0
  0
LINE
  5
23931
  8
DETAIL
  6
CONTINUOUS
 62
     5
 10
-76.94414937504052
 20
-21.99999999999983
 30
0.0
 11
-99.46145211184057
 21
-21.99999999999983
 31
0.0
  0
LINE
  5
23932
  8
DETAIL
  6
CONTINUOUS
 62
     5
 10
-96.0113970758407
 20
-20.99999999999983
 30
0.0
 11
-76.82792652824037
 21
-20.99999999999983
 31
0.0
  0
LINE
  5
23933
  8
DETAIL
  6
CONTINUOUS
 62
     5
 10
-73.11258508844048
 20
-20.99999999999983
 30
0.0
 11
-53.92911454084106
 21
-20.99999999999983
 31
0.0
  0
LINE
  5
23934
  8
DETAIL
  6
CONTINUOUS
 62
     5
 10
-76.94414937504052
 20
-19.99999999999983
 30
0.0
 11
-99.46145211184057
 21
-19.99999999999983
 31
0.0
  0
LINE
  5
23935
  8
DETAIL
  6
CONTINUOUS
 62
     5
 10
-72.99636224184042
 20
-19.99999999999983
 30
0.0
 11
-50.47905950484119
 21
-19.99999999999983
 31
0.0
  0
LINE
  5
23936
  8
DETAIL
  6
CONTINUOUS
 62
     5
 10
-203.2058991848411
 20
-14.49999999999983
 30
0.0
 11
-76.59564946504133
 21
-14.49999999999983
 31
0.0
  0
LINE
  5
23937
  8
DETAIL
  6
CONTINUOUS
 62
     5
 10
-73.34486215164134
 20
-20.99999999999983
 30
0.0
 11
-73.11258508844048
 21
-20.99999999999983
 31
0.0
  0
LINE
  5
23938
  8
DETAIL
  6
CONTINUOUS
 62
     5
 10
-76.59564946504133
 20
-20.99999999999983
 30
0.0
 11
-76.82792652824037
 21
-20.99999999999983
 31
0.0
  0
LINE
  5
23939
  8
DETAIL
  6
CONTINUOUS
 62
     5
 10
-96.0113970758407
 20
-20.99999999999983
 30
0.0
 11
-99.97025580844138
 21
-20.99999999999983
 31
0.0
  0
LINE
  5
2393A
  8
DETAIL
  6
CONTINUOUS
 62
     5
 10
-99.96137595943992
 20
-21.50872620319979
 30
0.0
 11
-99.97025580844138
 21
-20.99999999999983
 31
0.0
  0
LINE
  5
2393B
  8
DETAIL
  6
CONTINUOUS
 62
     5
 10
-76.33127820644086
 20
-25.38572289799981
 30
0.0
 11
-76.59456906164041
 21
-25.38593921279971
 31
0.0
  0
LINE
  5
2393C
  8
DETAIL
  6
CONTINUOUS
 62
     5
 10
-73.35210706324096
 20
-25.3860137449999
 30
0.0
 11
-73.60933317524041
 21
-25.38572284179992
 31
0.0
  0
LINE
  5
2393D
  8
DETAIL
  6
CONTINUOUS
 62
     5
 10
-99.97025580844138
 20
-20.99999999999983
 30
0.0
 11
-99.85679788643984
 21
-14.49999999999983
 31
0.0
  0
LINE
  5
2393E
  8
DETAIL
  6
CONTINUOUS
 62
     5
 10
-76.59564946504133
 20
-7.171911351199924
 30
0.0
 11
-224.4659825112716
 21
-7.171911351199924
 31
0.0
  0
LINE
  5
2393F
  8
DETAIL
  6
CONTINUOUS
 62
     5
 10
-74.49089702684023
 20
-5.409890794399928
 30
0.0
 11
-76.09689138304066
 21
-5.409890794399928
 31
0.0
  0
LINE
  5
23940
  8
DETAIL
  6
CONTINUOUS
 62
     5
 10
-74.49089702684023
 20
-5.409890794399928
 30
0.0
 11
-73.84362022544019
 21
-5.409890794399928
 31
0.0
  0
LINE
  5
23941
  8
DETAIL
  6
CONTINUOUS
 62
     5
 10
-23.37025580844011
 20
74.69999999999982
 30
0.0
 11
-14.97025580844138
 21
74.69999999999982
 31
0.0
  0
LINE
  5
23942
  8
DETAIL
  6
CONTINUOUS
 62
     5
 10
-26.07025580843992
 20
62.69999999999982
 30
0.0
 11
-14.97025580844138
 21
62.69999999999982
 31
0.0
  0
LINE
  5
23943
  8
DETAIL
  6
CONTINUOUS
 62
     5
 10
-14.97025580844138
 20
62.30000000000018
 30
0.0
 11
-129.7702558084416
 21
62.30000000000018
 31
0.0
  0
LINE
  5
23944
  8
DETAIL
  6
CONTINUOUS
 62
     5
 10
-17.25819295204064
 20
187.0
 30
0.0
 11
-14.97025580844138
 21
187.0
 31
0.0
  0
LINE
  5
23945
  8
DETAIL
  6
CONTINUOUS
 62
     5
 10
-14.97025580844138
 20
186.1999999999997
 30
0.0
 11
-26.6702558084412
 21
186.1999999999997
 31
0.0
  0
LINE
  5
23946
  8
DETAIL
  6
CONTINUOUS
 62
     5
 10
-14.97025580844138
 20
194.1999999999997
 30
0.0
 11
-4.370255808441016
 21
194.1999999999997
 31
0.0
  0
LINE
  5
23947
  8
DETAIL
  6
CONTINUOUS
 62
     5
 10
111.6297441915592
 20
194.1999999999997
 30
0.0
 11
122.2297441915586
 21
194.1999999999997
 31
0.0
  0
LINE
  5
23948
  8
DETAIL
  6
CONTINUOUS
 62
     5
 10
122.2297441915586
 20
190.8000000000002
 30
0.0
 11
128.6296904541593
 21
190.8000000000002
 31
0.0
  0
LINE
  5
23949
  8
DETAIL
  6
CONTINUOUS
 62
     5
 10
199.3297441915599
 20
186.1999999999997
 30
0.0
 11
122.2297441915586
 21
186.1999999999997
 31
0.0
  0
LINE
  5
2394A
  8
DETAIL
  6
CONTINUOUS
 62
     5
 10
129.8297441915595
 20
62.69999999999982
 30
0.0
 11
122.2297441915582
 21
62.69999999999982
 31
0.0
  0
LINE
  5
2394B
  8
DETAIL
  6
CONTINUOUS
 62
     5
 10
122.2297441915582
 20
66.0
 30
0.0
 11
129.8297441915595
 21
66.0
 31
0.0
  0
LINE
  5
2394C
  8
DETAIL
  6
CONTINUOUS
 62
     5
 10
122.2297441915582
 20
67.19999999999982
 30
0.0
 11
129.8297441915595
 21
67.19999999999982
 31
0.0
  0
LINE
  5
2394D
  8
BASIS
  6
DASHDOT
 62
     6
 10
53.62974419155876
 20
-11.79999999999973
 30
0.0
 11
53.62974419155921
 21
206.1999999999997
 31
0.0
  0
LINE
  5
2394E
  8
DETAIL
  6
CONTINUOUS
 62
     5
 10
-4.370255808441016
 20
194.5999999999999
 30
0.0
 11
-4.370255808441016
 21
196.1999999999997
 31
0.0
  0
LINE
  5
2394F
  8
DETAIL
  6
CONTINUOUS
 62
     5
 10
-4.370255808441016
 20
194.5999999999999
 30
0.0
 11
-4.370255808441016
 21
194.1999999999997
 31
0.0
  0
LINE
  5
23950
  8
DETAIL
  6
DIVIDE
 62
     5
 10
-13.37025580844102
 20
146.4000000000001
 30
0.0
 11
-13.37025580844102
 21
56.40000000000009
 31
0.0
  0
LINE
  5
23951
  8
DETAIL
  6
DIVIDE
 62
     5
 10
108.6297441915588
 20
53.40000000000009
 30
0.0
 11
108.6297441915592
 21
149.4000000000001
 31
0.0
  0
ARC
  5
23952
  8
DETAIL
  6
DIVIDE
 62
     5
 10
93.62974419155876
 20
53.40000000000009
 30
0.0
 40
15.0
 50
270.0
 51
0.0
  0
LINE
  5
23953
  8
DETAIL
  6
DIVIDE
 62
     5
 10
90.62974419155921
 20
176.4000000000001
 30
0.0
 11
16.62974419155921
 21
176.4000000000001
 31
0.0
  0
LINE
  5
23954
  8
DETAIL
  6
CONTINUOUS
 62
     5
 10
9.629744191558984
 20
196.1999999999997
 30
0.0
 11
-4.370255808441016
 21
196.1999999999997
 31
0.0
  0
LINE
  5
23955
  8
DETAIL
  6
CONTINUOUS
 62
     5
 10
95.62974419155921
 20
196.1999999999997
 30
0.0
 11
11.62974419155921
 21
196.1999999999997
 31
0.0
  0
LINE
  5
23956
  8
DETAIL
  6
DIVIDE
 62
     5
 10
93.62974419155921
 20
164.4000000000001
 30
0.0
 11
13.62974419155921
 21
164.4000000000001
 31
0.0
  0
LINE
  5
23957
  8
DETAIL
  6
CONTINUOUS
 62
     5
 10
111.6297441915592
 20
196.1999999999997
 30
0.0
 11
97.62974419155921
 21
196.1999999999997
 31
0.0
  0
ARC
  5
23958
  8
DETAIL
  6
DIVIDE
 62
     5
 10
13.62974419155921
 20
149.4000000000001
 30
0.0
 40
15.0
 50
90.0
 51
180.0
  0
LINE
  5
23959
  8
DETAIL
  6
CONTINUOUS
 62
     5
 10
96.62974419155921
 20
194.4679491923998
 30
0.0
 11
97.62974419155921
 21
196.1999999999997
 31
0.0
  0
LINE
  5
2395A
  8
DETAIL
  6
CONTINUOUS
 62
     5
 10
9.629744191558984
 20
196.1999999999997
 30
0.0
 11
10.62974419155898
 21
194.4679491923998
 31
0.0
  0
ARC
  5
2395B
  8
DETAIL
  6
DIVIDE
 62
     5
 10
90.62974419155921
 20
146.4000000000001
 30
0.0
 40
30.0
 50
0.0
 51
90.0
  0
LINE
  5
2395C
  8
DETAIL
  6
CONTINUOUS
 62
     5
 10
10.62974419155898
 20
194.4679491923998
 30
0.0
 11
11.62974419155921
 21
196.1999999999997
 31
0.0
  0
ARC
  5
2395D
  8
DETAIL
  6
DIVIDE
 62
     5
 10
16.62974419155921
 20
146.4000000000001
 30
0.0
 40
30.0
 50
90.0
 51
180.0
  0
CIRCLE
  5
2395E
  8
DETAIL
  6
DIVIDE
 62
     5
 10
53.62974419155876
 20
101.4000000000001
 30
0.0
 40
52.5
  0
ARC
  5
2395F
  8
DETAIL
  6
DIVIDE
 62
     5
 10
93.62974419155921
 20
149.4000000000001
 30
0.0
 40
15.0
 50
0.0
 51
90.0
  0
LINE
  5
23960
  8
DETAIL
  6
DIVIDE
 62
     5
 10
20.92771936835902
 20
65.59999999999991
 30
0.0
 11
86.33176901495904
 21
65.59999999999991
 31
0.0
  0
LINE
  5
23961
  8
DETAIL
  6
CONTINUOUS
 62
     5
 10
95.62974419155921
 20
196.1999999999997
 30
0.0
 11
96.62974419155921
 21
194.4679491923998
 31
0.0
  0
LINE
  5
23962
  8
DETAIL
  6
DIVIDE
 62
     5
 10
120.6297441915588
 20
56.40000000000009
 30
0.0
 11
120.6297441915592
 21
146.4000000000001
 31
0.0
  0
LINE
  5
23963
  8
DETAIL
  6
CONTINUOUS
 62
     5
 10
111.6297441915592
 20
194.1999999999997
 30
0.0
 11
111.6297441915592
 21
194.5999999999999
 31
0.0
  0
LINE
  5
23964
  8
DETAIL
  6
CONTINUOUS
 62
     5
 10
111.6297441915592
 20
196.1999999999997
 30
0.0
 11
111.6297441915592
 21
194.5999999999999
 31
0.0
  0
LINE
  5
23965
  8
DETAIL
  6
DIVIDE
 62
     5
 10
-1.370255808441016
 20
149.4000000000001
 30
0.0
 11
-1.370255808441016
 21
53.40000000000009
 31
0.0
  0
LINE
  5
23966
  8
DETAIL
  6
CONTINUOUS
 62
     5
 10
185.3297441915599
 20
63.19999999999982
 30
0.0
 11
149.8297441915594
 21
63.19999999999982
 31
0.0
  0
LINE
  5
23967
  8
DETAIL
  6
CONTINUOUS
 62
     5
 10
199.829744191559
 20
62.69999999999982
 30
0.0
 11
149.8297441915594
 21
62.69999999999982
 31
0.0
  0
LINE
  5
23968
  8
DETAIL
  6
CONTINUOUS
 62
     5
 10
199.2297441915596
 20
62.30000000000018
 30
0.0
 11
149.8297441915594
 21
62.30000000000018
 31
0.0
  0
LINE
  5
23969
  8
DETAIL
  6
CONTINUOUS
 62
     5
 10
188.7297441915596
 20
62.0
 30
0.0
 11
149.8297441915594
 21
62.0
 31
0.0
  0
LINE
  5
2396A
  8
BASIS
  6
DASHDOT
 62
     6
 10
-29.35285985684141
 20
101.4000000000001
 30
0.0
 11
138.9864956419599
 21
101.4000000000001
 31
0.0
  0
LINE
  5
2396B
  8
DETAIL
  6
CONTINUOUS
 62
     5
 10
-59.97025580844138
 20
73.40000000000009
 30
0.0
 11
-129.7702558084416
 21
73.39999999999958
 31
0.0
  0
LINE
  5
2396C
  8
DETAIL
  6
CONTINUOUS
 62
     5
 10
-122.2282356650398
 20
98.80021726000001
 30
0.0
 11
-129.5731281509693
 21
96.12689502137351
 31
0.0
  0
LINE
  5
2396D
  8
DETAIL
  6
CONTINUOUS
 62
     5
 10
-149.7702558084404
 20
62.30000000000018
 30
0.0
 11
-199.1702558084409
 21
62.30000000000018
 31
0.0
  0
LINE
  5
2396E
  8
DETAIL
  6
CONTINUOUS
 62
     5
 10
-131.5702558084396
 20
111.1000000000004
 30
0.0
 11
-131.5702558084396
 21
108.3000000000002
 31
0.0
  0
CIRCLE
  5
2396F
  8
DETAIL
  6
CONTINUOUS
 62
     5
 10
-173.7702558084407
 20
106.1999999999998
 30
0.0
 40
2.5
  0
CIRCLE
  5
23970
  8
DETAIL
  6
CONTINUOUS
 62
     5
 10
-173.7702558084407
 20
106.1999999999998
 30
0.0
 40
1.6
  0
LINE
  5
23971
  8
DETAIL
  6
CONTINUOUS
 62
     5
 10
-168.7702558084404
 20
100.1999999999998
 30
0.0
 11
-168.7702558084404
 21
111.1999999999998
 31
0.0
  0
LINE
  5
23972
  8
DETAIL
  6
CONTINUOUS
 62
     5
 10
-181.6702558084403
 20
99.30000000000018
 30
0.0
 11
-152.5007949718679
 21
99.30000000000018
 31
0.0
  0
LINE
  5
23973
  8
DETAIL
  6
CONTINUOUS
 62
     5
 10
-181.6702558084403
 20
99.0
 30
0.0
 11
-152.3432423437366
 21
99.0
 31
0.0
  0
LINE
  5
23974
  8
DETAIL
  6
CONTINUOUS
 62
     5
 10
-198.7702558084405
 20
100.1999999999998
 30
0.0
 11
-152.7702558084404
 21
100.1999999999998
 31
0.0
  0
LINE
  5
23975
  8
DETAIL
  6
CONTINUOUS
 62
     5
 10
-169.3384773296405
 20
112.1000000000004
 30
0.0
 11
-149.2702558084404
 21
112.0999999999999
 31
0.0
  0
ARC
  5
23976
  8
DETAIL
  6
CONTINUOUS
 62
     5
 10
-130.6702558084403
 20
112.5
 30
0.0
 40
0.900000000000091
 50
90.0
 51
138.1896851042067
  0
LINE
  5
23977
  8
DETAIL
  6
CONTINUOUS
 62
     5
 10
-130.3702558084409
 20
114.1000000000004
 30
0.0
 11
-130.3702558084409
 21
114.4000000000001
 31
0.0
  0
LINE
  5
23978
  8
DETAIL
  6
CONTINUOUS
 62
     5
 10
-130.2702558084407
 20
112.026838695373
 30
0.0
 11
-122.2282356650398
 21
109.0997827398001
 31
0.0
  0
ARC
  5
23979
  8
DETAIL
  6
CONTINUOUS
 62
     5
 10
-197.915734172728
 20
125.5257135478214
 30
0.0
 40
0.2999999999999989
 50
115.974393962062
 51
239.9999999999074
  0
ARC
  5
2397A
  8
DETAIL
  6
CONTINUOUS
 62
     5
 10
-234.6204385692404
 20
-37.99999999999983
 30
0.0
 40
0.999999999999841
 50
181.9999999999908
 51
270.0
  0
LINE
  5
2397B
  8
DETAIL
  6
CONTINUOUS
 62
     5
 10
-181.6702558084403
 20
99.0
 30
0.0
 11
-181.6702558084403
 21
98.40000000000009
 31
0.0
  0
LINE
  5
2397C
  8
DETAIL
  6
CONTINUOUS
 62
     5
 10
-72.17025580844029
 20
112.5
 30
0.0
 11
-72.77025580844065
 21
112.0632357188001
 31
0.0
  0
LINE
  5
2397D
  8
DETAIL
  6
CONTINUOUS
 62
     5
 10
-71.57025580825166
 20
112.5
 30
0.0
 11
-80.91227595163991
 21
109.0997827398001
 31
0.0
  0
LINE
  5
2397E
  8
DETAIL
  6
CONTINUOUS
 62
     5
 10
-29.07025580843992
 20
113.5999999999999
 30
0.0
 11
-38.18446937084127
 21
122.7142135623999
 31
0.0
  0
LINE
  5
2397F
  8
DETAIL
  6
CONTINUOUS
 62
     5
 10
-29.37025580844011
 20
113.5999999999999
 30
0.0
 11
-29.37025580844011
 21
113.9000000000001
 31
0.0
  0
LINE
  5
23980
  8
DETAIL
  6
CONTINUOUS
 62
     5
 10
-38.18446937084127
 20
159.3857864376
 30
0.0
 11
-29.07025580843992
 21
168.5
 31
0.0
  0
LINE
  5
23981
  8
DETAIL
  6
CONTINUOUS
 62
     5
 10
198.8297441915599
 20
62.69999999999982
 30
0.0
 11
198.8297441915599
 21
62.30000000000018
 31
0.0
  0
ARC
  5
23982
  8
DETAIL
  6
CONTINUOUS
 62
     5
 10
141.329744191559
 20
181.9775
 30
0.0
 40
6.522500000000449
 50
43.89739816710481
 51
136.1026018328906
  0
LINE
  5
23983
  8
DETAIL
  6
CONTINUOUS
 62
     5
 10
199.2297441915596
 20
29.0
 30
0.0
 11
199.2297441915596
 21
62.30000000000018
 31
0.0
  0
ARC
  5
23984
  8
DETAIL
  6
CONTINUOUS
 62
     5
 10
255.3034645759597
 20
178.1999999999998
 30
0.0
 40
6.000000000000181
 50
29.99999917989811
 51
89.99745195220778
  0
LINE
  5
23985
  8
DETAIL
  6
CONTINUOUS
 62
     5
 10
199.3297441915599
 20
74.69999999999982
 30
0.0
 11
199.3297441915599
 21
186.1999999999997
 31
0.0
  0
ARC
  5
23986
  8
DETAIL
  6
CONTINUOUS
 62
     5
 10
255.3034645759597
 20
158.4000000000001
 30
0.0
 40
6.000000000000181
 50
29.99999917989811
 51
89.99745195220778
  0
LINE
  5
23987
  8
DETAIL
  6
CONTINUOUS
 62
     5
 10
199.5297441915588
 20
29.0
 30
0.0
 11
199.5297441915588
 21
61.69999999999982
 31
0.0
  0
LINE
  5
23988
  8
DETAIL
  6
CONTINUOUS
 62
     5
 10
199.829744191559
 20
187.3000000000001
 30
0.0
 11
199.829744191559
 21
62.69999999999982
 31
0.0
  0
LINE
  5
23989
  8
DETAIL
  6
CONTINUOUS
 62
     5
 10
199.829744191559
 20
29.0
 30
0.0
 11
199.829744191559
 21
61.69999999999982
 31
0.0
  0
ARC
  5
2398A
  8
DETAIL
  6
CONTINUOUS
 62
     5
 10
128.6297441915592
 20
186.8000000000002
 30
0.0
 40
4.000000000000206
 50
2.292442776097144
 51
90.0
  0
LINE
  5
2398B
  8
DETAIL
  6
CONTINUOUS
 62
     5
 10
200.8297441915595
 20
-14.5
 30
0.0
 11
200.8297441915595
 21
-18.69999999999999
 31
0.0
  0
ARC
  5
2398C
  8
DETAIL
  6
CONTINUOUS
 62
     5
 10
204.8297441915599
 20
190.1999999999997
 30
0.0
 40
3.99999999999909
 50
0.0
 51
90.0
  0
ARC
  5
2398D
  8
DETAIL
  6
CONTINUOUS
 62
     5
 10
202.2297441915596
 20
194.5999999999999
 30
0.0
 40
1.600000000000363
 50
0.0
 51
90.0
  0
ARC
  5
2398E
  8
DETAIL
  6
CONTINUOUS
 62
     5
 10
201.6120965663594
 20
194.5999999999999
 30
0.0
 40
1.599999999999909
 50
90.0
 51
129.9999999999888
  0
LINE
  5
2398F
  8
DETAIL
  6
CONTINUOUS
 62
     5
 10
203.8297441915599
 20
194.5999999999999
 30
0.0
 11
203.8297441915599
 21
194.1999999999997
 31
0.0
  0
ARC
  5
23990
  8
DETAIL
  6
CONTINUOUS
 62
     5
 10
133.6257425903602
 20
187.0
 30
0.0
 40
1.000000000000179
 50
182.2924427753015
 51
233.1539329444849
  0
ARC
  5
23991
  8
DETAIL
  6
CONTINUOUS
 62
     5
 10
202.2297441915596
 20
194.5999999999999
 30
0.0
 40
0.799999999999272
 50
0.0
 51
90.0
  0
ARC
  5
23992
  8
DETAIL
  6
CONTINUOUS
 62
     5
 10
201.6120965663594
 20
194.5999999999999
 30
0.0
 40
0.8000000000001818
 50
90.0
 51
129.9999999999871
  0
LINE
  5
23993
  8
DETAIL
  6
CONTINUOUS
 62
     5
 10
203.8297441915599
 20
194.5999999999999
 30
0.0
 11
203.8297441915599
 21
196.1999999999997
 31
0.0
  0
LINE
  5
23994
  8
DETAIL
  6
CONTINUOUS
 62
     5
 10
204.329744191559
 20
196.1999999999997
 30
0.0
 11
204.329744191559
 21
194.1999999999997
 31
0.0
  0
LINE
  5
23995
  8
DETAIL
  6
CONTINUOUS
 62
     5
 10
189.9983250747584
 20
-20.5
 30
0.0
 11
189.8499570227589
 21
-29.0
 31
0.0
  0
LINE
  5
23996
  8
DETAIL
  6
CONTINUOUS
 62
     5
 10
191.8853020253584
 20
-38.69029871999993
 30
0.0
 11
191.8798966201585
 21
-39.0
 31
0.0
  0
LINE
  5
23997
  8
DETAIL
  6
CONTINUOUS
 62
     5
 10
198.0611633085589
 20
187.3000000000001
 30
0.0
 11
198.0419627369599
 21
186.1999999999997
 31
0.0
  0
LINE
  5
23998
  8
DETAIL
  6
CONTINUOUS
 62
     5
 10
201.0008038279586
 20
-14.5
 30
0.0
 11
200.8960734383593
 21
-20.5
 31
0.0
  0
LINE
  5
23999
  8
DETAIL
  6
CONTINUOUS
 62
     5
 10
201.4258833275592
 20
-22.00487338380003
 30
0.0
 11
201.5568813797591
 21
-14.5
 31
0.0
  0
LINE
  5
2399A
  8
DETAIL
  6
CONTINUOUS
 62
     5
 10
122.1795918635592
 20
-39.0
 30
0.0
 11
122.4839344637587
 21
-38.69029871999993
 31
0.0
  0
LINE
  5
2399B
  8
DETAIL
  6
CONTINUOUS
 62
     5
 10
220.0297441915593
 20
-14.21153846160001
 30
0.0
 11
220.0297441915593
 21
-27.0
 31
0.0
  0
LINE
  5
2399C
  8
DETAIL
  6
CONTINUOUS
 62
     5
 10
220.5297441915584
 20
-29.0
 30
0.0
 11
220.5297441915584
 21
-13.49038461539999
 31
0.0
  0
LINE
  5
2399D
  8
DETAIL
  6
CONTINUOUS
 62
     5
 10
255.3034647499587
 20
38.40000000000009
 30
0.0
 11
208.829744191559
 21
38.40000000000009
 31
0.0
  0
LINE
  5
2399E
  8
DETAIL
  6
CONTINUOUS
 62
     5
 10
225.0208643427602
 20
-1.508726203200183
 30
0.0
 11
224.9223090609592
 21
-7.154954515399993
 31
0.0
  0
LINE
  5
2399F
  8
DETAIL
  6
CONTINUOUS
 62
     5
 10
236.0116744481586
 20
-29.51744974840022
 30
0.0
 11
235.67931777936
 21
-38.03489949679988
 31
0.0
  0
LINE
  5
239A0
  8
DETAIL
  6
CONTINUOUS
 62
     5
 10
264.8297441915599
 20
48.90000000000009
 30
0.0
 11
286.7297441915596
 21
48.90000000000009
 31
0.0
  0
LINE
  5
239A1
  8
DETAIL
  6
CONTINUOUS
 62
     5
 10
192.0297441915584
 20
-29.0
 30
0.0
 11
194.63681958436
 21
-25.3500944502
 31
0.0
  0
LINE
  5
239A2
  8
DETAIL
  6
CONTINUOUS
 62
     5
 10
286.7297441915596
 20
48.90000000000009
 30
0.0
 11
290.2297441915596
 21
52.40000000000009
 31
0.0
  0
LINE
  5
239A3
  8
DETAIL
  6
CONTINUOUS
 62
     5
 10
-80.91227595163991
 20
78.00021725999977
 30
0.0
 11
-72.77025580844065
 21
75.0367642811998
 31
0.0
  0
LINE
  5
239A4
  8
DETAIL
  6
CONTINUOUS
 62
     5
 10
264.8297441915599
 20
173.6999999999998
 30
0.0
 11
264.8297441915599
 21
48.90000000000009
 31
0.0
  0
LINE
  5
239A5
  8
DETAIL
  6
CONTINUOUS
 62
     5
 10
260.4996171727596
 20
41.40000000000009
 30
0.0
 11
264.8297441915599
 21
48.90000000000009
 31
0.0
  0
LINE
  5
239A6
  8
DETAIL
  6
CONTINUOUS
 62
     5
 10
224.9223090609592
 20
-7.154954515399993
 30
0.0
 11
219.8297441915595
 21
-14.5
 31
0.0
  0
LINE
  5
239A7
  8
DETAIL
  6
CONTINUOUS
 62
     5
 10
286.7297441915596
 20
153.9000000000001
 30
0.0
 11
290.2297441915596
 21
150.4000000000001
 31
0.0
  0
LINE
  5
239A8
  8
DETAIL
  6
CONTINUOUS
 62
     5
 10
-73.07025580843992
 20
73.68667123139988
 30
0.0
 11
-73.07025580843992
 21
73.40000000000009
 31
0.0
  0
LINE
  5
239A9
  8
DETAIL
  6
CONTINUOUS
 62
     5
 10
260.4996171727596
 20
161.4000000000001
 30
0.0
 11
264.8297441915599
 21
153.9000000000001
 31
0.0
  0
LINE
  5
239AA
  8
DETAIL
  6
CONTINUOUS
 62
     5
 10
-72.77025580844065
 20
74.40000000000009
 30
0.0
 11
-72.77025580844065
 21
75.0367642811998
 31
0.0
  0
LINE
  5
239AB
  8
DETAIL
  6
CONTINUOUS
 62
     5
 10
286.7297441915596
 20
173.6999999999998
 30
0.0
 11
286.7297441915596
 21
48.90000000000009
 31
0.0
  0
LINE
  5
239AC
  8
DETAIL
  6
CONTINUOUS
 62
     5
 10
-72.77025580844065
 20
112.0632357188001
 30
0.0
 11
-72.77025580844065
 21
113.4000000000001
 31
0.0
  0
LINE
  5
239AD
  8
DETAIL
  6
CONTINUOUS
 62
     5
 10
286.7297441915596
 20
173.6999999999998
 30
0.0
 11
290.2297441915596
 21
170.1999999999998
 31
0.0
  0
LINE
  5
239AE
  8
DETAIL
  6
CONTINUOUS
 62
     5
 10
-72.17025580844029
 20
73.40000000000009
 30
0.0
 11
-72.17025580844029
 21
74.59999999999991
 31
0.0
  0
LINE
  5
239AF
  8
DETAIL
  6
CONTINUOUS
 62
     5
 10
260.4996171727596
 20
181.1999999999997
 30
0.0
 11
264.8297441915599
 21
173.6999999999998
 31
0.0
  0
LINE
  5
239B0
  8
DETAIL
  6
CONTINUOUS
 62
     5
 10
-71.57025580843992
 20
74.0
 30
0.0
 11
-71.57025580843992
 21
112.5
 31
0.0
  0
LINE
  5
239B1
  8
DETAIL
  6
CONTINUOUS
 62
     5
 10
290.2297441915596
 20
170.1999999999998
 30
0.0
 11
290.2297441915596
 21
52.40000000000009
 31
0.0
  0
LINE
  5
239B2
  8
DETAIL
  6
CONTINUOUS
 62
     5
 10
290.2297441915596
 20
52.40000000000009
 30
0.0
 11
317.2297441915596
 21
52.40000000000009
 31
0.0
  0
LINE
  5
239B3
  8
DETAIL
  6
CONTINUOUS
 62
     5
 10
317.2297441915596
 20
170.1999999999998
 30
0.0
 11
317.2297441915596
 21
52.40000000000009
 31
0.0
  0
LINE
  5
239B4
  8
DETAIL
  6
CONTINUOUS
 62
     5
 10
-70.27025580844065
 20
74.5
 30
0.0
 11
-70.27025580844065
 21
74.0
 31
0.0
  0
LINE
  5
239B5
  8
DETAIL
  6
CONTINUOUS
 62
     5
 10
-68.57025580843992
 20
96.3999999378002
 30
0.0
 11
-68.57025580843992
 21
75.7529652958001
 31
0.0
  0
LINE
  5
239B6
  8
DETAIL
  6
CONTINUOUS
 62
     5
 10
-60.87025580844011
 20
74.5
 30
0.0
 11
-60.87025580844011
 21
74.0
 31
0.0
  0
LINE
  5
239B7
  8
DETAIL
  6
CONTINUOUS
 62
     5
 10
-59.97025580844138
 20
63.30000000000018
 30
0.0
 11
-59.97025580844138
 21
73.40000000000009
 31
0.0
  0
LINE
  5
239B8
  8
DETAIL
  6
CONTINUOUS
 62
     5
 10
-59.57025580843992
 20
74.0
 30
0.0
 11
-59.57025580843992
 21
73.40000000000009
 31
0.0
  0
LINE
  5
239B9
  8
DETAIL
  6
CONTINUOUS
 62
     5
 10
-59.37025580844011
 20
72.19999999999982
 30
0.0
 11
-59.37025580844011
 21
62.30000000000018
 31
0.0
  0
LINE
  5
239BA
  8
DETAIL
  6
CONTINUOUS
 62
     5
 10
-196.2702558084405
 20
62.80000000000018
 30
0.0
 11
-199.3725076818739
 21
62.80256384266659
 31
0.0
  0
LINE
  5
239BB
  8
DETAIL
  6
CONTINUOUS
 62
     5
 10
-58.77025580844065
 20
72.19999999999982
 30
0.0
 11
-58.77025580844065
 21
62.30000000000018
 31
0.0
  0
LINE
  5
239BC
  8
DETAIL
  6
CONTINUOUS
 62
     5
 10
-26.97025580844138
 20
63.19999999999982
 30
0.0
 11
-27.27025580844065
 21
63.19999999999982
 31
0.0
  0
LINE
  5
239BD
  8
DETAIL
  6
CONTINUOUS
 62
     5
 10
-26.6702558084412
 20
63.90000000000009
 30
0.0
 11
-26.97025580844138
 21
63.90000000000009
 31
0.0
  0
LINE
  5
239BE
  8
DETAIL
  6
CONTINUOUS
 62
     5
 10
-41.45018401244079
 20
64.30000000000018
 30
0.0
 11
-31.10416381743971
 21
64.30000000000018
 31
0.0
  0
LINE
  5
239BF
  8
DETAIL
  6
CONTINUOUS
 62
     5
 10
-26.0126540940405
 20
66.0
 30
0.0
 11
-23.52211487324121
 21
66.0
 31
0.0
  0
LINE
  5
239C0
  8
DETAIL
  6
CONTINUOUS
 62
     5
 10
-27.27025580844065
 20
67.19999999999982
 30
0.0
 11
-23.50116879543975
 21
67.19999999999982
 31
0.0
  0
LINE
  5
239C1
  8
DETAIL
  6
CONTINUOUS
 62
     5
 10
189.329744191559
 20
67.19999999999982
 30
0.0
 11
189.8297441915599
 21
67.19999999999982
 31
0.0
  0
LINE
  5
239C2
  8
DETAIL
  6
CONTINUOUS
 62
     5
 10
-196.2702558084405
 20
69.10000000000042
 30
0.0
 11
-186.2702558084405
 21
69.10000000000042
 31
0.0
  0
LINE
  5
239C3
  8
DETAIL
  6
CONTINUOUS
 62
     5
 10
-196.2702558084405
 20
71.5
 30
0.0
 11
-186.2702558084405
 21
71.5
 31
0.0
  0
ARC
  5
239C4
  8
DETAIL
  6
CONTINUOUS
 62
     5
 10
-219.970255808441
 20
-17.49999999999983
 30
0.0
 40
6.500000000000909
 50
0.0
 51
180.0
  0
ARC
  5
239C5
  8
DETAIL
  6
CONTINUOUS
 62
     5
 10
-227.4702558084412
 20
-22.61101630939993
 30
0.0
 40
1.000000000000079
 50
317.4895529220038
 51
0.0
  0
ARC
  5
239C6
  8
DETAIL
  6
CONTINUOUS
 62
     5
 10
-212.4702558084412
 20
-22.61101630939993
 30
0.0
 40
0.9999999999990908
 50
180.0
 51
222.5104470780745
  0
ARC
  5
239C7
  8
DETAIL
  6
CONTINUOUS
 62
     5
 10
-214.7202558084412
 20
-14.14999999999992
 30
0.0
 40
1.0
 50
0.0
 51
90.0
  0
ARC
  5
239C8
  8
DETAIL
  6
CONTINUOUS
 62
     5
 10
-227.0019190716416
 20
-23.71833673679998
 30
0.0
 40
0.9997437534000168
 50
90.00385707119855
 51
179.9961429287472
  0
ARC
  5
239C9
  8
DETAIL
  6
CONTINUOUS
 62
     5
 10
-221.4616044400402
 20
-28.49999999999983
 30
0.0
 40
0.5
 50
270.0
 51
358.9999999999986
  0
LINE
  5
239CA
  8
DETAIL
  6
CONTINUOUS
 62
     5
 10
-58.93248076944155
 20
72.80000000000018
 30
0.0
 11
-39.57025580843992
 21
72.80000000000018
 31
0.0
  0
ARC
  5
239CB
  8
DETAIL
  6
CONTINUOUS
 62
     5
 10
-235.4524901526403
 20
-29.49999999999983
 30
0.0
 40
0.5000000000000222
 50
90.00005717031752
 51
181.9999980047911
  0
LINE
  5
239CC
  8
DETAIL
  6
CONTINUOUS
 62
     5
 10
-39.57025580843992
 20
72.80000000000018
 30
0.0
 11
-32.80012253864106
 21
72.80000000000018
 31
0.0
  0
ARC
  5
239CD
  8
DETAIL
  6
CONTINUOUS
 62
     5
 10
-218.4789071768412
 20
-28.49999999999983
 30
0.0
 40
0.499999999999325
 50
181.0000000000032
 51
270.0
  0
LINE
  5
239CE
  8
DETAIL
  6
CONTINUOUS
 62
     5
 10
-59.87674354744058
 20
73.40000000000009
 30
0.0
 11
-59.57025580843992
 21
73.40000000000009
 31
0.0
  0
LINE
  5
239CF
  8
DETAIL
  6
CONTINUOUS
 62
     5
 10
-59.20830786644046
 20
73.40000000000009
 30
0.0
 11
-39.57025580843992
 21
73.40000000000009
 31
0.0
  0
LINE
  5
239D0
  8
DETAIL
  6
CONTINUOUS
 62
     5
 10
-71.57025580843992
 20
74.0
 30
0.0
 11
-59.57025580843992
 21
74.0
 31
0.0
  0
LINE
  5
239D1
  8
DETAIL
  6
CONTINUOUS
 62
     5
 10
-60.87025580844011
 20
74.5
 30
0.0
 11
-70.27025580844065
 21
74.5
 31
0.0
  0
ARC
  5
239D2
  8
DETAIL
  6
CONTINUOUS
 62
     5
 10
-224.4614521118403
 20
-1.5
 30
0.0
 40
0.5
 50
90.0
 51
181.0000000000014
  0
LINE
  5
239D3
  8
DETAIL
  6
CONTINUOUS
 62
     5
 10
-71.57025580843992
 20
74.59999999999991
 30
0.0
 11
-72.17025580844029
 21
74.59999999999991
 31
0.0
  0
ARC
  5
239D4
  8
DETAIL
  6
CONTINUOUS
 62
     5
 10
-166.8916318522402
 20
-18.49999999999983
 30
0.0
 40
0.5000000000002341
 50
181.000000000001
 51
270.0
  0
LINE
  5
239D5
  8
DETAIL
  6
CONTINUOUS
 62
     5
 10
-235.9521860650405
 20
-29.51744974839988
 30
0.0
 11
-235.6198293962399
 21
-38.03489949679988
 31
0.0
  0
LINE
  5
239D6
  8
DETAIL
  6
CONTINUOUS
 62
     5
 10
189.8297441915599
 20
74.69999999999982
 30
0.0
 11
199.829744191559
 21
74.69999999999982
 31
0.0
  0
ARC
  5
239D7
  8
DETAIL
  6
CONTINUOUS
 62
     5
 10
-166.0488797646399
 20
-18.49999999999983
 30
0.0
 40
0.5
 50
270.0
 51
358.9999999999986
  0
LINE
  5
239D8
  8
DETAIL
  6
CONTINUOUS
 62
     5
 10
-224.7589484738402
 20
-13.10578908659983
 30
0.0
 11
-224.96137595944
 21
-1.508726203199785
 31
0.0
  0
LINE
  5
239D9
  8
DETAIL
  6
CONTINUOUS
 62
     5
 10
-39.57025580843992
 20
75.0
 30
0.0
 11
-32.73883669144061
 21
75.0
 31
0.0
  0
ARC
  5
239DA
  8
DETAIL
  6
CONTINUOUS
 62
     5
 10
-159.8422862491182
 20
-20.46462800926173
 30
0.0
 40
0.5354194802316553
 50
270.7631194544643
 51
340.4916879712633
  0
LINE
  5
239DB
  8
DETAIL
  6
CONTINUOUS
 62
     5
 10
-27.27025580844065
 20
76.5
 30
0.0
 11
-32.71265409404123
 21
76.5
 31
0.0
  0
ARC
  5
239DC
  8
DETAIL
  6
CONTINUOUS
 62
     5
 10
-156.8352331878398
 20
-20.49999999999983
 30
0.0
 40
0.5
 50
270.0
 51
358.9999999999986
  0
LINE
  5
239DD
  8
DETAIL
  6
CONTINUOUS
 62
     5
 10
-29.77025580844065
 20
79.09999999999991
 30
0.0
 11
-38.57025580843992
 21
79.09999999999991
 31
0.0
  0
ARC
  5
239DE
  8
DETAIL
  6
CONTINUOUS
 62
     5
 10
-160.6053563806404
 20
-20.49999999999983
 30
0.0
 40
0.500000000001144
 50
180.9999999999995
 51
270.0
  0
LINE
  5
239DF
  8
DETAIL
  6
CONTINUOUS
 62
     5
 10
-228.001674925241
 20
-23.7184285783996
 30
0.0
 11
-228.001674925241
 21
-24.67063903659999
 31
0.0
  0
LINE
  5
239E0
  8
DETAIL
  6
CONTINUOUS
 62
     5
 10
-185.2702558084405
 20
90.30000000000018
 30
0.0
 11
-182.2702558084407
 21
90.30000000000018
 31
0.0
  0
LINE
  5
239E1
  8
DETAIL
  6
CONTINUOUS
 62
     5
 10
-183.6260941174401
 20
168.597797205
 30
0.0
 11
-183.9097060118407
 21
168.69559441
 31
0.0
  0
LINE
  5
239E2
  8
DETAIL
  6
CONTINUOUS
 62
     5
 10
-226.4702558084412
 20
-22.61101630939993
 30
0.0
 11
-226.4702558084412
 21
-17.49999999999983
 31
0.0
  0
LINE
  5
239E3
  8
DETAIL
  6
CONTINUOUS
 62
     5
 10
119.4226687989596
 20
-25.3500944502
 30
0.0
 11
122.0297441915584
 21
-29.0
 31
0.0
  0
LINE
  5
239E4
  8
DETAIL
  6
CONTINUOUS
 62
     5
 10
-207.9702558084412
 20
-28.99999999999983
 30
0.0
 11
-213.2074099486402
 21
-23.28674093799958
 31
0.0
  0
LINE
  5
239E5
  8
DETAIL
  6
CONTINUOUS
 62
     5
 10
-219.2838125180398
 20
-11.03634813179968
 30
0.0
 11
-218.9788310244397
 21
-28.50872620319979
 31
0.0
  0
LINE
  5
239E6
  8
DETAIL
  6
CONTINUOUS
 62
     5
 10
-213.720255808441
 20
-15.7200848558
 30
0.0
 11
-213.720255808441
 21
-14.14999999999992
 31
0.0
  0
LINE
  5
239E7
  8
DETAIL
  6
CONTINUOUS
 62
     5
 10
-213.4702558084404
 20
-22.61101630939993
 30
0.0
 11
-213.4702558084404
 21
-17.49999999999983
 31
0.0
  0
LINE
  5
239E8
  8
DETAIL
  6
CONTINUOUS
 62
     5
 10
189.1122082655589
 20
186.1999999999997
 30
0.0
 11
200.5836363909591
 21
195.8256711089998
 31
0.0
  0
LINE
  5
239E9
  8
DETAIL
  6
CONTINUOUS
 62
     5
 10
190.3567873271592
 20
186.1999999999997
 30
0.0
 11
201.0978664787597
 21
195.2128355544
 31
0.0
  0
ARC
  5
239EA
  8
DETAIL
  6
CONTINUOUS
 62
     5
 10
-191.9702558084412
 20
58.2775000000002
 30
0.0
 40
6.52250000000002
 50
131.3513492074044
 51
136.1026018328903
  0
ARC
  5
239EB
  8
DETAIL
  6
CONTINUOUS
 62
     5
 10
-182.2702558084407
 20
64.80000000000018
 30
0.0
 40
3.0
 50
180.0
 51
236.5291844456995
  0
LINE
  5
239EC
  8
DETAIL
  6
CONTINUOUS
 62
     5
 10
-181.6702558084403
 20
98.40000000000009
 30
0.0
 11
-182.2702558084407
 21
98.40000000000009
 31
0.0
  0
LINE
  5
239ED
  8
DETAIL
  6
CONTINUOUS
 62
     5
 10
-220.9616805924402
 20
-28.50872620319979
 30
0.0
 11
-220.6566991056409
 21
-11.03634852839969
 31
0.0
  0
LINE
  5
239EE
  8
DETAIL
  6
CONTINUOUS
 62
     5
 10
-203.2058991848411
 20
-14.49999999999983
 30
0.0
 11
-203.4589976264411
 21
-28.99999999999983
 31
0.0
  0
ARC
  5
239EF
  8
DETAIL
  6
CONTINUOUS
 62
     5
 10
-184.7702558084405
 20
63.30000000000018
 30
0.0
 40
1.0
 50
180.0
 51
270.0
  0
ARC
  5
239F0
  8
DETAIL
  6
CONTINUOUS
 62
     5
 10
-199.1702558084409
 20
61.69999999999982
 30
0.0
 40
0.600000000000136
 50
90.0
 51
180.0
  0
LINE
  5
239F1
  8
DETAIL
  6
CONTINUOUS
 62
     5
 10
-199.7702558084405
 20
112.6999999999998
 30
0.0
 11
-199.7702558084405
 21
116.5
 31
0.0
  0
ARC
  5
239F2
  8
DETAIL
  6
CONTINUOUS
 62
     5
 10
-199.1702558084409
 20
61.69999999999982
 30
0.0
 40
0.299999999999955
 50
90.0
 51
180.0
  0
LINE
  5
239F3
  8
BASIS
  6
DASHDOT
 62
     6
 10
193.829744191559
 20
101.4000000000001
 30
0.0
 11
327.2297441915596
 21
101.4000000000001
 31
0.0
  0
LINE
  5
239F4
  8
DETAIL
  6
CONTINUOUS
 62
     5
 10
-199.1702558084409
 20
116.5
 30
0.0
 11
-199.1702558084409
 21
112.6999999999998
 31
0.0
  0
LINE
  5
239F5
  8
DETAIL
  6
CONTINUOUS
 62
     5
 10
-198.7702558084405
 20
100.1999999999998
 30
0.0
 11
-198.7702558084405
 21
113.6000000000004
 31
0.0
  0
ARC
  5
239F6
  8
DETAIL
  6
CONTINUOUS
 62
     5
 10
-50.47906367324003
 20
-21.49999999999983
 30
0.0
 40
0.4999999999998681
 50
270.0004776644688
 51
359.0000083361911
  0
LINE
  5
239F7
  8
DETAIL
  6
CONTINUOUS
 62
     5
 10
-198.7702558084405
 20
113.6000000000004
 30
0.0
 11
-198.7702558084405
 21
125.499456602
 31
0.0
  0
LINE
  5
239F8
  8
DETAIL
  6
CONTINUOUS
 62
     5
 10
-196.6702558084403
 20
62.80000000000018
 30
0.0
 11
-196.6702558084403
 21
62.30000000000018
 31
0.0
  0
LINE
  5
239F9
  8
DETAIL
  6
CONTINUOUS
 62
     5
 10
-28.77025580844065
 20
111.0
 30
0.0
 11
-28.42025580844029
 21
111.0
 31
0.0
  0
LINE
  5
239FA
  8
DETAIL
  6
CONTINUOUS
 62
     5
 10
-196.2702558084405
 20
62.30000000000018
 30
0.0
 11
-196.2702558084405
 21
71.499159598
 31
0.0
  0
ARC
  5
239FB
  8
DETAIL
  6
CONTINUOUS
 62
     5
 10
-50.47905950484119
 20
-20.49999999999983
 30
0.0
 40
0.5000000000002341
 50
1.000000000000994
 51
90.0
  0
LINE
  5
239FC
  8
DETAIL
  6
CONTINUOUS
 62
     5
 10
-188.7702558084405
 20
115.6000000000004
 30
0.0
 11
-188.7702558084405
 21
118.7444584524
 31
0.0
  0
LINE
  5
239FD
  8
DETAIL
  6
CONTINUOUS
 62
     5
 10
-28.77025580844065
 20
111.5
 30
0.0
 11
-28.42025580844029
 21
111.5
 31
0.0
  0
LINE
  5
239FE
  8
DETAIL
  6
CONTINUOUS
 62
     5
 10
-186.2702558084405
 20
62.30000000000018
 30
0.0
 11
-186.2702558084405
 21
71.499159598
 31
0.0
  0
LINE
  5
239FF
  8
DETAIL
  6
CONTINUOUS
 62
     5
 10
-185.7702558084405
 20
99.19999999999982
 30
0.0
 11
-185.7702558084405
 21
63.30000000000018
 31
0.0
  0
LINE
  5
23A00
  8
DETAIL
  6
CONTINUOUS
 62
     5
 10
-71.57025580843992
 20
112.0999999999999
 30
0.0
 11
-28.77025580844065
 21
112.0999999999999
 31
0.0
  0
LINE
  5
23A01
  8
DETAIL
  6
CONTINUOUS
 62
     5
 10
-185.2702558084405
 20
90.30000000000018
 30
0.0
 11
-185.2702558084405
 21
64.80000000000018
 31
0.0
  0
LINE
  5
23A02
  8
DETAIL
  6
CONTINUOUS
 62
     5
 10
-169.7702558084404
 20
112.1999999999998
 30
0.0
 11
-198.7702558084405
 21
112.1999999999998
 31
0.0
  0
LINE
  5
23A03
  8
DETAIL
  6
CONTINUOUS
 62
     5
 10
-182.2702558084407
 20
62.30000000000018
 30
0.0
 11
-182.2702558084407
 21
98.69999999999982
 31
0.0
  0
LINE
  5
23A04
  8
DETAIL
  6
CONTINUOUS
 62
     5
 10
-181.9702558084402
 20
98.69999999999982
 30
0.0
 11
-181.9702558084402
 21
98.40000000000009
 31
0.0
  0
LINE
  5
23A05
  8
DETAIL
  6
CONTINUOUS
 62
     5
 10
220.0297441915593
 20
-27.0
 30
0.0
 11
218.1390654641584
 21
-27.0
 31
0.0
  0
LINE
  5
23A06
  8
DETAIL
  6
CONTINUOUS
 62
     5
 10
207.3996419851585
 20
-24.75
 30
0.0
 11
216.7495859251596
 21
-24.75
 31
0.0
  0
LINE
  5
23A07
  8
DETAIL
  6
CONTINUOUS
 62
     5
 10
-183.9097060118407
 20
168.69559441
 30
0.0
 11
-198.7374795974404
 21
125.695051012
 31
0.0
  0
LINE
  5
23A08
  8
DETAIL
  6
CONTINUOUS
 62
     5
 10
124.1274925551581
 20
-24.2999999999999
 30
0.0
 11
189.9319958279585
 21
-24.2999999999999
 31
0.0
  0
LINE
  5
23A09
  8
DETAIL
  6
CONTINUOUS
 62
     5
 10
-72.47025580844047
 20
112.8000000000002
 30
0.0
 11
-72.77025580844065
 21
112.8000000000002
 31
0.0
  0
ARC
  5
23A0A
  8
DETAIL
  6
CONTINUOUS
 62
     5
 10
-65.57025580843992
 20
69.97750000000002
 30
0.0
 40
6.522499999999297
 50
43.89739816710922
 51
136.102601832895
  0
LINE
  5
23A0B
  8
DETAIL
  6
CONTINUOUS
 62
     5
 10
-183.4402794278408
 20
168.2163881053998
 30
0.0
 11
-183.3424822228413
 21
168.5
 31
0.0
  0
LINE
  5
23A0C
  8
DETAIL
  6
CONTINUOUS
 62
     5
 10
191.575553919359
 20
-38.69029871999993
 30
0.0
 11
191.8798965195585
 21
-39.0
 31
0.0
  0
LINE
  5
23A0D
  8
DETAIL
  6
CONTINUOUS
 62
     5
 10
-185.85158062844
 20
132.3884347213998
 30
0.0
 11
-177.888145348241
 21
155.4823970339999
 31
0.0
  0
LINE
  5
23A0E
  8
DETAIL
  6
CONTINUOUS
 62
     5
 10
-226.4766550824411
 20
-22.71858088319999
 30
0.0
 11
-227.0018272300409
 21
-22.71858088319999
 31
0.0
  0
ARC
  5
23A0F
  8
DETAIL
  6
CONTINUOUS
 62
     5
 10
-33.17025580844029
 20
76.40000000000009
 30
0.0
 40
1.400000000000545
 50
180.0
 51
270.0
  0
LINE
  5
23A10
  8
DETAIL
  6
CONTINUOUS
 62
     5
 10
-161.2110977236403
 20
-14.49999999999983
 30
0.0
 11
-161.1052788650397
 21
-20.50880395280001
 31
0.0
  0
ARC
  5
23A11
  8
DETAIL
  6
CONTINUOUS
 62
     5
 10
-59.97025580844138
 20
72.19999999999982
 30
0.0
 40
1.200000000000728
 50
0.0
 51
90.0
  0
LINE
  5
23A12
  8
DETAIL
  6
CONTINUOUS
 62
     5
 10
-167.3915556998404
 20
-18.50872620319979
 30
0.0
 11
-167.4615282758409
 21
-14.49999999999983
 31
0.0
  0
LINE
  5
23A13
  8
DETAIL
  6
CONTINUOUS
 62
     5
 10
-173.4702558084413
 20
169.5999999999999
 30
0.0
 11
-173.4702558084413
 21
169.0999999999999
 31
0.0
  0
LINE
  5
23A14
  8
DETAIL
  6
CONTINUOUS
 62
     5
 10
-156.8352331878398
 20
-20.99999999999983
 30
0.0
 11
-160.6053563806404
 21
-20.99999999999983
 31
0.0
  0
LINE
  5
23A15
  8
DETAIL
  6
CONTINUOUS
 62
     5
 10
-171.7702558084404
 20
-14.49999999999983
 30
0.0
 11
-171.7702558084404
 21
-28.99999999999983
 31
0.0
  0
LINE
  5
23A16
  8
DETAIL
  6
CONTINUOUS
 62
     5
 10
-169.9702558084405
 20
-27.95688983259993
 30
0.0
 11
-169.9702558084405
 21
-14.49999999999983
 31
0.0
  0
ARC
  5
23A17
  8
DETAIL
  6
CONTINUOUS
 62
     5
 10
-73.77025580844065
 20
74.40000000000009
 30
0.0
 40
1.0
 50
270.0
 51
0.0
  0
LINE
  5
23A18
  8
DETAIL
  6
CONTINUOUS
 62
     5
 10
112.6073373929587
 20
-20.5
 30
0.0
 11
201.4521509901581
 21
-20.5
 31
0.0
  0
LINE
  5
23A19
  8
DETAIL
  6
CONTINUOUS
 62
     5
 10
-130.6702558084403
 20
113.4000000000001
 30
0.0
 11
-72.47025580844047
 21
113.4000000000001
 31
0.0
  0
ARC
  5
23A1A
  8
DETAIL
  6
CONTINUOUS
 62
     5
 10
-80.57025580843992
 20
78.93990988079992
 30
0.0
 40
1.0
 50
180.0
 51
250.0000000000107
  0
LINE
  5
23A1B
  8
DETAIL
  6
CONTINUOUS
 62
     5
 10
-198.7702558084405
 20
113.6000000000004
 30
0.0
 11
-198.7493726998405
 21
113.6000000000004
 31
0.0
  0
ARC
  5
23A1C
  8
DETAIL
  6
CONTINUOUS
 62
     5
 10
-29.77025580844065
 20
80.10000000000042
 30
0.0
 40
1.000000000000227
 50
270.0
 51
0.0
  0
LINE
  5
23A1D
  8
DETAIL
  6
CONTINUOUS
 62
     5
 10
-198.7493726998405
 20
113.6000000000004
 30
0.0
 11
-133.2702558084407
 21
113.5999999999999
 31
0.0
  0
ARC
  5
23A1E
  8
DETAIL
  6
CONTINUOUS
 62
     5
 10
-60.97025580844138
 20
63.30000000000018
 30
0.0
 40
1.0
 50
270.0
 51
0.0
  0
LINE
  5
23A1F
  8
DETAIL
  6
CONTINUOUS
 62
     5
 10
-164.0702558084399
 20
169.5999999999999
 30
0.0
 11
-164.0702558084399
 21
169.0999999999999
 31
0.0
  0
LINE
  5
23A20
  8
DETAIL
  6
CONTINUOUS
 62
     5
 10
-133.2702558084407
 20
113.5999999999999
 30
0.0
 11
-114.2702558084407
 21
113.5999999999999
 31
0.0
  0
ARC
  5
23A21
  8
DETAIL
  6
CONTINUOUS
 62
     5
 10
-38.57025580843992
 20
78.10000000000042
 30
0.0
 40
0.9999999999997728
 50
90.0
 51
180.0
  0
LINE
  5
23A22
  8
DETAIL
  6
CONTINUOUS
 62
     5
 10
-162.9702558084414
 20
-28.99999999999983
 30
0.0
 11
-162.9702558084414
 21
-14.62218545459973
 31
0.0
  0
LINE
  5
23A23
  8
DETAIL
  6
CONTINUOUS
 62
     5
 10
-166.0488797646399
 20
-18.99999999999983
 30
0.0
 11
-166.8916318522402
 21
-18.99999999999983
 31
0.0
  0
LINE
  5
23A24
  8
DETAIL
  6
CONTINUOUS
 62
     5
 10
-114.2702558084407
 20
113.5999999999999
 30
0.0
 11
-75.4202558084412
 21
113.5999999999999
 31
0.0
  0
ARC
  5
23A25
  8
DETAIL
  6
CONTINUOUS
 62
     5
 10
-59.97025580844138
 20
72.19999999999982
 30
0.0
 40
0.600000000001273
 50
0.0
 51
90.0
  0
LINE
  5
23A26
  8
DETAIL
  6
CONTINUOUS
 62
     5
 10
200.8297441915595
 20
-18.69999999999999
 30
0.0
 11
111.2297441915591
 21
-18.69999999999999
 31
0.0
  0
LINE
  5
23A27
  8
DETAIL
  6
CONTINUOUS
 62
     5
 10
-75.4202558084412
 20
113.5999999999999
 30
0.0
 11
-48.77025580844065
 21
113.5999999999999
 31
0.0
  0
ARC
  5
23A28
  8
DETAIL
  6
CONTINUOUS
 62
     5
 10
-71.57025580843992
 20
74.0
 30
0.0
 40
0.600000000000364
 50
180.0
 51
270.0
  0
LINE
  5
23A29
  8
DETAIL
  6
CONTINUOUS
 62
     5
 10
-48.77025580844065
 20
113.5999999999999
 30
0.0
 11
-29.37025580844011
 21
113.5999999999999
 31
0.0
  0
CIRCLE
  5
23A2A
  8
DETAIL
  6
CONTINUOUS
 62
     5
 10
-190.7702558084405
 20
106.1999999999998
 30
0.0
 40
2.5
  0
LINE
  5
23A2B
  8
DETAIL
  6
CONTINUOUS
 62
     5
 10
-165.4789833408408
 20
-14.49999999999983
 30
0.0
 11
-165.5489559170405
 21
-18.50872620319979
 31
0.0
  0
LINE
  5
23A2C
  8
DETAIL
  6
CONTINUOUS
 62
     5
 10
195.8305057157597
 20
-15.2999999999999
 30
0.0
 11
111.2297441915591
 21
-15.2999999999999
 31
0.0
  0
LINE
  5
23A2D
  8
DETAIL
  6
CONTINUOUS
 62
     5
 10
-29.37025580844011
 20
113.5999999999999
 30
0.0
 11
-28.77025580844065
 21
113.5999999999999
 31
0.0
  0
ARC
  5
23A2E
  8
DETAIL
  6
CONTINUOUS
 62
     5
 10
-190.7702558084405
 20
115.6000000000004
 30
0.0
 40
2.0
 50
270.0
 51
0.0
  0
LINE
  5
23A2F
  8
DETAIL
  6
CONTINUOUS
 62
     5
 10
-214.2040917600409
 20
-14.49999999999983
 30
0.0
 11
-213.720255808441
 21
-14.49999999999983
 31
0.0
  0
CIRCLE
  5
23A30
  8
DETAIL
  6
CONTINUOUS
 62
     5
 10
-190.7702558084405
 20
106.1999999999998
 30
0.0
 40
1.6
  0
ARC
  5
23A31
  8
DETAIL
  6
CONTINUOUS
 62
     5
 10
-198.57025580844
 20
112.6999999999998
 30
0.0
 40
1.200000000000728
 50
180.0
 51
260.4059317730963
  0
LINE
  5
23A32
  8
DETAIL
  6
CONTINUOUS
 62
     5
 10
-199.1702558084409
 20
116.5
 30
0.0
 11
-199.7702558084405
 21
116.5
 31
0.0
  0
LINE
  5
23A33
  8
DETAIL
  6
CONTINUOUS
 62
     5
 10
-156.2304037500412
 20
-14.49999999999983
 30
0.0
 11
-156.3353093734399
 21
-20.50872810659962
 31
0.0
  0
LINE
  5
23A34
  8
DETAIL
  6
CONTINUOUS
 62
     5
 10
-215.142767765241
 20
-13.14999999999992
 30
0.0
 11
-214.7202558084412
 21
-13.14999999999992
 31
0.0
  0
LINE
  5
23A35
  8
DETAIL
  6
CONTINUOUS
 62
     5
 10
-28.37025580844102
 20
116.5
 30
0.0
 11
-27.77025580844065
 21
116.5
 31
0.0
  0
LINE
  5
23A36
  8
DETAIL
  6
CONTINUOUS
 62
     5
 10
-159.2294138930397
 20
-14.49999999999983
 30
0.0
 11
-159.337603565511
 21
-20.64342792167372
 31
0.0
  0
LINE
  5
23A37
  8
DETAIL
  6
CONTINUOUS
 62
     5
 10
-224.7738863280414
 20
-12.24999999999983
 30
0.0
 11
-223.7990182374398
 21
-12.24999999999983
 31
0.0
  0
ARC
  5
23A38
  8
DETAIL
  6
CONTINUOUS
 62
     5
 10
-186.7702558084405
 20
99.19999999999982
 30
0.0
 40
1.0
 50
0.0
 51
90.0
  0
LINE
  5
23A39
  8
DETAIL
  6
CONTINUOUS
 62
     5
 10
-169.9702558084405
 20
-14.49999999999983
 30
0.0
 11
-167.4607636856412
 21
-14.54380334799998
 31
0.0
  0
LINE
  5
23A3A
  8
BASIS
  6
DASHDOT
 62
     6
 10
193.829744191559
 20
121.1999999999998
 30
0.0
 11
327.2297441915596
 21
121.1999999999998
 31
0.0
  0
ARC
  5
23A3B
  8
DETAIL
  6
CONTINUOUS
 62
     5
 10
-181.6702558084403
 20
98.69999999999982
 30
0.0
 40
0.599999999999909
 50
90.0
 51
180.0
  0
LINE
  5
23A3C
  8
DETAIL
  6
CONTINUOUS
 62
     5
 10
-165.4803513218399
 20
-14.5783715743998
 30
0.0
 11
-162.9702558084414
 21
-14.62218545459973
 31
0.0
  0
ARC
  5
23A3D
  8
DETAIL
  6
CONTINUOUS
 62
     5
 10
-198.57025580844
 20
112.6999999999998
 30
0.0
 40
0.600000000001273
 50
180.0
 51
250.5287793654448
  0
ARC
  5
23A3E
  8
DETAIL
  6
CONTINUOUS
 62
     5
 10
-181.6702558084403
 20
98.69999999999982
 30
0.0
 40
0.299999999999955
 50
90.0
 51
180.0
  0
LINE
  5
23A3F
  8
DETAIL
  6
CONTINUOUS
 62
     5
 10
-50.0837137304411
 20
-14.49999999999983
 30
0.0
 11
-49.97025580844047
 21
-20.99999999999983
 31
0.0
  0
ARC
  5
23A40
  8
DETAIL
  6
CONTINUOUS
 62
     5
 10
-187.7423265916397
 20
133.0404160881999
 30
0.0
 40
1.999999999999674
 50
295.9743939623801
 51
340.9743939623876
  0
ARC
  5
23A41
  8
DETAIL
  6
CONTINUOUS
 62
     5
 10
-190.7702558084405
 20
118.7444584524
 30
0.0
 40
2.0
 50
0.0
 51
59.99999999999946
  0
LINE
  5
23A42
  8
DETAIL
  6
CONTINUOUS
 62
     5
 10
97.35608813675867
 20
-29.0
 30
0.0
 11
97.13440881215888
 21
-16.2999999999999
 31
0.0
  0
ARC
  5
23A43
  8
DETAIL
  6
CONTINUOUS
 62
     5
 10
-198.1702558084403
 20
125.499456602
 30
0.0
 40
0.6000000000001241
 50
160.9743939623887
 51
180.0
  0
LINE
  5
23A44
  8
DETAIL
  6
CONTINUOUS
 62
     5
 10
99.57776746135937
 20
-16.2999999999999
 30
0.0
 11
99.35608813675867
 21
-29.0
 31
0.0
  0
LINE
  5
23A45
  8
DETAIL
  6
CONTINUOUS
 62
     5
 10
-39.57025580843992
 20
78.10000000000042
 30
0.0
 11
-39.57025580843992
 21
73.40000000000009
 31
0.0
  0
LINE
  5
23A46
  8
DETAIL
  6
CONTINUOUS
 62
     5
 10
-39.57025580843992
 20
73.40000000000009
 30
0.0
 11
-39.57025580843992
 21
72.80000000000018
 31
0.0
  0
LINE
  5
23A47
  8
DETAIL
  6
CONTINUOUS
 62
     5
 10
290.2297441915596
 20
150.4000000000001
 30
0.0
 11
317.2297441915596
 21
150.4000000000001
 31
0.0
  0
LINE
  5
23A48
  8
DETAIL
  6
CONTINUOUS
 62
     5
 10
-38.77025580844065
 20
157.9715728751999
 30
0.0
 11
-38.77025580844065
 21
124.1284271248001
 31
0.0
  0
LINE
  5
23A49
  8
DETAIL
  6
CONTINUOUS
 62
     5
 10
112.6336050555594
 20
-22.00487338380003
 30
0.0
 11
112.5759182761597
 21
-18.69999999999999
 31
0.0
  0
LINE
  5
23A4A
  8
DETAIL
  6
CONTINUOUS
 62
     5
 10
-41.4676377480414
 20
62.30000000000018
 30
0.0
 11
-41.45018401244079
 21
64.30000000000018
 31
0.0
  0
LINE
  5
23A4B
  8
DETAIL
  6
CONTINUOUS
 62
     5
 10
113.1319958279593
 20
-18.69999999999999
 30
0.0
 11
113.1634149449585
 21
-20.5
 31
0.0
  0
ARC
  5
23A4C
  8
DETAIL
  6
CONTINUOUS
 62
     5
 10
-169.7702558084404
 20
111.1999999999998
 30
0.0
 40
1.0
 50
0.0
 51
90.0
  0
LINE
  5
23A4D
  8
DETAIL
  6
CONTINUOUS
 62
     5
 10
-49.97025580844047
 20
-20.99999999999983
 30
0.0
 11
-49.97913565724093
 21
-21.50872620319979
 31
0.0
  0
LINE
  5
23A4E
  8
DETAIL
  6
CONTINUOUS
 62
     5
 10
122.1795917631582
 20
-39.0
 30
0.0
 11
122.1741863579593
 21
-38.69029871999993
 31
0.0
  0
LINE
  5
23A4F
  8
DETAIL
  6
CONTINUOUS
 62
     5
 10
-121.5702558084408
 20
99.73990988079998
 30
0.0
 11
-121.5702558084408
 21
108.160090119
 31
0.0
  0
LINE
  5
23A50
  8
DETAIL
  6
CONTINUOUS
 62
     5
 10
124.2095313603597
 20
-29.0
 30
0.0
 11
124.0611633085584
 21
-20.5
 31
0.0
  0
ARC
  5
23A51
  8
DETAIL
  6
CONTINUOUS
 62
     5
 10
-161.6089751212407
 20
163.7555074368001
 30
0.0
 40
22.24534874120045
 50
167.2756349604012
 51
167.6853496928959
  0
LINE
  5
23A52
  8
DETAIL
  6
CONTINUOUS
 62
     5
 10
111.2297441915591
 20
-14.5
 30
0.0
 11
111.2297441915591
 21
-18.69999999999999
 31
0.0
  0
LINE
  5
23A53
  8
DETAIL
  6
CONTINUOUS
 62
     5
 10
-224.8648984804396
 20
-7.0359172707997
 30
0.0
 11
-202.9702558084404
 21
-14.49999999999983
 31
0.0
  0
ARC
  5
23A54
  8
DETAIL
  6
CONTINUOUS
 62
     5
 10
-175.8621864728404
 20
166.9690452874002
 30
0.0
 40
7.634366846599949
 50
166.6669543338049
 51
167.2395318159942
  0
LINE
  5
23A55
  8
DETAIL
  6
CONTINUOUS
 62
     5
 10
-53.92911454084106
 20
-20.99999999999983
 30
0.0
 11
-49.97025580844047
 21
-20.99999999999983
 31
0.0
  0
LINE
  5
23A56
  8
DETAIL
  6
CONTINUOUS
 62
     5
 10
-183.4402794278408
 20
168.2163881053998
 30
0.0
 11
-177.9809115738412
 21
157.0103172472
 31
0.0
  0
ARC
  5
23A57
  8
DETAIL
  6
CONTINUOUS
 62
     5
 10
-168.7702558084404
 20
165.0774999999999
 30
0.0
 40
6.522499999999794
 50
43.89739816710931
 51
136.1026018328949
  0
ARC
  5
23A58
  8
DETAIL
  6
CONTINUOUS
 62
     5
 10
-182.3351295932409
 20
170.0916921133999
 30
0.0
 40
2.161174580599041
 50
229.0876221230346
 51
229.6439726893097
  0
ARC
  5
23A59
  8
DETAIL
  6
CONTINUOUS
 62
     5
 10
-179.7788913114404
 20
156.1343784005999
 30
0.0
 40
2.000000000000501
 50
340.9743939624079
 51
25.97439396239565
  0
ARC
  5
23A5A
  8
DETAIL
  6
CONTINUOUS
 62
     5
 10
-183.3424822228413
 20
168.5
 30
0.0
 40
0.599999999999909
 50
90.0
 51
160.9743939623816
  0
ARC
  5
23A5B
  8
DETAIL
  6
CONTINUOUS
 62
     5
 10
-183.3424822228413
 20
168.5
 30
0.0
 40
0.300000000000182
 50
90.0
 51
160.9743939623563
  0
ARC
  5
23A5C
  8
DETAIL
  6
CONTINUOUS
 62
     5
 10
-33.12025580844011
 20
115.5225
 30
0.0
 40
6.522499999999633
 50
311.9452557855864
 51
316.1026018328907
  0
LINE
  5
23A5D
  8
DETAIL
  6
CONTINUOUS
 62
     5
 10
110.3932900523589
 20
-15.31745240639998
 30
0.0
 11
110.4075587371583
 21
-14.5
 31
0.0
  0
LINE
  5
23A5E
  8
DETAIL
  6
CONTINUOUS
 62
     5
 10
111.2297441915591
 20
-15.2999999999999
 30
0.0
 11
111.2437082435601
 21
-14.5
 31
0.0
  0
ARC
  5
23A5F
  8
DETAIL
  6
CONTINUOUS
 62
     5
 10
-71.57025580843992
 20
96.39999999999958
 30
0.0
 40
3.0
 50
0.0
 51
90.0
  0
LINE
  5
23A60
  8
DETAIL
  6
CONTINUOUS
 62
     5
 10
264.8297441915599
 20
153.9000000000001
 30
0.0
 11
286.7297441915596
 21
153.9000000000001
 31
0.0
  0
LINE
  5
23A61
  8
DETAIL
  6
CONTINUOUS
 62
     5
 10
255.3034647499587
 20
164.4000000000001
 30
0.0
 11
208.829744191559
 21
164.4000000000001
 31
0.0
  0
ARC
  5
23A62
  8
DETAIL
  6
CONTINUOUS
 62
     5
 10
-36.77025580844065
 20
124.1284271248001
 30
0.0
 40
2.0
 50
180.0
 51
224.9999999999908
  0
LINE
  5
23A63
  8
DETAIL
  6
CONTINUOUS
 62
     5
 10
-29.07025580843992
 20
168.5
 30
0.0
 11
-28.77025580844065
 21
168.5
 31
0.0
  0
LINE
  5
23A64
  8
DETAIL
  6
CONTINUOUS
 62
     5
 10
-183.3424822228413
 20
168.8000000000002
 30
0.0
 11
-183.2735167048398
 21
168.8000000000002
 31
0.0
  0
LINE
  5
23A65
  8
DETAIL
  6
CONTINUOUS
 62
     5
 10
-28.42025580844029
 20
169.0999999999999
 30
0.0
 11
-29.37025580844011
 21
169.0999999999999
 31
0.0
  0
ARC
  5
23A66
  8
DETAIL
  6
CONTINUOUS
 62
     5
 10
-28.97025580844047
 20
112.6999999999998
 30
0.0
 40
1.199999999999862
 50
279.5974133171987
 51
0.0
  0
LINE
  5
23A67
  8
DETAIL
  6
CONTINUOUS
 62
     5
 10
-31.8279330802402
 20
169.0999999999999
 30
0.0
 11
-34.41257853664092
 21
169.0999999999999
 31
0.0
  0
ARC
  5
23A68
  8
DETAIL
  6
CONTINUOUS
 62
     5
 10
-80.57025580843992
 20
108.160090119
 30
0.0
 40
1.000000000000019
 50
109.9999999999892
 51
180.0
  0
LINE
  5
23A69
  8
DETAIL
  6
CONTINUOUS
 62
     5
 10
-167.4779330802407
 20
169.0999999999999
 30
0.0
 11
-170.0625785366415
 21
169.0999999999999
 31
0.0
  0
ARC
  5
23A6A
  8
DETAIL
  6
CONTINUOUS
 62
     5
 10
-122.5702558084399
 20
99.73990988079998
 30
0.0
 40
0.999999999999494
 50
289.9999999999314
 51
0.0
  0
LINE
  5
23A6B
  8
DETAIL
  6
CONTINUOUS
 62
     5
 10
-183.3424822228413
 20
169.0999999999999
 30
0.0
 11
-170.0625785366415
 21
169.0999999999999
 31
0.0
  0
ARC
  5
23A6C
  8
DETAIL
  6
CONTINUOUS
 62
     5
 10
-122.5702558084399
 20
108.160090119
 30
0.0
 40
0.9999999999990908
 50
0.0
 51
70.00000000006806
  0
LINE
  5
23A6D
  8
DETAIL
  6
CONTINUOUS
 62
     5
 10
-167.4779330802407
 20
169.0999999999999
 30
0.0
 11
-34.41257853664092
 21
169.0999999999999
 31
0.0
  0
ARC
  5
23A6E
  8
DETAIL
  6
CONTINUOUS
 62
     5
 10
-72.47025580844047
 20
112.5
 30
0.0
 40
0.9000000000005458
 50
0.0
 51
90.0
  0
LINE
  5
23A6F
  8
DETAIL
  6
CONTINUOUS
 62
     5
 10
-31.8279330802402
 20
169.0999999999999
 30
0.0
 11
-29.37025580844011
 21
169.0999999999999
 31
0.0
  0
ARC
  5
23A70
  8
DETAIL
  6
CONTINUOUS
 62
     5
 10
-28.97025580844047
 20
112.6999999999998
 30
0.0
 40
0.599999999999746
 50
289.4751803727299
 51
0.0
  0
LINE
  5
23A71
  8
DETAIL
  6
CONTINUOUS
 62
     5
 10
-28.42025580844029
 20
169.5999999999999
 30
0.0
 11
-37.82025580843992
 21
169.5999999999999
 31
0.0
  0
ARC
  5
23A72
  8
DETAIL
  6
CONTINUOUS
 62
     5
 10
-72.47025580844047
 20
112.5
 30
0.0
 40
0.300000000000182
 50
0.0
 51
90.0
  0
LINE
  5
23A73
  8
DETAIL
  6
CONTINUOUS
 62
     5
 10
-31.07555325903968
 20
62.3000049446
 30
0.0
 11
-31.10416381743971
 21
64.30000000000018
 31
0.0
  0
LINE
  5
23A74
  8
DETAIL
  6
CONTINUOUS
 62
     5
 10
-164.0702558084399
 20
169.5999999999999
 30
0.0
 11
-173.4702558084413
 21
169.5999999999999
 31
0.0
  0
LINE
  5
23A75
  8
DETAIL
  6
CONTINUOUS
 62
     5
 10
-81.57025580843992
 20
78.93990988079992
 30
0.0
 11
-81.57025580843992
 21
108.160090119
 31
0.0
  0
LINE
  5
23A76
  8
DETAIL
  6
CONTINUOUS
 62
     5
 10
290.2297441915596
 20
170.1999999999998
 30
0.0
 11
317.2297441915596
 21
170.1999999999998
 31
0.0
  0
LINE
  5
23A77
  8
DETAIL
  6
CONTINUOUS
 62
     5
 10
264.8297441915599
 20
173.6999999999998
 30
0.0
 11
286.7297441915596
 21
173.6999999999998
 31
0.0
  0
ARC
  5
23A78
  8
DETAIL
  6
CONTINUOUS
 62
     5
 10
-33.12025580844011
 20
165.0774999999999
 30
0.0
 40
6.522499999999794
 50
43.89739816710931
 51
136.1026018328949
  0
LINE
  5
23A79
  8
DETAIL
  6
CONTINUOUS
 62
     5
 10
-231.970255808441
 20
-28.99999999999983
 30
0.0
 11
-226.7331016682402
 21
-23.28674093799958
 31
0.0
  0
ARC
  5
23A7A
  8
DETAIL
  6
CONTINUOUS
 62
     5
 10
-36.77025580844065
 20
157.9715728751999
 30
0.0
 40
2.000000000000338
 50
135.0000000000092
 51
180.0
  0
LINE
  5
23A7B
  8
DETAIL
  6
CONTINUOUS
 62
     5
 10
-186.866387745041
 20
131.2424363504001
 30
0.0
 11
-198.0471249997101
 21
125.7954105084735
 31
0.0
  0
ARC
  5
23A7C
  8
DETAIL
  6
CONTINUOUS
 62
     5
 10
-29.37025580844011
 20
168.5
 30
0.0
 40
0.599999999999454
 50
0.0
 51
90.0
  0
LINE
  5
23A7D
  8
DETAIL
  6
CONTINUOUS
 62
     5
 10
136.6297441915592
 20
186.5
 30
0.0
 11
136.6297441915592
 21
186.1999999999997
 31
0.0
  0
ARC
  5
23A7E
  8
DETAIL
  6
CONTINUOUS
 62
     5
 10
-26.37025580844011
 20
185.3000000000001
 30
0.0
 40
0.600000000000579
 50
120.03829733685
 51
149.9617026633177
  0
LINE
  5
23A7F
  8
DETAIL
  6
CONTINUOUS
 62
     5
 10
191.880485165759
 20
-39.0
 30
0.0
 11
234.6799269523592
 21
-39.0
 31
0.0
  0
LINE
  5
23A80
  8
DETAIL
  6
CONTINUOUS
 62
     5
 10
191.5872029835592
 20
-38.70215289380013
 30
0.0
 11
122.4722853995593
 21
-38.70215289380013
 31
0.0
  0
LINE
  5
23A81
  8
DETAIL
  6
CONTINUOUS
 62
     5
 10
122.1741863201589
 20
-38.69029871999993
 30
0.0
 11
191.8853020631589
 21
-38.69029871999993
 31
0.0
  0
LINE
  5
23A82
  8
DETAIL
  6
CONTINUOUS
 62
     5
 10
125.25992393196
 20
66.0
 30
0.0
 11
125.2808700097587
 21
67.19999999999982
 31
0.0
  0
LINE
  5
23A83
  8
DETAIL
  6
CONTINUOUS
 62
     5
 10
125.6170195161587
 20
-24.2999999999999
 30
0.0
 11
125.5349807111591
 21
-29.0
 31
0.0
  0
LINE
  5
23A84
  8
DETAIL
  6
CONTINUOUS
 62
     5
 10
255.3034647499587
 20
184.1999999999997
 30
0.0
 11
208.829744191559
 21
184.1999999999997
 31
0.0
  0
LINE
  5
23A85
  8
DETAIL
  6
CONTINUOUS
 62
     5
 10
199.829744191559
 20
185.5
 30
0.0
 11
199.3297441915599
 21
185.5
 31
0.0
  0
ARC
  5
23A86
  8
DETAIL
  6
CONTINUOUS
 62
     5
 10
-29.37025580844011
 20
168.5
 30
0.0
 40
0.300000000000182
 50
0.0
 51
90.0
  0
LINE
  5
23A87
  8
DETAIL
  6
CONTINUOUS
 62
     5
 10
-26.6702558084412
 20
185.5999999999999
 30
0.0
 11
-27.27025580844065
 21
185.5999999999999
 31
0.0
  0
ARC
  5
23A88
  8
DETAIL
  6
CONTINUOUS
 62
     5
 10
112.9128010293591
 20
-30.0
 30
0.0
 40
8.000000000000451
 50
35.53767779200415
 51
92.00000000000352
  0
LINE
  5
23A89
  8
DETAIL
  6
CONTINUOUS
 62
     5
 10
146.0297441915588
 20
186.5
 30
0.0
 11
136.6297441915592
 21
186.5
 31
0.0
  0
ARC
  5
23A8A
  8
DETAIL
  6
CONTINUOUS
 62
     5
 10
109.3934423571584
 20
-15.2999999999999
 30
0.0
 40
1.0
 50
270.0
 51
358.9999999999986
  0
LINE
  5
23A8B
  8
DETAIL
  6
CONTINUOUS
 62
     5
 10
199.829744191559
 20
187.3000000000001
 30
0.0
 11
198.0611633085589
 21
187.3000000000001
 31
0.0
  0
LINE
  5
23A8C
  8
DETAIL
  6
CONTINUOUS
 62
     5
 10
195.5297441915588
 20
190.5
 30
0.0
 11
197.3297441915599
 21
190.5
 31
0.0
  0
LINE
  5
23A8D
  8
DETAIL
  6
CONTINUOUS
 62
     5
 10
198.3033397325596
 20
192.8679491923999
 30
0.0
 11
203.0297441915588
 21
192.8679491923999
 31
0.0
  0
LINE
  5
23A8E
  8
DETAIL
  6
CONTINUOUS
 62
     5
 10
-12.67025580844029
 20
194.1999999999997
 30
0.0
 11
-13.47025580844138
 21
194.1999999999997
 31
0.0
  0
LINE
  5
23A8F
  8
DETAIL
  6
CONTINUOUS
 62
     5
 10
203.0297441915588
 20
194.1999999999997
 30
0.0
 11
204.8297441915599
 21
194.1999999999997
 31
0.0
  0
ARC
  5
23A90
  8
DETAIL
  6
CONTINUOUS
 62
     5
 10
201.1466873539587
 20
-30.0
 30
0.0
 40
8.000000000000153
 50
87.9999999999964
 51
144.4623222079959
  0
LINE
  5
23A91
  8
DETAIL
  6
CONTINUOUS
 62
     5
 10
210.4197346921585
 20
-14.5
 30
0.0
 11
218.1390654641584
 21
-27.0
 31
0.0
  0
LINE
  5
23A92
  8
DETAIL
  6
CONTINUOUS
 62
     5
 10
150.7611633085592
 20
-20.5
 30
0.0
 11
150.8274925551589
 21
-24.2999999999999
 31
0.0
  0
LINE
  5
23A93
  8
DETAIL
  6
CONTINUOUS
 62
     5
 10
146.0297441915588
 20
186.5
 30
0.0
 11
146.0297441915588
 21
186.1999999999997
 31
0.0
  0
ARC
  5
23A94
  8
DETAIL
  6
CONTINUOUS
 62
     5
 10
205.829744191559
 20
1.0
 30
0.0
 40
1.99999999999909
 50
180.0
 51
181.4398160037013
  0
LINE
  5
23A95
  8
DETAIL
  6
CONTINUOUS
 62
     5
 10
-198.0657341727286
 20
125.2659059266862
 30
0.0
 11
-189.7702558084405
 21
120.4765092600001
 31
0.0
  0
ARC
  5
23A96
  8
DETAIL
  6
CONTINUOUS
 62
     5
 10
202.726800466359
 20
0.1999999999998181
 30
0.0
 40
1.199999999999892
 50
260.5365669279349
 51
270.0
  0
LINE
  5
23A97
  8
DETAIL
  6
CONTINUOUS
 62
     5
 10
-37.82025580843992
 20
169.5999999999999
 30
0.0
 11
-37.82025580843992
 21
169.0999999999999
 31
0.0
  0
LINE
  5
23A98
  8
DETAIL
  6
CONTINUOUS
 62
     5
 10
163.2983250747586
 20
-20.5
 30
0.0
 11
163.2319958279597
 21
-24.2999999999999
 31
0.0
  0
ARC
  5
23A99
  8
DETAIL
  6
CONTINUOUS
 62
     5
 10
205.829744191559
 20
1.0
 30
0.0
 40
0.9999999999990908
 50
180.0
 51
182.8842800711924
  0
LINE
  5
23A9A
  8
DETAIL
  6
CONTINUOUS
 62
     5
 10
-34.57025580844083
 20
79.09999999999991
 30
0.0
 11
-34.57025580844083
 21
76.40000000000009
 31
0.0
  0
LINE
  5
23A9B
  8
DETAIL
  6
CONTINUOUS
 62
     5
 10
201.6120965663594
 20
195.4
 30
0.0
 11
202.2297441915596
 21
195.4
 31
0.0
  0
ARC
  5
23A9C
  8
DETAIL
  6
CONTINUOUS
 62
     5
 10
234.6799269523592
 20
-38.0
 30
0.0
 40
1.0
 50
270.0
 51
358.0000000000093
  0
LINE
  5
23A9D
  8
DETAIL
  6
CONTINUOUS
 62
     5
 10
-32.80012253864106
 20
75.0
 30
0.0
 11
-32.80012253864106
 21
72.80000000000018
 31
0.0
  0
LINE
  5
23A9E
  8
DETAIL
  6
CONTINUOUS
 62
     5
 10
204.329744191559
 20
196.1999999999997
 30
0.0
 11
203.8297441915599
 21
196.1999999999997
 31
0.0
  0
ARC
  5
23A9F
  8
DETAIL
  6
CONTINUOUS
 62
     5
 10
235.5119790347592
 20
-29.5
 30
0.0
 40
0.499999999999924
 50
357.9999999999961
 51
90.0
  0
ARC
  5
23AA0
  8
DETAIL
  6
CONTINUOUS
 62
     5
 10
224.5209404951598
 20
-1.5
 30
0.0
 40
0.5000000000002341
 50
358.999999999999
 51
90.0
  0
LINE
  5
23AA1
  8
DETAIL
  6
CONTINUOUS
 62
     5
 10
-29.37025580844011
 20
168.1999999999998
 30
0.0
 11
-29.37025580844011
 21
169.0999999999999
 31
0.0
  0
ARC
  5
23AA2
  8
DETAIL
  6
CONTINUOUS
 62
     5
 10
255.303464598959
 20
44.40000000000009
 30
0.0
 40
6.000000000000168
 50
270.0025478583195
 51
330.0000007125084
  0
LINE
  5
23AA3
  8
DETAIL
  6
CONTINUOUS
 62
     5
 10
-28.77025580844065
 20
168.5
 30
0.0
 11
-28.77025580844065
 21
113.5999999999999
 31
0.0
  0
LINE
  5
23AA4
  8
DETAIL
  6
CONTINUOUS
 62
     5
 10
-28.77025580844065
 20
76.5
 30
0.0
 11
-28.77025580844065
 21
80.10000000000042
 31
0.0
  0
LINE
  5
23AA5
  8
DETAIL
  6
CONTINUOUS
 62
     5
 10
201.6120965663594
 20
196.1999999999997
 30
0.0
 11
202.2297441915596
 21
196.1999999999997
 31
0.0
  0
LINE
  5
23AA6
  8
DETAIL
  6
CONTINUOUS
 62
     5
 10
-28.77025580844065
 20
80.10000000000042
 30
0.0
 11
-28.77025580844065
 21
112.0999999999999
 31
0.0
  0
ARC
  5
23AA7
  8
DETAIL
  6
CONTINUOUS
 62
     5
 10
185.3297441915599
 20
66.19999999999982
 30
0.0
 40
3.0
 50
270.0
 51
0.0
  0
LINE
  5
23AA8
  8
DETAIL
  6
CONTINUOUS
 62
     5
 10
-28.77025580844065
 20
112.0999999999999
 30
0.0
 11
-28.77025580844065
 21
113.5999999999999
 31
0.0
  0
LINE
  5
23AA9
  8
DETAIL
  6
CONTINUOUS
 62
     5
 10
233.2297441915591
 20
-29.0
 30
0.0
 11
223.2896887899603
 21
-9.509695290799982
 31
0.0
  0
LINE
  5
23AAA
  8
DETAIL
  6
CONTINUOUS
 62
     5
 10
-28.42025580844029
 20
169.5999999999999
 30
0.0
 11
-28.42025580844029
 21
169.0999999999999
 31
0.0
  0
LINE
  5
23AAB
  8
DETAIL
  6
CONTINUOUS
 62
     5
 10
-28.42025580844029
 20
111.0
 30
0.0
 11
-28.42025580844029
 21
111.5
 31
0.0
  0
LINE
  5
23AAC
  8
DETAIL
  6
CONTINUOUS
 62
     5
 10
-28.37025580844102
 20
112.6999999999998
 30
0.0
 11
-28.37025580844102
 21
116.5
 31
0.0
  0
ARC
  5
23AAD
  8
DETAIL
  6
CONTINUOUS
 62
     5
 10
188.7297441915596
 20
60.90000000000009
 30
0.0
 40
1.100000000000364
 50
0.0
 51
90.0
  0
LINE
  5
23AAE
  8
DETAIL
  6
CONTINUOUS
 62
     5
 10
-27.77025580844065
 20
112.6999999999998
 30
0.0
 11
-27.77025580844065
 21
116.5
 31
0.0
  0
LINE
  5
23AAF
  8
DETAIL
  6
CONTINUOUS
 62
     5
 10
-27.27025580844065
 20
63.19999999999982
 30
0.0
 11
-27.27025580844065
 21
185.5999999999999
 31
0.0
  0
LINE
  5
23AB0
  8
DETAIL
  6
CONTINUOUS
 62
     5
 10
-26.97025580844138
 20
63.19999999999982
 30
0.0
 11
-26.97025580844138
 21
67.19999999999982
 31
0.0
  0
ARC
  5
23AB1
  8
DETAIL
  6
CONTINUOUS
 62
     5
 10
189.329744191559
 20
66.19999999999982
 30
0.0
 40
1.0
 50
90.0
 51
180.0
  0
LINE
  5
23AB2
  8
DETAIL
  6
CONTINUOUS
 62
     5
 10
-26.6702558084412
 20
67.19999999999982
 30
0.0
 11
-26.6702558084412
 21
63.90000000000009
 31
0.0
  0
LINE
  5
23AB3
  8
DETAIL
  6
CONTINUOUS
 62
     5
 10
188.5245076721596
 20
-29.0
 30
0.0
 11
188.4424688669599
 21
-24.2999999999999
 31
0.0
  0
ARC
  5
23AB4
  8
DETAIL
  6
CONTINUOUS
 62
     5
 10
192.0297441915588
 20
63.0
 30
0.0
 40
0.6999999999999371
 50
205.3846622578882
 51
270.0
  0
LINE
  5
23AB5
  8
DETAIL
  6
CONTINUOUS
 62
     5
 10
-26.6702558084412
 20
185.5999999999999
 30
0.0
 11
-26.6702558084412
 21
186.1999999999997
 31
0.0
  0
LINE
  5
23AB6
  8
DETAIL
  6
CONTINUOUS
 62
     5
 10
197.7580032049598
 20
62.69999999999982
 30
0.0
 11
197.7649852309603
 21
62.30000000000018
 31
0.0
  0
ARC
  5
23AB7
  8
DETAIL
  6
CONTINUOUS
 62
     5
 10
199.2297441915596
 20
61.69999999999982
 30
0.0
 40
0.599999999999454
 50
0.0
 51
90.0
  0
LINE
  5
23AB8
  8
DETAIL
  6
CONTINUOUS
 62
     5
 10
-32.77025580844065
 20
73.19999999999982
 30
0.0
 11
-32.71277395964125
 21
76.49313290579988
 31
0.0
  0
LINE
  5
23AB9
  8
DETAIL
  6
CONTINUOUS
 62
     5
 10
207.3997904761584
 20
-24.74993744379998
 30
0.0
 11
207.2208771525586
 21
-14.5
 31
0.0
  0
ARC
  5
23ABA
  8
DETAIL
  6
CONTINUOUS
 62
     5
 10
199.2297441915596
 20
61.69999999999982
 30
0.0
 40
0.299999999999272
 50
0.0
 51
90.0
  0
LINE
  5
23ABB
  8
DETAIL
  6
CONTINUOUS
 62
     5
 10
196.4974052563591
 20
62.30000000000018
 30
0.0
 11
196.49391450916
 21
62.69999999999982
 31
0.0
  0
LINE
  5
23ABC
  8
DETAIL
  6
CONTINUOUS
 62
     5
 10
-26.07025580843992
 20
62.69999999999982
 30
0.0
 11
-25.99170801624086
 21
67.19999999999982
 31
0.0
  0
LINE
  5
23ABD
  8
DETAIL
  6
CONTINUOUS
 62
     5
 10
-23.57971658744054
 20
62.69999999999982
 30
0.0
 11
-23.37025580844011
 21
74.69999999999982
 31
0.0
  0
LINE
  5
23ABE
  8
DETAIL
  6
CONTINUOUS
 62
     5
 10
189.8297441915599
 20
29.0
 30
0.0
 11
189.8297441915599
 21
60.90000000000009
 31
0.0
  0
LINE
  5
23ABF
  8
DETAIL
  6
CONTINUOUS
 62
     5
 10
-17.27215700404076
 20
186.1999999999997
 30
0.0
 11
-17.25819295204064
 21
187.0
 31
0.0
  0
LINE
  5
23AC0
  8
DETAIL
  6
CONTINUOUS
 62
     5
 10
189.8297441915599
 20
62.69999999999982
 30
0.0
 11
189.8297441915599
 21
74.69999999999982
 31
0.0
  0
LINE
  5
23AC1
  8
DETAIL
  6
CONTINUOUS
 62
     5
 10
195.5297441915588
 20
186.1999999999997
 30
0.0
 11
195.5297441915588
 21
190.5
 31
0.0
  0
LINE
  5
23AC2
  8
DETAIL
  6
CONTINUOUS
 62
     5
 10
197.3297441915599
 20
186.1999999999997
 30
0.0
 11
197.3297441915599
 21
190.5
 31
0.0
  0
ARC
  5
23AC3
  8
DETAIL
  6
CONTINUOUS
 62
     5
 10
48.82974419155994
 20
194.5439999999999
 30
0.0
 40
5.5
 50
90.0
 51
162.4768625697965
  0
LINE
  5
23AC4
  8
DETAIL
  6
CONTINUOUS
 62
     5
 10
118.829710135559
 20
200.0439999999999
 30
0.0
 11
48.82977824755994
 21
200.0439999999999
 31
0.0
  0
LINE
  5
23AC5
  8
DETAIL
  6
CONTINUOUS
 62
     5
 10
124.3297441915599
 20
190.8000000000002
 30
0.0
 11
124.3297441915599
 21
194.5439999999999
 31
0.0
  0
ARC
  5
23AC6
  8
DETAIL
  6
CONTINUOUS
 62
     5
 10
118.829744191559
 20
194.5439999999999
 30
0.0
 40
5.500000000000909
 50
0.0
 51
90.0
  0
LINE
  5
23AC7
  8
NOTE
  6
DASHDOT
 62
     4
 10
141.3145912589719
 20
110.1006794403643
 30
0.0
 11
141.3145912589719
 21
88.099320559636
 31
0.0
  0
LINE
  5
23AC8
  8
NOTE
  6
DASHDOT
 62
     4
 10
130.3139118186079
 20
99.10000000000042
 30
0.0
 11
152.3152706993362
 21
99.10000000000042
 31
0.0
  0
CIRCLE
  5
23AC9
  8
FIX
  6
CONTINUOUS
 62
    11
 10
141.3145912589721
 20
99.10000000000042
 30
0.0
 40
6.000679440364053
  0
LINE
  5
23ACA
  8
NOTE
  6
DASHDOT
 62
     4
 10
-138.3170706619942
 20
110.1006794403643
 30
0.0
 11
-138.3170706619942
 21
88.099320559636
 31
0.0
  0
LINE
  5
23ACB
  8
NOTE
  6
DASHDOT
 62
     4
 10
-149.3177501023582
 20
99.10000000000008
 30
0.0
 11
-127.3163912216302
 21
99.10000000000008
 31
0.0
  0
CIRCLE
  5
23ACC
  8
FIX
  6
CONTINUOUS
 62
    11
 10
-138.3170706619942
 20
99.10000000000042
 30
0.0
 40
6.000679440364053
  0
CIRCLE
  5
23ACD
  8
FIX
  6
CONTINUOUS
 62
    11
 10
212.0205181146564
 20
0.0
 30
0.0
 40
2.311316402980934
  0
LINE
  5
23ACE
  8
NOTE
  6
DASHDOT
 62
     4
 10
204.7092017116754
 20
0.0
 30
0.0
 11
219.3318345176374
 21
0.0
 31
0.0
  0
LINE
  5
23ACF
  8
NOTE
  6
DASHDOT
 62
     4
 10
212.0205181146564
 20
-7.311316402980992
 30
0.0
 11
212.0205181146564
 21
7.311316402980992
 31
0.0
  0
CIRCLE
  5
23AD0
  8
FIX
  6
CONTINUOUS
 62
    11
 10
132.51282382166
 20
0.0
 30
0.0
 40
2.311316402980934
  0
LINE
  5
23AD1
  8
NOTE
  6
DASHDOT
 62
     4
 10
125.2015074186791
 20
0.0
 30
0.0
 11
139.824140224641
 21
0.0
 31
0.0
  0
LINE
  5
23AD2
  8
NOTE
  6
DASHDOT
 62
     4
 10
132.51282382166
 20
-7.311316402980992
 30
0.0
 11
132.51282382166
 21
7.311316402980992
 31
0.0
  0
CIRCLE
  5
23AD3
  8
FIX
  6
CONTINUOUS
 62
    11
 10
-0.0000000000002274
 20
0.0
 30
0.0
 40
2.311316402980934
  0
LINE
  5
23AD4
  8
FIX
  6
DASHDOT
 62
    11
 10
-7.31131640298122
 20
0.0
 30
0.0
 11
7.311316402980765
 21
0.0
 31
0.0
  0
LINE
  5
23AD5
  8
FIX
  6
DASHDOT
 62
    11
 10
0.0
 20
-7.311316402980992
 30
0.0
 11
-0.0000000000002274
 21
7.311316402980992
 31
0.0
  0
CIRCLE
  5
23AD6
  8
FIX
  6
CONTINUOUS
 62
    11
 10
-132.51282382166
 20
0.0
 30
0.0
 40
2.311316402980934
  0
LINE
  5
23AD7
  8
NOTE
  6
DASHDOT
 62
     4
 10
-139.824140224641
 20
0.0
 30
0.0
 11
-125.2015074186791
 21
0.0
 31
0.0
  0
LINE
  5
23AD8
  8
NOTE
  6
DASHDOT
 62
     4
 10
-132.51282382166
 20
-7.311316402980992
 30
0.0
 11
-132.51282382166
 21
7.311316402980992
 31
0.0
  0
CIRCLE
  5
23AD9
  8
FIX
  6
CONTINUOUS
 62
    11
 10
-212.0205181146559
 20
0.0
 30
0.0
 40
2.311316402980934
  0
LINE
  5
23ADA
  8
NOTE
  6
DASHDOT
 62
     4
 10
-219.3318345176369
 20
0.0
 30
0.0
 11
-204.709201711675
 21
0.0
 31
0.0
  0
LINE
  5
23ADB
  8
NOTE
  6
DASHDOT
 62
     4
 10
-212.0205181146559
 20
-7.311316402980992
 30
0.0
 11
-212.0205181146559
 21
7.311316402980992
 31
0.0
  0
LINE
  5
23ADC
  8
NOTE
  6
DASHDOT
 62
     4
 10
-0.0000000000002274
 20
7.311316402980992
 30
0.0
 11
-0.0000000000002274
 21
-7.311316402980822
 31
0.0
  0
LINE
  5
23ADD
  8
NOTE
  6
DASHDOT
 62
     4
 10
-7.31131640298122
 20
0.0
 30
0.0
 11
7.311316402980765
 21
0.0
 31
0.0
  0
CIRCLE
  5
23ADE
  8
FIX
  6
CONTINUOUS
 62
    11
 10
-0.0000000000002274
 20
0.0
 30
0.0
 40
2.311316402980934
  0
LINE
  5
23ADF
  8
SIZE
  6
CONTINUOUS
 62
    30
 10
212.0205181146564
 20
-27.31131640298099
 30
0.0
 11
212.0205181146564
 21
-459.2125918667076
 31
0.0
  0
LINE
  5
23AE0
  8
SIZE
  6
CONTINUOUS
 62
    30
 10
-212.0205181146559
 20
-27.31131640298099
 30
0.0
 11
-212.0205181146559
 21
-459.2125918667076
 31
0.0
  0
LINE
  5
23AE1
  8
SIZE
  6
CONTINUOUS
 62
    30
 10
-200.0205181146559
 20
-439.2125918667074
 30
0.0
 11
200.0205181146564
 21
-439.2125918667074
 31
0.0
  0
LINE
  5
23AE2
  8
SIZE
  6
CONTINUOUS
 62
    30
 10
212.0205181146564
 20
-439.2125918667074
 30
0.0
 11
901.1846501121106
 21
-439.2125918667074
 31
0.0
  0
CIRCLE
  5
23AE3
  8
SIZE
  6
CONTINUOUS
 62
    30
 10
-212.0205181146559
 20
-439.2125918667074
 30
0.0
 40
6.0
  0
LINE
  5
23AE4
  8
SIZE
  6
CONTINUOUS
 62
    30
 10
-212.0205181146559
 20
-439.2125918667074
 30
0.0
 11
-200.0205181146559
 21
-439.2125918667074
 31
0.0
  0
CIRCLE
  5
23AE5
  8
SIZE
  6
CONTINUOUS
 62
    30
 10
212.0205181146564
 20
-439.2125918667074
 30
0.0
 40
6.0
  0
LINE
  5
23AE6
  8
SIZE
  6
CONTINUOUS
 62
    30
 10
212.0205181146564
 20
-439.2125918667074
 30
0.0
 11
200.0205181146564
 21
-439.2125918667074
 31
0.0
  0
TEXT
  5
23AE7
  8
SIZE
  6
CONTINUOUS
 62
    30
 10
319.9332215406822
 20
-414.2125918667076
 30
0.0
 40
64.0
  1
424（本体据付穴）
 41
0.9
 72
     1
 11
575.0189358263965
 21
-414.2125918667076
 31
0.0
  0
POINT
  5
23AE8
  8
DEFPOINTS
  6
CONTINUOUS
 62
    30
 10
212.0205181146564
 20
-7.311316402980992
 30
0.0
  0
POINT
  5
23AE9
  8
DEFPOINTS
  6
CONTINUOUS
 62
    30
 10
-212.0205181146559
 20
-7.311316402980992
 30
0.0
  0
POINT
  5
23AEA
  8
DEFPOINTS
  6
CONTINUOUS
 62
    30
 10
-212.0205181146559
 20
-439.2125918667074
 30
0.0
  0
TEXT
  5
23AEB
  8
NOTE
  6
CONTINUOUS
 62
     4
 10
375.3028874181446
 20
410.0272734750337
 30
0.0
 40
64.0
  1
AH　4
 41
0.9
  0
LINE
  5
23AEC
  8
NOTE
  6
CONTINUOUS
 62
     4
 39
50.0
 10
362.0120340304306
 20
392.1684040869461
 30
0.0
 11
624.5635685315096
 21
392.2705165206414
 31
0.0
  0
LINE
  5
23AED
  8
NOTE
  6
CONTINUOUS
 62
     4
 39
50.0
 10
362.0120340304306
 20
392.1684040869461
 30
0.0
 11
142.7630466477294
 21
102.0994495129335
 31
0.0
  0
LINE
  5
23AEE
  8
NOTE
  6
CONTINUOUS
 62
     4
 39
50.0
 10
142.7630466477294
 20
102.0994495129335
 30
0.0
 11
153.9987539886954
 21
110.6284584967427
 31
0.0
  0
LINE
  5
23AEF
  8
NOTE
  6
CONTINUOUS
 62
     4
 39
50.0
 10
142.7630466477294
 20
102.0994495129335
 30
0.0
 11
145.3053695447181
 21
115.190900320111
 31
0.0
  0
LINE
  5
23AF0
  8
SIZE
  6
CONTINUOUS
 62
    30
 10
337.2297441915596
 20
150.4
 30
0.0
 11
829.1285414905676
 21
150.3999999999999
 31
0.0
  0
LINE
  5
23AF1
  8
SIZE
  6
CONTINUOUS
 62
    30
 10
337.2297441915596
 20
52.40000000000009
 30
0.0
 11
829.1285414905676
 21
52.39999999999998
 31
0.0
  0
LINE
  5
23AF2
  8
SIZE
  6
CONTINUOUS
 62
    30
 10
809.1285414905676
 20
64.39999999999998
 30
0.0
 11
809.1285414905676
 21
138.3999999999999
 31
0.0
  0
LINE
  5
23AF3
  8
SIZE
  6
CONTINUOUS
 62
    30
 10
809.1285414905676
 20
150.3999999999999
 30
0.0
 11
809.1285414905676
 21
386.2006129444514
 31
0.0
  0
CIRCLE
  5
23AF4
  8
SIZE
  6
CONTINUOUS
 62
    30
 10
809.1285414905676
 20
52.39999999999998
 30
0.0
 40
6.0
  0
LINE
  5
23AF5
  8
SIZE
  6
CONTINUOUS
 62
    30
 10
809.1285414905676
 20
52.39999999999998
 30
0.0
 11
809.1285414905676
 21
64.39999999999998
 31
0.0
  0
CIRCLE
  5
23AF6
  8
SIZE
  6
CONTINUOUS
 62
    30
 10
809.1285414905676
 20
150.3999999999999
 30
0.0
 40
6.0
  0
LINE
  5
23AF7
  8
SIZE
  6
CONTINUOUS
 62
    30
 10
809.1285414905676
 20
150.3999999999999
 30
0.0
 11
809.1285414905676
 21
138.3999999999999
 31
0.0
  0
TEXT
  5
23AF8
  8
SIZE
  6
CONTINUOUS
 62
    30
 10
773.6374481973005
 20
206.3448225593386
 30
0.0
 40
64.0
  1
φ98
 50
90.0
 41
0.9
 72
     1
 11
773.6374481973005
 21
285.8876797021958
 31
0.0
  0
POINT
  5
23AF9
  8
DEFPOINTS
  6
CONTINUOUS
 62
    30
 10
317.2297441915596
 20
150.4000000000001
 30
0.0
  0
POINT
  5
23AFA
  8
DEFPOINTS
  6
CONTINUOUS
 62
    30
 10
317.2297441915596
 20
52.40000000000009
 30
0.0
  0
POINT
  5
23AFB
  8
DEFPOINTS
  6
CONTINUOUS
 62
    30
 10
809.1285414905676
 20
52.39999999999998
 30
0.0
  0
LINE
  5
23AFC
  8
SIZE
  6
CONTINUOUS
 62
    30
 10
306.7297441915596
 20
153.9000000000001
 30
0.0
 11
1002.188283178567
 21
153.8999999999999
 31
0.0
  0
LINE
  5
23AFD
  8
SIZE
  6
CONTINUOUS
 62
    30
 10
306.7297441915596
 20
48.90000000000009
 30
0.0
 11
1002.188283178567
 21
48.89999999999992
 31
0.0
  0
LINE
  5
23AFE
  8
SIZE
  6
CONTINUOUS
 62
    30
 10
982.1882831785665
 20
60.89999999999992
 30
0.0
 11
982.1882831785665
 21
141.8999999999999
 31
0.0
  0
LINE
  5
23AFF
  8
SIZE
  6
CONTINUOUS
 62
    30
 10
982.1882831785665
 20
153.8999999999999
 30
0.0
 11
982.1882831785665
 21
413.385714285714
 31
0.0
  0
CIRCLE
  5
23B00
  8
SIZE
  6
CONTINUOUS
 62
    30
 10
982.1882831785665
 20
48.89999999999992
 30
0.0
 40
6.0
  0
LINE
  5
23B01
  8
SIZE
  6
CONTINUOUS
 62
    30
 10
982.1882831785665
 20
48.89999999999992
 30
0.0
 11
982.1882831785665
 21
60.89999999999992
 31
0.0
  0
CIRCLE
  5
23B02
  8
SIZE
  6
CONTINUOUS
 62
    30
 10
982.1882831785665
 20
153.8999999999999
 30
0.0
 40
6.0
  0
LINE
  5
23B03
  8
SIZE
  6
CONTINUOUS
 62
    30
 10
982.1882831785665
 20
153.8999999999999
 30
0.0
 11
982.1882831785665
 21
141.8999999999999
 31
0.0
  0
TEXT
  5
23B04
  8
SIZE
  6
CONTINUOUS
 62
    30
 10
946.5216165119004
 20
182.6714285714287
 30
0.0
 40
64.0
  1
φ105
 50
90.0
 41
0.9
 72
     1
 11
946.5216165119004
 21
289.6428571428573
 31
0.0
  0
POINT
  5
23B05
  8
DEFPOINTS
  6
CONTINUOUS
 62
    30
 10
286.7297441915596
 20
153.9000000000001
 30
0.0
  0
POINT
  5
23B06
  8
DEFPOINTS
  6
CONTINUOUS
 62
    30
 10
286.7297441915596
 20
48.90000000000009
 30
0.0
  0
POINT
  5
23B07
  8
DEFPOINTS
  6
CONTINUOUS
 62
    30
 10
982.1882831785665
 20
48.89999999999992
 30
0.0
  0
LINE
  5
23B08
  8
SIZE
  6
CONTINUOUS
 62
    30
 10
0.0
 20
275.8870865855072
 30
0.0
 11
0.0
 21
406.9816406290593
 31
0.0
  0
LINE
  5
23B09
  8
SIZE
  6
CONTINUOUS
 62
    30
 10
53.62974419155921
 20
226.1999999999997
 30
0.0
 11
53.62974419155921
 21
406.9816406290593
 31
0.0
  0
LINE
  5
23B0A
  8
SIZE
  6
CONTINUOUS
 62
    30
 10
65.62974419155921
 20
386.9816406290593
 30
0.0
 11
77.62974419155921
 21
386.9816406290593
 31
0.0
  0
LINE
  5
23B0B
  8
SIZE
  6
CONTINUOUS
 62
    30
 10
53.62974419155921
 20
386.9816406290593
 30
0.0
 11
0.0
 21
386.9816406290593
 31
0.0
  0
CIRCLE
  5
23B0C
  8
SIZE
  6
CONTINUOUS
 62
    30
 10
53.62974419155921
 20
386.9816406290593
 30
0.0
 40
6.0
  0
LINE
  5
23B0D
  8
SIZE
  6
CONTINUOUS
 62
    30
 10
53.62974419155921
 20
386.9816406290593
 30
0.0
 11
65.62974419155921
 21
386.9816406290593
 31
0.0
  0
CIRCLE
  5
23B0E
  8
SIZE
  6
CONTINUOUS
 62
    30
 10
0.0
 20
386.9816406290593
 30
0.0
 40
6.0
  0
LINE
  5
23B0F
  8
SIZE
  6
CONTINUOUS
 62
    30
 10
0.0
 20
386.9816406290593
 30
0.0
 11
-12.0
 21
386.9816406290593
 31
0.0
  0
TEXT
  5
23B10
  8
SIZE
  6
CONTINUOUS
 62
    30
 10
-82.6575601299004
 20
439.1626455172836
 30
0.0
 40
64.0
  1
53.6
 41
0.9
 72
     1
 11
13.34243987009961
 21
439.1626455172836
 31
0.0
  0
POINT
  5
23B11
  8
DEFPOINTS
  6
CONTINUOUS
 62
    30
 10
0.0
 20
255.8870865855072
 30
0.0
  0
POINT
  5
23B12
  8
DEFPOINTS
  6
CONTINUOUS
 62
    30
 10
53.62974419155921
 20
206.1999999999997
 30
0.0
  0
POINT
  5
23B13
  8
DEFPOINTS
  6
CONTINUOUS
 62
    30
 10
53.62974419155921
 20
386.9816406290593
 30
0.0
  0
LINE
  5
23B14
  8
SIZE
  6
CONTINUOUS
 62
    30
 10
347.2297441915596
 20
101.4000000000001
 30
0.0
 11
648.7613477558075
 21
101.4
 31
0.0
  0
LINE
  5
23B15
  8
SIZE
  6
CONTINUOUS
 62
    30
 10
240.2297441915596
 20
0.0
 30
0.0
 11
648.7613477558075
 21
-0.0000000000001137
 31
0.0
  0
LINE
  5
23B16
  8
SIZE
  6
CONTINUOUS
 62
    30
 10
628.7613477558075
 20
11.99999999999989
 30
0.0
 11
628.7613477558075
 21
89.39999999999998
 31
0.0
  0
LINE
  5
23B17
  8
SIZE
  6
CONTINUOUS
 62
    30
 10
628.7613477558075
 20
101.4
 30
0.0
 11
628.7613477558075
 21
349.8007385790039
 31
0.0
  0
CIRCLE
  5
23B18
  8
SIZE
  6
CONTINUOUS
 62
    30
 10
628.7613477558075
 20
-0.0000000000001137
 30
0.0
 40
6.0
  0
LINE
  5
23B19
  8
SIZE
  6
CONTINUOUS
 62
    30
 10
628.7613477558075
 20
-0.0000000000001137
 30
0.0
 11
628.7613477558075
 21
11.99999999999989
 31
0.0
  0
CIRCLE
  5
23B1A
  8
SIZE
  6
CONTINUOUS
 62
    30
 10
628.7613477558075
 20
101.4
 30
0.0
 40
6.0
  0
LINE
  5
23B1B
  8
SIZE
  6
CONTINUOUS
 62
    30
 10
628.7613477558075
 20
101.4
 30
0.0
 11
628.7613477558075
 21
89.39999999999998
 31
0.0
  0
TEXT
  5
23B1C
  8
SIZE
  6
CONTINUOUS
 62
    30
 10
603.7613477558075
 20
190.4007385790039
 30
0.0
 40
64.0
  1
101
 50
90.0
 41
0.9
 72
     1
 11
603.7613477558075
 21
268.5721671504325
 31
0.0
  0
POINT
  5
23B1D
  8
DEFPOINTS
  6
CONTINUOUS
 62
    30
 10
327.2297441915596
 20
101.4000000000001
 30
0.0
  0
POINT
  5
23B1E
  8
DEFPOINTS
  6
CONTINUOUS
 62
    30
 10
220.2297441915596
 20
0.0
 30
0.0
  0
POINT
  5
23B1F
  8
DEFPOINTS
  6
CONTINUOUS
 62
    30
 10
628.7613477558075
 20
-0.0000000000001137
 30
0.0
  0
LINE
  5
23B20
  8
SIZE
  6
CONTINUOUS
 62
    30
 10
199.829744191559
 20
207.3000000000002
 30
0.0
 11
199.829744191559
 21
620.163024416629
 31
0.0
  0
LINE
  5
23B21
  8
SIZE
  6
CONTINUOUS
 62
    30
 10
317.2297441915596
 20
190.1999999999997
 30
0.0
 11
317.2297441915596
 21
620.163024416629
 31
0.0
  0
LINE
  5
23B22
  8
SIZE
  6
CONTINUOUS
 62
    30
 10
211.829744191559
 20
600.163024416629
 30
0.0
 11
305.2297441915596
 21
600.163024416629
 31
0.0
  0
LINE
  5
23B23
  8
SIZE
  6
CONTINUOUS
 62
    30
 10
317.2297441915596
 20
600.163024416629
 30
0.0
 11
602.2811935643365
 21
600.163024416629
 31
0.0
  0
CIRCLE
  5
23B24
  8
SIZE
  6
CONTINUOUS
 62
    30
 10
199.829744191559
 20
600.163024416629
 30
0.0
 40
6.0
  0
LINE
  5
23B25
  8
SIZE
  6
CONTINUOUS
 62
    30
 10
199.829744191559
 20
600.163024416629
 30
0.0
 11
211.829744191559
 21
600.163024416629
 31
0.0
  0
CIRCLE
  5
23B26
  8
SIZE
  6
CONTINUOUS
 62
    30
 10
317.2297441915596
 20
600.163024416629
 30
0.0
 40
6.0
  0
LINE
  5
23B27
  8
SIZE
  6
CONTINUOUS
 62
    30
 10
317.2297441915596
 20
600.163024416629
 30
0.0
 11
305.2297441915596
 21
600.163024416629
 31
0.0
  0
TEXT
  5
23B28
  8
SIZE
  6
CONTINUOUS
 62
    30
 10
338.6154076192447
 20
632.0687088845707
 30
0.0
 40
64.0
  1
（117）
 41
0.9
 72
     1
 11
470.2725504763876
 21
632.0687088845707
 31
0.0
  0
POINT
  5
23B29
  8
DEFPOINTS
  6
CONTINUOUS
 62
    30
 10
199.829744191559
 20
187.3000000000001
 30
0.0
  0
POINT
  5
23B2A
  8
DEFPOINTS
  6
CONTINUOUS
 62
    30
 10
317.2297441915596
 20
170.1999999999998
 30
0.0
  0
POINT
  5
23B2B
  8
DEFPOINTS
  6
CONTINUOUS
 62
    30
 10
317.2297441915596
 20
600.163024416629
 30
0.0
  0
POINT
  5
23B2C
  8
DEFPOINTS
  6
DIVIDE
 62
    30
 10
31.59474426453596
 20
144.6054253331234
 30
0.0
  0
POINT
  5
23B2D
  8
DEFPOINTS
  6
DIVIDE
 62
    30
 10
75.66474411858155
 20
58.19457466687658
 30
0.0
  0
POINT
  5
23B2E
  8
DEFPOINTS
  6
DIVIDE
 62
    30
 10
12.12802596276299
 20
133.5536527327402
 30
0.0
  0
POINT
  5
23B2F
  8
DEFPOINTS
  6
DIVIDE
 62
    30
 10
95.13146242035452
 20
69.24634726725998
 30
0.0
  0
LINE
  5
23B30
  8
OUTLINE
  6
CONTINUOUS
 62
     3
 10
118.829710135559
 20
200.0439999999999
 30
0.0
 11
48.82977824755994
 21
200.0439999999999
 31
0.0
  0
LINE
  5
23B31
  8
SIZE
  6
CONTINUOUS
 62
    30
 10
29.54136594795887
 20
200.0439999999999
 30
0.0
 11
-561.2486755729778
 21
200.044
 31
0.0
  0
LINE
  5
23B32
  8
SIZE
  6
CONTINUOUS
 62
    30
 10
-239.3318345176369
 20
0.0
 30
0.0
 11
-561.2486755729778
 21
0.0000000000001137
 31
0.0
  0
LINE
  5
23B33
  8
SIZE
  6
CONTINUOUS
 62
    30
 10
-541.2486755729778
 20
188.044
 30
0.0
 11
-541.2486755729778
 21
12.00000000000011
 31
0.0
  0
CIRCLE
  5
23B34
  8
SIZE
  6
CONTINUOUS
 62
    30
 10
-541.2486755729778
 20
200.044
 30
0.0
 40
6.0
  0
LINE
  5
23B35
  8
SIZE
  6
CONTINUOUS
 62
    30
 10
-541.2486755729778
 20
200.044
 30
0.0
 11
-541.2486755729778
 21
188.044
 31
0.0
  0
CIRCLE
  5
23B36
  8
SIZE
  6
CONTINUOUS
 62
    30
 10
-541.2486755729778
 20
0.0000000000001137
 30
0.0
 40
6.0
  0
LINE
  5
23B37
  8
SIZE
  6
CONTINUOUS
 62
    30
 10
-541.2486755729778
 20
0.0000000000001137
 30
0.0
 11
-541.2486755729778
 21
12.00000000000011
 31
0.0
  0
TEXT
  5
23B38
  8
SIZE
  6
CONTINUOUS
 62
    30
 10
-566.248675572978
 20
17.73628571428581
 30
0.0
 40
64.0
  1
200
 50
90.0
 41
0.9
 72
     1
 11
-566.248675572978
 21
100.0220000000001
 31
0.0
  0
POINT
  5
23B39
  8
DEFPOINTS
  6
CONTINUOUS
 62
    30
 10
49.54136594795887
 20
200.0439999999999
 30
0.0
  0
POINT
  5
23B3A
  8
DEFPOINTS
  6
CONTINUOUS
 62
    30
 10
-219.3318345176369
 20
0.0
 30
0.0
  0
POINT
  5
23B3B
  8
DEFPOINTS
  6
CONTINUOUS
 62
    30
 10
-541.2486755729778
 20
0.0000000000001137
 30
0.0
  0
LINE
  5
23B3C
  8
SIZE
  6
CONTINUOUS
 62
    30
 10
199.829744191559
 20
207.3000000000002
 30
0.0
 11
199.829744191559
 21
620.163024416629
 31
0.0
  0
LINE
  5
23B3D
  8
SIZE
  6
CONTINUOUS
 62
    30
 10
-199.7702558084405
 20
81.69999999999982
 30
0.0
 11
-199.7702558084405
 21
620.163024416629
 31
0.0
  0
LINE
  5
23B3E
  8
SIZE
  6
CONTINUOUS
 62
    30
 10
211.829744191559
 20
600.163024416629
 30
0.0
 11
223.829744191559
 21
600.163024416629
 31
0.0
  0
LINE
  5
23B3F
  8
SIZE
  6
CONTINUOUS
 62
    30
 10
-211.7702558084405
 20
600.163024416629
 30
0.0
 11
-223.7702558084405
 21
600.163024416629
 31
0.0
  0
LINE
  5
23B40
  8
SIZE
  6
CONTINUOUS
 62
    30
 10
199.829744191559
 20
600.163024416629
 30
0.0
 11
-199.7702558084405
 21
600.163024416629
 31
0.0
  0
CIRCLE
  5
23B41
  8
SIZE
  6
CONTINUOUS
 62
    30
 10
199.829744191559
 20
600.163024416629
 30
0.0
 40
6.0
  0
LINE
  5
23B42
  8
SIZE
  6
CONTINUOUS
 62
    30
 10
199.829744191559
 20
600.163024416629
 30
0.0
 11
211.829744191559
 21
600.163024416629
 31
0.0
  0
CIRCLE
  5
23B43
  8
SIZE
  6
CONTINUOUS
 62
    30
 10
-199.7702558084405
 20
600.163024416629
 30
0.0
 40
6.0
  0
LINE
  5
23B44
  8
SIZE
  6
CONTINUOUS
 62
    30
 10
-199.7702558084405
 20
600.163024416629
 30
0.0
 11
-211.7702558084405
 21
600.163024416629
 31
0.0
  0
TEXT
  5
23B45
  8
SIZE
  6
CONTINUOUS
 62
    30
 10
-180.9988272370122
 20
625.163024416629
 30
0.0
 40
64.0
  1
400（本体）
 41
0.9
 72
     1
 11
0.0297441915593026
 21
625.163024416629
 31
0.0
  0
POINT
  5
23B46
  8
DEFPOINTS
  6
CONTINUOUS
 62
    30
 10
199.829744191559
 20
187.3000000000001
 30
0.0
  0
POINT
  5
23B47
  8
DEFPOINTS
  6
CONTINUOUS
 62
    30
 10
-199.7702558084405
 20
61.69999999999982
 30
0.0
  0
POINT
  5
23B48
  8
DEFPOINTS
  6
CONTINUOUS
 62
    30
 10
-199.7702558084405
 20
600.163024416629
 30
0.0
  0
LINE
  5
23B49
  8
SIZE
  6
CONTINUOUS
 62
    30
 10
203.8297441915599
 20
23.0
 30
0.0
 11
203.8297441915601
 21
740.615585686242
 31
0.0
  0
LINE
  5
23B4A
  8
SIZE
  6
CONTINUOUS
 62
    30
 10
-203.7702558084396
 20
23.0
 30
0.0
 11
-203.7702558084396
 21
740.615585686242
 31
0.0
  0
LINE
  5
23B4B
  8
SIZE
  6
CONTINUOUS
 62
    30
 10
-191.7702558084393
 20
720.615585686242
 30
0.0
 11
191.8297441915601
 21
720.615585686242
 31
0.0
  0
LINE
  5
23B4C
  8
SIZE
  6
CONTINUOUS
 62
    30
 10
203.8297441915601
 20
720.615585686242
 30
0.0
 11
777.5338192434965
 21
720.615585686242
 31
0.0
  0
CIRCLE
  5
23B4D
  8
SIZE
  6
CONTINUOUS
 62
    30
 10
-203.7702558084396
 20
720.615585686242
 30
0.0
 40
6.0
  0
LINE
  5
23B4E
  8
SIZE
  6
CONTINUOUS
 62
    30
 10
-203.7702558084396
 20
720.615585686242
 30
0.0
 11
-191.7702558084396
 21
720.615585686242
 31
0.0
  0
CIRCLE
  5
23B4F
  8
SIZE
  6
CONTINUOUS
 62
    30
 10
203.8297441915601
 20
720.615585686242
 30
0.0
 40
6.0
  0
LINE
  5
23B50
  8
SIZE
  6
CONTINUOUS
 62
    30
 10
203.8297441915601
 20
720.615585686242
 30
0.0
 11
191.8297441915601
 21
720.615585686242
 31
0.0
  0
TEXT
  5
23B51
  8
SIZE
  6
CONTINUOUS
 62
    30
 10
314.7738192434959
 20
745.615585686242
 30
0.0
 40
64.0
  1
408（据付枠）
 41
0.9
 72
     1
 11
520.4881049577816
 21
745.615585686242
 31
0.0
  0
POINT
  5
23B52
  8
DEFPOINTS
  6
CONTINUOUS
 62
    30
 10
203.8297441915599
 20
3.0
 30
0.0
  0
POINT
  5
23B53
  8
DEFPOINTS
  6
CONTINUOUS
 62
    30
 10
-203.7702558084396
 20
3.0
 30
0.0
  0
POINT
  5
23B54
  8
DEFPOINTS
  6
CONTINUOUS
 62
    30
 10
-203.7702558084396
 20
720.615585686242
 30
0.0
  0
LINE
  5
23B55
  8
SIZE
  6
CONTINUOUS
 62
    30
 10
220.2297441915596
 20
20.0
 30
0.0
 11
220.2297441915596
 21
849.03832354273
 31
0.0
  0
LINE
  5
23B56
  8
SIZE
  6
CONTINUOUS
 62
    30
 10
-220.170255808441
 20
20.0
 30
0.0
 11
-220.1702558084409
 21
849.03832354273
 31
0.0
  0
LINE
  5
23B57
  8
SIZE
  6
CONTINUOUS
 62
    30
 10
-208.1702558084409
 20
829.03832354273
 30
0.0
 11
208.2297441915596
 21
829.03832354273
 31
0.0
  0
LINE
  5
23B58
  8
SIZE
  6
CONTINUOUS
 62
    30
 10
220.2297441915596
 20
829.03832354273
 30
0.0
 11
785.2817687340405
 21
829.03832354273
 31
0.0
  0
CIRCLE
  5
23B59
  8
SIZE
  6
CONTINUOUS
 62
    30
 10
-220.1702558084409
 20
829.03832354273
 30
0.0
 40
6.0
  0
LINE
  5
23B5A
  8
SIZE
  6
CONTINUOUS
 62
    30
 10
-220.1702558084409
 20
829.03832354273
 30
0.0
 11
-208.1702558084409
 21
829.03832354273
 31
0.0
  0
CIRCLE
  5
23B5B
  8
SIZE
  6
CONTINUOUS
 62
    30
 10
220.2297441915596
 20
829.03832354273
 30
0.0
 40
6.0
  0
LINE
  5
23B5C
  8
SIZE
  6
CONTINUOUS
 62
    30
 10
220.2297441915596
 20
829.03832354273
 30
0.0
 11
208.2297441915596
 21
829.03832354273
 31
0.0
  0
TEXT
  5
23B5D
  8
SIZE
  6
CONTINUOUS
 62
    30
 10
322.5217687340408
 20
854.03832354273
 30
0.0
 40
64.0
  1
440（据付枠）
 41
0.9
 72
     1
 11
528.2360544483265
 21
854.03832354273
 31
0.0
  0
POINT
  5
23B5E
  8
DEFPOINTS
  6
CONTINUOUS
 62
    30
 10
220.2297441915596
 20
0.0
 30
0.0
  0
POINT
  5
23B5F
  8
DEFPOINTS
  6
CONTINUOUS
 62
    30
 10
-220.170255808441
 20
0.0
 30
0.0
  0
POINT
  5
23B60
  8
DEFPOINTS
  6
CONTINUOUS
 62
    30
 10
-220.1702558084409
 20
829.03832354273
 30
0.0
  0
LINE
  5
23B61
  8
SIZE
  6
CONTINUOUS
 62
    30
 10
225.0208643427598
 20
18.49127379677992
 30
0.0
 11
225.0208643427599
 21
943.0594519777981
 31
0.0
  0
LINE
  5
23B62
  8
SIZE
  6
CONTINUOUS
 62
    30
 10
-224.96137595944
 20
18.49127379680021
 30
0.0
 11
-224.96137595944
 21
943.0594519777981
 31
0.0
  0
LINE
  5
23B63
  8
SIZE
  6
CONTINUOUS
 62
    30
 10
213.0208643427599
 20
923.0594519777981
 30
0.0
 11
-212.9613759594397
 21
923.0594519777981
 31
0.0
  0
CIRCLE
  5
23B64
  8
SIZE
  6
CONTINUOUS
 62
    30
 10
225.0208643427599
 20
923.0594519777981
 30
0.0
 40
6.0
  0
LINE
  5
23B65
  8
SIZE
  6
CONTINUOUS
 62
    30
 10
225.0208643427599
 20
923.0594519777981
 30
0.0
 11
213.0208643427599
 21
923.0594519777981
 31
0.0
  0
CIRCLE
  5
23B66
  8
SIZE
  6
CONTINUOUS
 62
    30
 10
-224.96137595944
 20
923.0594519777981
 30
0.0
 40
6.0
  0
LINE
  5
23B67
  8
SIZE
  6
CONTINUOUS
 62
    30
 10
-224.96137595944
 20
923.0594519777981
 30
0.0
 11
-212.96137595944
 21
923.0594519777981
 31
0.0
  0
TEXT
  5
23B68
  8
SIZE
  6
CONTINUOUS
 62
    30
 10
-180.9988272369114
 20
948.0594519777981
 30
0.0
 40
64.0
  1
450（本体）
 41
0.9
 72
     1
 11
0.0297441916600292
 21
948.0594519777981
 31
0.0
  0
POINT
  5
23B69
  8
DEFPOINTS
  6
CONTINUOUS
 62
    30
 10
225.0208643427598
 20
-1.508726203220078
 30
0.0
  0
POINT
  5
23B6A
  8
DEFPOINTS
  6
CONTINUOUS
 62
    30
 10
-224.96137595944
 20
-1.508726203199785
 30
0.0
  0
POINT
  5
23B6B
  8
DEFPOINTS
  6
CONTINUOUS
 62
    30
 10
-224.96137595944
 20
923.0594519777981
 30
0.0
  0
TEXT
  5
23B6C
  8
NOTE
  6
CONTINUOUS
 62
     4
 10
345.2881105536355
 20
176.8340659182977
 30
0.0
 40
40.0
  1
EA
 41
0.9
  0
TEXT
  5
23B6D
  8
NOTE
  6
CONTINUOUS
 62
     4
 10
341.6960954129756
 20
54.96142920830971
 30
0.0
 40
40.0
  1
RA1
 41
0.9
  0
LINE
  5
23B6E
  8
DETAIL
  6
CONTINUOUS
 62
     5
 39
50.0
 10
-73.94559738474663
 20
-26.34086064362833
 30
0.0
 11
-74.53771213624032
 21
-26.51212694499992
 31
0.0
  0
LINE
  5
23B6F
  8
DETAIL
  6
CONTINUOUS
 62
     5
 39
50.0
 10
-75.40279948004127
 20
-26.51212694499992
 30
0.0
 11
-75.99491564641949
 21
-26.34086091153279
 31
0.0
  0
LINE
  5
23B70
  8
DETAIL
  6
CONTINUOUS
 62
     5
 39
50.0
 10
30.62974419155967
 20
12.32296703849988
 30
0.0
 11
30.01068485605833
 21
13.25144372950041
 31
0.0
  0
LINE
  5
23B71
  8
DETAIL
  6
CONTINUOUS
 62
     5
 39
50.0
 10
30.62974419155967
 20
8.677032961500117
 30
0.0
 11
30.01068485605833
 21
7.748556270500103
 31
0.0
  0
LINE
  5
23B72
  8
DETAIL
  6
CONTINUOUS
 62
     5
 39
50.0
 10
90.62974419155967
 20
12.32296703849988
 30
0.0
 11
90.01068485605833
 21
13.25144372950041
 31
0.0
  0
LINE
  5
23B73
  8
DETAIL
  6
CONTINUOUS
 62
     5
 39
50.0
 10
90.62974419155967
 20
8.677032961500117
 30
0.0
 11
90.01068485605833
 21
7.748556270500103
 31
0.0
  0
LINE
  5
23B74
  8
SIZE
  6
CONTINUOUS
 62
    30
 10
-240.170255808441
 20
0.0
 30
0.0
 11
-422.314036921106
 21
0.0000000000001137
 31
0.0
  0
LINE
  5
23B75
  8
SIZE
  6
CONTINUOUS
 62
    30
 10
-20.0
 20
-39.0
 30
0.0
 11
-422.314036921106
 21
-38.99999999999989
 31
0.0
  0
LINE
  5
23B76
  8
SIZE
  6
CONTINUOUS
 62
    30
 10
-402.314036921106
 20
12.00000000000011
 30
0.0
 11
-402.314036921106
 21
24.00000000000011
 31
0.0
  0
LINE
  5
23B77
  8
SIZE
  6
CONTINUOUS
 62
    30
 10
-402.314036921106
 20
-50.99999999999989
 30
0.0
 11
-402.314036921106
 21
-203.5142857142856
 31
0.0
  0
LINE
  5
23B78
  8
SIZE
  6
CONTINUOUS
 62
    30
 10
-402.314036921106
 20
0.0000000000001137
 30
0.0
 11
-402.314036921106
 21
-38.99999999999989
 31
0.0
  0
CIRCLE
  5
23B79
  8
SIZE
  6
CONTINUOUS
 62
    30
 10
-402.314036921106
 20
0.0000000000001137
 30
0.0
 40
6.0
  0
LINE
  5
23B7A
  8
SIZE
  6
CONTINUOUS
 62
    30
 10
-402.314036921106
 20
0.0000000000001137
 30
0.0
 11
-402.314036921106
 21
12.00000000000011
 31
0.0
  0
CIRCLE
  5
23B7B
  8
SIZE
  6
CONTINUOUS
 62
    30
 10
-402.314036921106
 20
-38.99999999999989
 30
0.0
 40
6.0
  0
LINE
  5
23B7C
  8
SIZE
  6
CONTINUOUS
 62
    30
 10
-402.314036921106
 20
-38.99999999999989
 30
0.0
 11
-402.314036921106
 21
-50.99999999999989
 31
0.0
  0
TEXT
  5
23B7D
  8
SIZE
  6
CONTINUOUS
 62
    30
 10
-427.314036921106
 20
-186.742857142857
 30
0.0
 40
64.0
  1
39
 50
90.0
 41
0.9
 72
     1
 11
-427.314036921106
 21
-133.2571428571427
 31
0.0
  0
POINT
  5
23B7E
  8
DEFPOINTS
  6
CONTINUOUS
 62
    30
 10
-220.170255808441
 20
0.0
 30
0.0
  0
POINT
  5
23B7F
  8
DEFPOINTS
  6
CONTINUOUS
 62
    30
 10
0.0
 20
-39.0
 30
0.0
  0
POINT
  5
23B80
  8
DEFPOINTS
  6
CONTINUOUS
 62
    30
 10
-402.314036921106
 20
-38.99999999999989
 30
0.0
  0
LINE
  5
23B81
  8
SIZE
  6
CONTINUOUS
 62
    30
 10
-240.170255808441
 20
0.0
 30
0.0
 11
-422.314036921106
 21
0.0000000000001137
 31
0.0
  0
LINE
  5
23B82
  8
SIZE
  6
CONTINUOUS
 62
    30
 10
-169.3177501023582
 20
99.10000000000008
 30
0.0
 11
-422.314036921106
 21
99.1000000000002
 31
0.0
  0
LINE
  5
23B83
  8
SIZE
  6
CONTINUOUS
 62
    30
 10
-402.314036921106
 20
12.00000000000011
 30
0.0
 11
-402.314036921106
 21
87.1000000000002
 31
0.0
  0
LINE
  5
23B84
  8
SIZE
  6
CONTINUOUS
 62
    30
 10
-402.314036921106
 20
99.1000000000002
 30
0.0
 11
-402.3140369211059
 21
338.8466450275009
 31
0.0
  0
CIRCLE
  5
23B85
  8
SIZE
  6
CONTINUOUS
 62
    30
 10
-402.314036921106
 20
0.0000000000001137
 30
0.0
 40
6.0
  0
LINE
  5
23B86
  8
SIZE
  6
CONTINUOUS
 62
    30
 10
-402.314036921106
 20
0.0000000000001137
 30
0.0
 11
-402.314036921106
 21
12.00000000000011
 31
0.0
  0
CIRCLE
  5
23B87
  8
SIZE
  6
CONTINUOUS
 62
    30
 10
-402.314036921106
 20
99.1000000000002
 30
0.0
 40
6.0
  0
LINE
  5
23B88
  8
SIZE
  6
CONTINUOUS
 62
    30
 10
-402.314036921106
 20
99.1000000000002
 30
0.0
 11
-402.314036921106
 21
87.1000000000002
 31
0.0
  0
TEXT
  5
23B89
  8
SIZE
  6
CONTINUOUS
 62
    30
 10
-427.314036921106
 20
215.1037878846439
 30
0.0
 40
64.0
  1
99
 50
90.0
 41
0.9
 72
     1
 11
-427.314036921106
 21
268.5895021703582
 31
0.0
  0
POINT
  5
23B8A
  8
DEFPOINTS
  6
CONTINUOUS
 62
    30
 10
-220.170255808441
 20
0.0
 30
0.0
  0
POINT
  5
23B8B
  8
DEFPOINTS
  6
CONTINUOUS
 62
    30
 10
-149.3177501023582
 20
99.10000000000008
 30
0.0
  0
POINT
  5
23B8C
  8
DEFPOINTS
  6
CONTINUOUS
 62
    30
 10
-402.314036921106
 20
99.1000000000002
 30
0.0
  0
ARC
  5
23B8D
  8
OUTLINE
  6
CONTINUOUS
 62
     3
 10
-199.1702558084407
 20
61.7000000000001
 30
0.0
 40
0.599999999999454
 50
90.0
 51
180.0
  0
LINE
  5
23B8E
  8
OUTLINE
  6
CONTINUOUS
 62
     3
 10
-199.7702558084405
 20
29.0
 30
0.0
 11
-199.7702558084405
 21
61.7000000000001
 31
0.0
  0
LINE
  5
23B8F
  8
DETAIL
  6
CONTINUOUS
 62
     5
 10
-199.7702558084405
 20
29.0
 30
0.0
 11
-199.7702558084405
 21
61.7000000000001
 31
0.0
  0
ARC
  5
23B90
  8
DETAIL
  6
CONTINUOUS
 62
     5
 10
-199.1702558084407
 20
61.7000000000001
 30
0.0
 40
0.599999999999454
 50
90.0
 51
180.0
  0
POINT
  5
23B91
  8
DEFPOINTS
  6
CONTINUOUS
 62
    30
 10
-199.7702558084405
 20
61.7000000000001
 30
0.0
 50
180.0
  0
ARC
  5
23B92
  8
DETAIL
  6
CONTINUOUS
 62
     5
 10
-199.3725076818739
 20
61.80248798933331
 30
0.0
 40
1.000075853333359
 50
90.0
 51
167.000000000003
  0
ARC
  5
23B93
  8
DETAIL
  6
CONTINUOUS
 62
     5
 10
-199.3725076818739
 20
61.80248798933331
 30
0.0
 40
0.5000379266666407
 50
90.0
 51
167.0000000000047
  0
LINE
  5
23B94
  8
DETAIL
  6
CONTINUOUS
 62
     5
 10
-205.8443949844889
 20
35.99253861793198
 30
0.0
 11
-199.8597296688752
 21
61.91497204814868
 31
0.0
  0
LINE
  5
23B95
  8
DETAIL
  6
CONTINUOUS
 62
     5
 10
-206.3316169714865
 20
36.10502267674747
 30
0.0
 11
-200.3469516558764
 21
62.02745610696462
 31
0.0
  0
LINE
  5
23B96
  8
DETAIL
  6
CONTINUOUS
 62
     5
 10
-199.7702558084405
 20
29.0
 30
0.0
 11
-199.7702558084405
 21
61.7024804040002
 31
0.0
  0
ARC
  5
23B97
  8
DETAIL
  6
CONTINUOUS
 62
     5
 10
-199.1702102964402
 20
61.7024804040002
 30
0.0
 40
0.600045512000054
 50
90.0
 51
180.0
  0
ENDSEC
  0
EOF
