  0
SECTION
  2
HEADER
  9
$ACADVER
  1
AC1009
  9
$INSBASE
 10
0.0
 20
0.0
 30
0.0
  9
$EXTMIN
 10
-825.51817800000003
 20
-548.59398299999987
 30
0.0
  9
$EXTMAX
 10
808.50484014285666
 20
421.35813005565728
 30
50.0
  9
$LIMMIN
 10
-2970.0
 20
-2100.0
  9
$LIMMAX
 10
2970.0
 20
2100.0
  9
$ORTHOMODE
 70
     1
  9
$REGENMODE
 70
     1
  9
$FILLMODE
 70
     1
  9
$QTEXTMODE
 70
     0
  9
$MIRRTEXT
 70
     0
  9
$DRAGMODE
 70
     2
  9
$LTSCALE
 40
20.0
  9
$OSMODE
 70
   943
  9
$ATTMODE
 70
     1
  9
$TEXTSIZE
 40
64.0
  9
$TRACEWID
 40
0.05
  9
$TEXTSTYLE
  7
STANDARD
  9
$CLAYER
  8
ETC
  9
$CELTYPE
  6
CONTINUOUS
  9
$CECOLOR
 62
     7
  9
$DIMSCALE
 40
1.0
  9
$DIMASZ
 40
12.0
  9
$DIMEXO
 40
20.0
  9
$DIMDLI
 40
200.0
  9
$DIMRND
 40
0.0
  9
$DIMDLE
 40
0.0
  9
$DIMEXE
 40
20.0
  9
$DIMTP
 40
0.0
  9
$DIMTM
 40
0.0
  9
$DIMTXT
 40
64.0
  9
$DIMCEN
 40
0.09
  9
$DIMTSZ
 40
0.0
  9
$DIMTOL
 70
     0
  9
$DIMLIM
 70
     0
  9
$DIMTIH
 70
     0
  9
$DIMTOH
 70
     0
  9
$DIMSE1
 70
     0
  9
$DIMSE2
 70
     0
  9
$DIMTAD
 70
     1
  9
$DIMZIN
 70
     8
  9
$DIMBLK
  1
DOT1
  9
$DIMASO
 70
     1
  9
$DIMSHO
 70
     0
  9
$DIMPOST
  1

  9
$DIMAPOST
  1

  9
$DIMALT
 70
     0
  9
$DIMALTD
 70
     2
  9
$DIMALTF
 40
25.399999999999999
  9
$DIMLFAC
 40
1.0
  9
$DIMTOFL
 70
     1
  9
$DIMTVP
 40
0.0
  9
$DIMTIX
 70
     1
  9
$DIMSOXD
 70
     0
  9
$DIMSAH
 70
     1
  9
$DIMBLK1
  1
ORIGIN
  9
$DIMBLK2
  1
ORIGIN
  9
$DIMSTYLE
  2
STANDARD
  9
$DIMCLRD
 70
     7
  9
$DIMCLRE
 70
     7
  9
$DIMCLRT
 70
     7
  9
$DIMTFAC
 40
1.0
  9
$DIMGAP
 40
25.0
  9
$LUNITS
 70
     2
  9
$LUPREC
 70
     4
  9
$SKETCHINC
 40
0.1
  9
$FILLETRAD
 40
2.0
  9
$AUNITS
 70
     1
  9
$AUPREC
 70
     3
  9
$MENU
  1
ACAD
  9
$ELEVATION
 40
0.0
  9
$PELEVATION
 40
0.0
  9
$THICKNESS
 40
50.0
  9
$LIMCHECK
 70
     0
  9
$BLIPMODE
 70
     0
  9
$CHAMFERA
 40
0.0
  9
$CHAMFERB
 40
0.0
  9
$SKPOLY
 70
     0
  9
$TDCREATE
 40
2453019.6230103709
  9
$TDUPDATE
 40
2456954.64718728
  9
$TDINDWG
 40
0.7410565162
  9
$TDUSRTIMER
 40
0.7410564120000001
  9
$USRTIMER
 70
     1
  9
$ANGBASE
 50
0.0
  9
$ANGDIR
 70
     0
  9
$PDMODE
 70
     3
  9
$PDSIZE
 40
-2.0
  9
$PLINEWID
 40
0.0
  9
$COORDS
 70
     1
  9
$SPLFRAME
 70
     0
  9
$SPLINETYPE
 70
     6
  9
$SPLINESEGS
 70
     8
  9
$ATTDIA
 70
     1
  9
$ATTREQ
 70
     1
  9
$HANDLING
 70
     1
  9
$HANDSEED
  5
2E2
  9
$SURFTAB1
 70
     6
  9
$SURFTAB2
 70
     6
  9
$SURFTYPE
 70
     6
  9
$SURFU
 70
     6
  9
$SURFV
 70
     6
  9
$UCSNAME
  2

  9
$UCSORG
 10
0.0
 20
0.0
 30
0.0
  9
$UCSXDIR
 10
1.0
 20
0.0
 30
0.0
  9
$UCSYDIR
 10
0.0
 20
1.0
 30
0.0
  9
$PUCSNAME
  2

  9
$PUCSORG
 10
0.0
 20
0.0
 30
0.0
  9
$PUCSXDIR
 10
1.0
 20
0.0
 30
0.0
  9
$PUCSYDIR
 10
0.0
 20
1.0
 30
0.0
  9
$USERI1
 70
     0
  9
$USERI2
 70
     0
  9
$USERI3
 70
     0
  9
$USERI4
 70
     0
  9
$USERI5
 70
     0
  9
$USERR1
 40
20.0
  9
$USERR2
 40
0.0
  9
$USERR3
 40
0.0
  9
$USERR4
 40
0.0
  9
$USERR5
 40
0.0
  9
$WORLDVIEW
 70
     1
  9
$SHADEDGE
 70
     3
  9
$SHADEDIF
 70
    70
  9
$TILEMODE
 70
     1
  9
$MAXACTVP
 70
    48
  9
$PLIMCHECK
 70
     0
  9
$PEXTMIN
 10
-1.0000000000000000E+020
 20
-1.0000000000000000E+020
 30
-1.0000000000000000E+020
  9
$PEXTMAX
 10
1.0000000000000000E+020
 20
1.0000000000000000E+020
 30
1.0000000000000000E+020
  9
$PLIMMIN
 10
0.0
 20
0.0
  9
$PLIMMAX
 10
12.0
 20
9.0
  9
$UNITMODE
 70
     0
  9
$VISRETAIN
 70
     0
  9
$PLINEGEN
 70
     0
  9
$PSLTSCALE
 70
     0
  0
ENDSEC
  0
SECTION
  2
TABLES
  0
TABLE
  2
VPORT
 70
     1
  0
VPORT
  2
*ACTIVE
 70
     0
 10
0.0
 20
0.0
 11
1.0
 21
1.0
 12
225.99120576699659
 22
58.527270736388687
 13
0.0
 23
0.0
 14
1.0
 24
1.0
 15
0.0
 25
0.0
 16
0.0
 26
0.0
 36
1.0
 17
0.0
 27
0.0
 37
0.0
 40
1443.9535532430259
 41
1.3299620733249049
 42
50.0
 43
0.0
 44
0.0
 50
0.0
 51
0.0
 71
     0
 72
  1000
 73
     1
 74
     0
 75
     0
 76
     0
 77
     0
 78
     0
  0
ENDTAB
  0
TABLE
  2
LTYPE
 70
     2
  0
LTYPE
  2
CONTINUOUS
 70
     0
  3
実線
 72
    65
 73
     0
 40
0.0
  0
LTYPE
  2
DASHDOT
 70
     0
  3
____ _ ____ _ ____ _ ____ _ ____ _ ____ _ ____
 72
    65
 73
     4
 40
5.5
 49
4.0
 49
-0.6
 49
0.3
 49
-0.6
  0
ENDTAB
  0
TABLE
  2
LAYER
 70
    12
  0
LAYER
  2
0
 70
     0
 62
     7
  6
CONTINUOUS
  0
LAYER
  2
ETC
 70
     0
 62
    61
  6
CONTINUOUS
  0
LAYER
  2
NOTE
 70
     0
 62
     4
  6
CONTINUOUS
  0
LAYER
  2
BASIS
 70
     0
 62
     6
  6
DASHDOT
  0
LAYER
  2
OUTLINE
 70
     0
 62
     3
  6
CONTINUOUS
  0
LAYER
  2
DETAIL
 70
     0
 62
     5
  6
CONTINUOUS
  0
LAYER
  2
SIZE
 70
     0
 62
    30
  6
CONTINUOUS
  0
LAYER
  2
ARRANGE
 70
     0
 62
     1
  6
CONTINUOUS
  0
LAYER
  2
DEFPOINTS
 70
     0
 62
     7
  6
CONTINUOUS
  0
LAYER
  2
FIX
 70
     0
 62
    11
  6
CONTINUOUS
  0
LAYER
  2
SERVICESPACE
 70
     0
 62
     2
  6
DASHDOT
  0
LAYER
  2
SYMBOLLINE
 70
     0
 62
    15
  6
CONTINUOUS
  0
ENDTAB
  0
TABLE
  2
STYLE
 70
     2
  0
STYLE
  2
STANDARD
 70
     0
 40
64.0
 41
0.9
 50
0.0
 71
     0
 42
64.0
  3
SIMPLEX.shx
  4
BIGFONT.shx
  0
STYLE
  2
ANNOTATIVE
 70
     0
 40
0.0
 41
1.0
 50
0.0
 71
     0
 42
0.2
  3
txt
  4

  0
ENDTAB
  0
TABLE
  2
VIEW
 70
     1
  0
VIEW
  2
ALL
 70
     0
 40
4282.6198079999976
 10
0.0
 20
41.309903999999989
 41
5940.0
 11
0.0
 21
0.0
 31
1.0
 12
0.0
 22
0.0
 32
0.0
 42
50.0
 43
0.0
 44
0.0
 50
0.0
 71
     0
  0
ENDTAB
  0
TABLE
  2
UCS
 70
     0
  0
ENDTAB
  0
TABLE
  2
APPID
 70
     8
  0
APPID
  2
ACAD
 70
     0
  0
APPID
  2
ACADANNOTATIVE
 70
     0
  0
APPID
  2
AUTOCAD_POSTSCRIPT_FIGURE
 70
     0
  0
APPID
  2
ACAD_EXEMPT_FROM_CAD_STANDARDS
 70
     0
  0
APPID
  2
ACAD_PSEXT
 70
     0
  0
APPID
  2
ACAUTHENVIRON
 70
     0
  0
APPID
  2
ACAD_NAV_VCDISPLAY
 70
     0
  0
APPID
  2
ACAD_MLEADERVER
 70
     0
  0
ENDTAB
  0
TABLE
  2
DIMSTYLE
 70
     2
  0
DIMSTYLE
  2
STANDARD
 70
     0
  3

  4

  5

  6

  7

 40
1.0
 41
0.18
 42
0.0625
 43
0.38
 44
0.18
 45
0.0
 46
0.0
 47
0.0
 48
0.0
140
0.18
141
0.09
142
0.0
143
25.399999999999999
144
1.0
145
0.0
146
1.0
147
0.09
 71
     0
 72
     0
 73
     1
 74
     1
 75
     0
 76
     0
 77
     0
 78
     0
170
     0
171
     2
172
     0
173
     0
174
     0
175
     0
176
     7
177
     7
178
     7
  0
DIMSTYLE
  2
ANNOTATIVE
 70
     0
  3

  4

  5

  6

  7

 40
1.0
 41
0.18
 42
0.0625
 43
0.38
 44
0.18
 45
0.0
 46
0.0
 47
0.0
 48
0.0
140
0.18
141
0.09
142
0.0
143
25.399999999999999
144
1.0
145
0.0
146
1.0
147
0.09
 71
     0
 72
     0
 73
     1
 74
     1
 75
     0
 76
     0
 77
     0
 78
     0
170
     0
171
     2
172
     0
173
     0
174
     0
175
     0
176
     0
177
     0
178
     0
  0
ENDTAB
  0
ENDSEC
  0
SECTION
  2
BLOCKS
  0
BLOCK
  8
0
  2
$MODEL_SPACE
 70
     0
 10
0.0
 20
0.0
 30
0.0
  3
$MODEL_SPACE
  1

  0
ENDBLK
  5
25C
  8
0
  0
BLOCK
 67
     1
  8
0
  2
$PAPER_SPACE
 70
     0
 10
0.0
 20
0.0
 30
0.0
  3
$PAPER_SPACE
  1

  0
ENDBLK
  5
258
 67
     1
  8
0
  0
BLOCK
  8
0
  2
DOT1
 70
     0
 10
0.0
 20
0.0
 30
0.0
  3
DOT1
  1

  0
CIRCLE
  5
8A
  8
SIZE
  6
CONTINUOUS
 62
     7
 10
0.0
 20
0.0
 30
0.0
 40
3.0
  0
ENDBLK
  5
8B
  8
0
  0
BLOCK
  8
0
  2
_ORIGIN
 70
     0
 10
0.0
 20
0.0
 30
0.0
  3
_ORIGIN
  1

  0
CIRCLE
  5
8E
  8
0
  6
CONTINUOUS
 62
     7
 10
0.0
 20
0.0
 30
0.0
 40
0.5
  0
LINE
  5
8F
  8
0
  6
CONTINUOUS
 62
     7
 10
0.0
 20
0.0
 30
0.0
 11
-1.0
 21
0.0
 31
0.0
  0
ENDBLK
  5
90
  8
0
  0
ENDSEC
  0
SECTION
  2
ENTITIES
  0
TEXT
  5
91
  8
ETC
  6
CONTINUOUS
 62
    61
 10
263.36198300000001
 20
381.3581300556574
 30
0.0
 40
40.0
  1
V-150CRL-D-HM_2
 41
0.9
  0
TEXT
  5
92
  8
ETC
  6
CONTINUOUS
 62
    61
 10
257.93613900000003
 20
312.08691325070959
 30
0.0
 40
40.0
  1
換気扇
 41
0.9
  0
TEXT
  5
93
  8
ETC
  6
CONTINUOUS
 62
    61
 10
313.35795100000001
 20
225.89379505565751
 30
0.0
 40
40.0
  1
V-150CRL-D-HM
 41
0.9
  0
POINT
  5
98
  8
ARRANGE
  6
CONTINUOUS
 62
     1
 10
0.0
 20
0.0
 30
0.0
 39
50.0
  0
CIRCLE
  5
99
  8
ARRANGE
  6
CONTINUOUS
 62
     1
 39
50.0
 10
0.0
 20
0.0
 30
0.0
 40
40.0
  0
ARC
  5
9A
  8
DETAIL
  6
CONTINUOUS
 62
     5
 10
69.322552000000002
 20
-6.3429039999999981
 30
0.0
 40
1.499953999999998
 50
45.0
 51
90.0
  0
LINE
  5
9B
  8
DETAIL
  6
CONTINUOUS
 62
     5
 10
0.0
 20
-194.837131
 30
0.0
 11
0.0
 21
-182.13751999999999
 31
0.0
  0
LINE
  5
9C
  8
DETAIL
  6
CONTINUOUS
 62
     5
 10
2.59992
 20
-194.84003999999999
 30
0.0
 11
-2.59992
 21
-194.84003999999999
 31
0.0
  0
LINE
  5
9D
  8
DETAIL
  6
CONTINUOUS
 62
     5
 10
-2.59992
 20
-194.84003999999999
 30
0.0
 11
-2.59992
 21
-182.09935100000001
 31
0.0
  0
LINE
  5
9E
  8
DETAIL
  6
CONTINUOUS
 62
     5
 10
0.0
 20
-4.8429489999999991
 30
0.0
 11
-2.399926999999999
 21
-4.8429489999999991
 31
0.0
  0
LINE
  5
9F
  8
DETAIL
  6
CONTINUOUS
 62
     5
 10
2.59992
 20
-194.84003999999999
 30
0.0
 11
2.59992
 21
-182.09935100000001
 31
0.0
  0
LINE
  5
A0
  8
DETAIL
  6
CONTINUOUS
 62
     5
 10
0.0
 20
-21.058698
 30
0.0
 11
0.0
 21
-20.258559000000002
 31
0.0
  0
LINE
  5
A1
  8
DETAIL
  6
CONTINUOUS
 62
     5
 10
0.0
 20
-20.258559000000002
 30
0.0
 11
0.0
 21
-4.8429489999999991
 31
0.0
  0
ARC
  5
A2
  8
DETAIL
  6
CONTINUOUS
 62
     5
 10
-3.1999019999999989
 20
-21.058698
 30
0.0
 40
0.7999760000000001
 50
271.16344600000002
 51
0.0
  0
LINE
  5
A3
  8
DETAIL
  6
CONTINUOUS
 62
     5
 10
-5.3890979999999988
 20
-14.499290999999999
 30
0.0
 11
-7.6231070000000001
 21
-13.900690000000001
 31
0.0
  0
LINE
  5
A4
  8
DETAIL
  6
CONTINUOUS
 62
     5
 10
3.299898999999999
 20
-4.8429489999999991
 30
0.0
 11
69.322552000000002
 21
-4.8429489999999991
 31
0.0
  0
LINE
  5
A5
  8
DETAIL
  6
CONTINUOUS
 62
     5
 10
-9.9518979999999981
 20
-1.779049999999998
 30
0.0
 11
-5.4878869999999988
 21
-2.9751780000000001
 31
0.0
  0
LINE
  5
A6
  8
DETAIL
  6
CONTINUOUS
 62
     5
 10
-9.9518979999999981
 20
-1.779049999999998
 30
0.0
 11
-10.624807000000001
 21
-4.2903799999999981
 31
0.0
  0
ARC
  5
A7
  8
DETAIL
  6
CONTINUOUS
 62
     5
 10
0.0
 20
-99.840040000000002
 30
0.0
 40
82.297479999999979
 50
0.0
 51
86.374155999999999
  0
LINE
  5
A8
  8
DETAIL
  6
CONTINUOUS
 62
     5
 10
-3.221782999999999
 20
-3.5823789999999991
 30
0.0
 11
-0.3946659999999999
 21
-4.3399029999999987
 31
0.0
  0
LINE
  5
A9
  8
DETAIL
  6
CONTINUOUS
 62
     5
 10
-81.038248999999965
 20
-99.840040000000002
 30
0.0
 11
-99.996938000000014
 21
-99.840040000000002
 31
0.0
  0
LINE
  5
AA
  8
DETAIL
  6
CONTINUOUS
 62
     5
 10
81.038248999999965
 20
-99.840040000000002
 30
0.0
 11
99.996938000000014
 21
-99.840040000000002
 31
0.0
  0
LINE
  5
AB
  8
DETAIL
  6
CONTINUOUS
 62
     5
 10
-114.996478
 20
-99.840040000000002
 30
0.0
 11
-99.996938000000014
 21
-99.840040000000002
 31
0.0
  0
LINE
  5
AC
  8
DETAIL
  6
CONTINUOUS
 62
     5
 10
114.996478
 20
-99.840040000000002
 30
0.0
 11
99.996938000000014
 21
-99.840040000000002
 31
0.0
  0
LINE
  5
AD
  8
DETAIL
  6
CONTINUOUS
 62
     5
 10
-115.0
 20
-99.840040000000002
 30
0.0
 11
-115.0
 21
-103.43993
 31
0.0
  0
LINE
  5
AE
  8
DETAIL
  6
CONTINUOUS
 62
     5
 10
115.0
 20
-99.840040000000002
 30
0.0
 11
115.0
 21
-103.43993
 31
0.0
  0
LINE
  5
AF
  8
DETAIL
  6
CONTINUOUS
 62
     5
 10
-83.170344999999998
 20
-103.43993
 30
0.0
 11
-99.996938000000014
 21
-103.43993
 31
0.0
  0
LINE
  5
B0
  8
DETAIL
  6
CONTINUOUS
 62
     5
 10
83.170344999999998
 20
-103.43993
 30
0.0
 11
99.996938000000014
 21
-103.43993
 31
0.0
  0
LINE
  5
B1
  8
DETAIL
  6
CONTINUOUS
 62
     5
 10
-115.0
 20
-103.43993
 30
0.0
 11
-99.996938000000014
 21
-103.43993
 31
0.0
  0
LINE
  5
B2
  8
DETAIL
  6
CONTINUOUS
 62
     5
 10
115.0
 20
-103.43993
 30
0.0
 11
99.996938000000014
 21
-103.43993
 31
0.0
  0
ARC
  5
B3
  8
DETAIL
  6
CONTINUOUS
 62
     5
 10
81.038248999999965
 20
-102.93994499999999
 30
0.0
 40
3.0999050000000001
 50
90.0
 51
177.809369
  0
LINE
  5
B4
  8
DETAIL
  6
CONTINUOUS
 62
     5
 10
-90.497229000000004
 20
-96.840131999999997
 30
0.0
 11
-99.996938000000014
 21
-96.840131999999997
 31
0.0
  0
LINE
  5
B5
  8
DETAIL
  6
CONTINUOUS
 62
     5
 10
90.497229000000004
 20
-96.840131999999997
 30
0.0
 11
99.996938000000014
 21
-96.840131999999997
 31
0.0
  0
LINE
  5
B6
  8
DETAIL
  6
CONTINUOUS
 62
     5
 10
-109.496647
 20
-96.840131999999997
 30
0.0
 11
-99.996938000000014
 21
-96.840131999999997
 31
0.0
  0
LINE
  5
B7
  8
DETAIL
  6
CONTINUOUS
 62
     5
 10
109.496647
 20
-96.840131999999997
 30
0.0
 11
99.996938000000014
 21
-96.840131999999997
 31
0.0
  0
LINE
  5
B8
  8
DETAIL
  6
CONTINUOUS
 62
     5
 10
-88.997275000000002
 20
-106.839826
 30
0.0
 11
-99.996938000000014
 21
-106.839826
 31
0.0
  0
LINE
  5
B9
  8
DETAIL
  6
CONTINUOUS
 62
     5
 10
88.997275000000002
 20
-106.839826
 30
0.0
 11
99.996938000000014
 21
-106.839826
 31
0.0
  0
LINE
  5
BA
  8
DETAIL
  6
CONTINUOUS
 62
     5
 10
-110.996601
 20
-106.839826
 30
0.0
 11
-99.996938000000014
 21
-106.839826
 31
0.0
  0
LINE
  5
BB
  8
DETAIL
  6
CONTINUOUS
 62
     5
 10
110.996601
 20
-106.839826
 30
0.0
 11
99.996938000000014
 21
-106.839826
 31
0.0
  0
LINE
  5
BC
  8
DETAIL
  6
CONTINUOUS
 62
     5
 10
-90.997213000000002
 20
-114.839581
 30
0.0
 11
-99.996938000000014
 21
-114.839581
 31
0.0
  0
LINE
  5
BD
  8
DETAIL
  6
CONTINUOUS
 62
     5
 10
90.997213000000002
 20
-114.839581
 30
0.0
 11
99.996938000000014
 21
-114.839581
 31
0.0
  0
LINE
  5
BE
  8
DETAIL
  6
CONTINUOUS
 62
     5
 10
-108.996662
 20
-114.839581
 30
0.0
 11
-99.996938000000014
 21
-114.839581
 31
0.0
  0
LINE
  5
BF
  8
DETAIL
  6
CONTINUOUS
 62
     5
 10
108.996662
 20
-114.839581
 30
0.0
 11
99.996938000000014
 21
-114.839581
 31
0.0
  0
LINE
  5
C0
  8
DETAIL
  6
CONTINUOUS
 62
     5
 10
-91.497197999999969
 20
-103.43993
 30
0.0
 11
-91.497197999999969
 21
-106.839826
 31
0.0
  0
LINE
  5
C1
  8
DETAIL
  6
CONTINUOUS
 62
     5
 10
91.497197999999969
 20
-103.43993
 30
0.0
 11
91.497197999999969
 21
-106.839826
 31
0.0
  0
LINE
  5
C2
  8
DETAIL
  6
CONTINUOUS
 62
     5
 10
-108.49667700000001
 20
-103.43993
 30
0.0
 11
-108.49667700000001
 21
-106.839826
 31
0.0
  0
LINE
  5
C3
  8
DETAIL
  6
CONTINUOUS
 62
     5
 10
108.49667700000001
 20
-103.43993
 30
0.0
 11
108.49667700000001
 21
-106.839826
 31
0.0
  0
LINE
  5
C4
  8
DETAIL
  6
CONTINUOUS
 62
     5
 10
-90.497229000000004
 20
-96.840131999999997
 30
0.0
 11
-90.497229000000004
 21
-99.840040000000002
 31
0.0
  0
LINE
  5
C5
  8
DETAIL
  6
CONTINUOUS
 62
     5
 10
90.497229000000004
 20
-96.840131999999997
 30
0.0
 11
90.497229000000004
 21
-99.840040000000002
 31
0.0
  0
LINE
  5
C6
  8
DETAIL
  6
CONTINUOUS
 62
     5
 10
-109.496647
 20
-96.840131999999997
 30
0.0
 11
-109.496647
 21
-99.840040000000002
 31
0.0
  0
LINE
  5
C7
  8
DETAIL
  6
CONTINUOUS
 62
     5
 10
109.496647
 20
-96.840131999999997
 30
0.0
 11
109.496647
 21
-99.840040000000002
 31
0.0
  0
LINE
  5
C8
  8
DETAIL
  6
CONTINUOUS
 62
     5
 10
-88.997275000000002
 20
-106.839826
 30
0.0
 11
-88.997275000000002
 21
-112.839642
 31
0.0
  0
LINE
  5
C9
  8
DETAIL
  6
CONTINUOUS
 62
     5
 10
88.997275000000002
 20
-106.839826
 30
0.0
 11
88.997275000000002
 21
-112.839642
 31
0.0
  0
LINE
  5
CA
  8
DETAIL
  6
CONTINUOUS
 62
     5
 10
-110.996601
 20
-106.839826
 30
0.0
 11
-110.996601
 21
-112.839642
 31
0.0
  0
LINE
  5
CB
  8
DETAIL
  6
CONTINUOUS
 62
     5
 10
110.996601
 20
-106.839826
 30
0.0
 11
110.996601
 21
-112.839642
 31
0.0
  0
ARC
  5
CC
  8
DETAIL
  6
CONTINUOUS
 62
     5
 10
-90.997213000000002
 20
-112.839642
 30
0.0
 40
1.999938999999999
 50
270.0
 51
0.0
  0
ARC
  5
CD
  8
DETAIL
  6
CONTINUOUS
 62
     5
 10
90.997213000000002
 20
-112.839642
 30
0.0
 40
1.999938999999999
 50
180.0
 51
270.0
  0
ARC
  5
CE
  8
DETAIL
  6
CONTINUOUS
 62
     5
 10
-108.996662
 20
-112.839642
 30
0.0
 40
1.999938999999999
 50
180.0
 51
270.0
  0
ARC
  5
CF
  8
DETAIL
  6
CONTINUOUS
 62
     5
 10
108.996662
 20
-112.839642
 30
0.0
 40
1.999938999999999
 50
270.0
 51
0.0
  0
ARC
  5
D0
  8
DETAIL
  6
CONTINUOUS
 62
     5
 10
-81.038248999999965
 20
-102.93994499999999
 30
0.0
 40
3.0999050000000001
 50
2.1906310000000002
 51
90.0
  0
LINE
  5
D1
  8
DETAIL
  6
CONTINUOUS
 62
     5
 10
3.299898999999999
 20
-15.628309
 30
0.0
 11
3.299898999999999
 21
-4.8429489999999991
 31
0.0
  0
ARC
  5
D2
  8
DETAIL
  6
CONTINUOUS
 62
     5
 10
5.2998380000000003
 20
-15.628309
 30
0.0
 40
1.999938999999999
 50
180.0
 51
267.41639700000002
  0
ARC
  5
D3
  8
DETAIL
  6
CONTINUOUS
 62
     5
 10
0.0
 20
-99.840040000000002
 30
0.0
 40
82.297479999999979
 50
98.242417000000003
 51
180.0
  0
ARC
  5
D4
  8
DETAIL
  6
CONTINUOUS
 62
     5
 10
-12.149474
 20
-23.380161999999999
 30
0.0
 40
4.999846999999999
 50
40.201168000000003
 51
85.972433999999978
  0
ARC
  5
D5
  8
DETAIL
  6
CONTINUOUS
 62
     5
 10
-4.5118790000000004
 20
-16.925626999999999
 30
0.0
 40
4.999846999999999
 50
220.201168
 51
272.56330000000003
  0
ARC
  5
D6
  8
DETAIL
  6
CONTINUOUS
 62
     5
 10
0.0
 20
-99.840040000000002
 30
0.0
 40
82.297479999999979
 50
183.165603
 51
356.83439700000002
  0
ARC
  5
D7
  8
DETAIL
  6
CONTINUOUS
 62
     5
 10
83.170344999999998
 20
-104.439899
 30
0.0
 40
0.9999689999999999
 50
90.0
 51
176.834397
  0
ARC
  5
D8
  8
DETAIL
  6
CONTINUOUS
 62
     5
 10
-83.170344999999998
 20
-104.439899
 30
0.0
 40
0.9999689999999999
 50
3.1656029999999991
 51
90.0
  0
ARC
  5
D9
  8
DETAIL
  6
CONTINUOUS
 62
     5
 10
-1.1877690000000001
 20
-4.3550449999999987
 30
0.0
 40
4.514113
 50
353.79511100000002
 51
171.62385900000001
  0
LINE
  5
DA
  8
DETAIL
  6
CONTINUOUS
 62
     5
 10
-5.3890979999999988
 20
-14.499290999999999
 30
0.0
 11
-3.3499469999999989
 21
-3.934572999999999
 31
0.0
  0
LINE
  5
DB
  8
DETAIL
  6
CONTINUOUS
 62
     5
 10
-7.6231070000000001
 20
-13.900690000000001
 30
0.0
 11
-5.6537300000000004
 21
-3.6974699999999991
 31
0.0
  0
ARC
  5
DC
  8
DETAIL
  6
CONTINUOUS
 62
     5
 10
-1.699948
 20
-4.3399029999999987
 30
0.0
 40
1.699948
 50
0.0
 51
165.0
  0
LINE
  5
DD
  8
DETAIL
  6
CONTINUOUS
 62
     5
 10
-10.624807000000001
 20
-4.2903799999999981
 30
0.0
 11
-6.0620510000000003
 21
-5.512966999999998
 31
0.0
  0
LINE
  5
DE
  8
DETAIL
  6
CONTINUOUS
 62
     5
 10
-3.8280430000000001
 20
-6.1115680000000001
 30
0.0
 11
-2.399926999999999
 21
-6.4942299999999991
 31
0.0
  0
LINE
  5
DF
  8
DETAIL
  6
CONTINUOUS
 62
     5
 10
-2.399926999999999
 20
-21.058698
 30
0.0
 11
-2.399926999999999
 21
-4.8429489999999991
 31
0.0
  0
LINE
  5
E0
  8
DETAIL
  6
CONTINUOUS
 62
     5
 10
78.801841999999994
 20
-76.109368000000003
 30
0.0
 11
108.891291
 21
-46.007806000000002
 31
0.0
  0
LINE
  5
E1
  8
DETAIL
  6
CONTINUOUS
 62
     5
 10
78.540082999999981
 20
-75.256904000000006
 30
0.0
 11
108.33693599999999
 21
-45.453451000000001
 31
0.0
  0
LINE
  5
E2
  8
DETAIL
  6
CONTINUOUS
 62
     5
 10
108.198347
 20
-45.592039999999997
 30
0.0
 11
106.81246
 21
-44.206153
 31
0.0
  0
ARC
  5
E3
  8
DETAIL
  6
CONTINUOUS
 62
     5
 10
107.78258099999999
 20
-44.899095999999993
 30
0.0
 40
0.783976
 50
315.0
 51
45.0
  0
ARC
  5
E4
  8
DETAIL
  6
CONTINUOUS
 62
     5
 10
107.78258099999999
 20
-44.899095999999993
 30
0.0
 40
1.567952
 50
315.0
 51
45.0
  0
LINE
  5
E5
  8
DETAIL
  6
CONTINUOUS
 62
     5
 10
106.81246
 20
-44.206153
 30
0.0
 11
108.059758
 21
-42.958854999999993
 31
0.0
  0
LINE
  5
E6
  8
DETAIL
  6
CONTINUOUS
 62
     5
 10
108.33693599999999
 20
-44.344741999999989
 30
0.0
 11
107.505404
 21
-43.513210000000001
 31
0.0
  0
LINE
  5
E7
  8
DETAIL
  6
CONTINUOUS
 62
     5
 10
107.71328699999999
 20
-43.305326999999998
 30
0.0
 11
129.600829
 21
-65.192868999999988
 31
0.0
  0
LINE
  5
E8
  8
DETAIL
  6
CONTINUOUS
 62
     5
 10
129.600829
 20
-65.192868999999988
 30
0.0
 11
108.81252600000001
 21
-85.981172000000001
 31
0.0
  0
LINE
  5
E9
  8
DETAIL
  6
CONTINUOUS
 62
     5
 10
88.868729000000002
 20
-66.038428999999994
 30
0.0
 11
108.81252600000001
 21
-85.981172000000001
 31
0.0
  0
ARC
  5
EA
  8
DETAIL
  6
CONTINUOUS
 62
     5
 10
133.41201799999999
 20
-68.311114000000003
 30
0.0
 40
0.5879820000000002
 50
315.0
 51
45.0
  0
LINE
  5
EB
  8
DETAIL
  6
CONTINUOUS
 62
     5
 10
99.180612999999994
 20
-33.248176999999998
 30
0.0
 11
133.82778400000001
 21
-67.895347999999998
 31
0.0
  0
LINE
  5
EC
  8
DETAIL
  6
CONTINUOUS
 62
     5
 10
106.80298999999999
 20
-95.751673999999994
 30
0.0
 11
133.82778400000001
 21
-68.726881000000006
 31
0.0
  0
LINE
  5
ED
  8
DETAIL
  6
CONTINUOUS
 62
     5
 10
70.383178999999998
 20
-5.2822760000000004
 30
0.0
 11
133.82778400000001
 21
-68.726881000000006
 31
0.0
  0
LINE
  5
EE
  8
DETAIL
  6
CONTINUOUS
 62
     5
 10
82.980035000000001
 20
-71.929493999999977
 30
0.0
 11
106.80298999999999
 21
-95.751673999999994
 31
0.0
  0
LINE
  5
EF
  8
DETAIL
  6
CONTINUOUS
 62
     5
 10
82.559440000000023
 20
-72.339656000000005
 30
0.0
 11
105.971458
 21
-95.751673999999994
 31
0.0
  0
LINE
  5
F0
  8
DETAIL
  6
CONTINUOUS
 62
     5
 10
110.0
 20
-44.899095999999993
 30
0.0
 11
82.559440000000023
 21
-72.339656000000005
 31
0.0
  0
LINE
  5
F1
  8
DETAIL
  6
CONTINUOUS
 62
     5
 10
99.260788000000005
 20
-55.642186000000002
 30
0.0
 11
112.277244
 21
-68.657585999999995
 31
0.0
  0
ARC
  5
F2
  8
DETAIL
  6
CONTINUOUS
 62
     5
 10
81.866496999999981
 20
-71.646713000000005
 30
0.0
 40
0.5879820000000002
 50
45.0
 51
135.0
  0
LINE
  5
F3
  8
DETAIL
  6
CONTINUOUS
 62
     5
 10
81.866496999999981
 20
-71.646713000000005
 30
0.0
 11
80.203432999999976
 21
-73.309776999999983
 31
0.0
  0
LINE
  5
F4
  8
DETAIL
  6
CONTINUOUS
 62
     5
 10
81.450731000000005
 20
-71.230947
 30
0.0
 11
79.787666999999999
 21
-72.894010999999978
 31
0.0
  0
LINE
  5
F5
  8
DETAIL
  6
CONTINUOUS
 62
     5
 10
79.787666999999999
 20
-72.894010999999978
 30
0.0
 11
80.203432999999976
 21
-73.309776999999983
 31
0.0
  0
CIRCLE
  5
F6
  8
DETAIL
  6
CONTINUOUS
 62
     5
 39
50.0
 10
0.0
 20
-99.840040000000002
 30
0.0
 40
74.5
  0
CIRCLE
  5
F7
  8
DETAIL
  6
CONTINUOUS
 62
     5
 39
50.0
 10
0.0
 20
-99.840040000000002
 30
0.0
 40
78.0
  0
LINE
  5
F8
  8
NOTE
  6
CONTINUOUS
 62
     4
 10
-100.0
 20
-119.84004
 30
0.0
 11
-100.0
 21
-79.840040000000002
 31
0.0
  0
LINE
  5
F9
  8
NOTE
  6
CONTINUOUS
 62
     4
 10
-120.0
 20
-99.840040000000002
 30
0.0
 11
-80.0
 21
-99.840040000000002
 31
0.0
  0
LINE
  5
FA
  8
NOTE
  6
CONTINUOUS
 62
     4
 10
100.0
 20
-119.84004
 30
0.0
 11
100.0
 21
-79.840040000000002
 31
0.0
  0
LINE
  5
FB
  8
NOTE
  6
CONTINUOUS
 62
     4
 10
80.0
 20
-99.840040000000002
 30
0.0
 11
120.0
 21
-99.840040000000002
 31
0.0
  0
LINE
  5
FC
  8
BASIS
  6
DASHDOT
 62
     6
 39
50.0
 10
0.0
 20
27.079719000000001
 30
0.0
 11
0.0
 21
-218.47339199999999
 31
0.0
  0
LINE
  5
FD
  8
BASIS
  6
DASHDOT
 62
     6
 39
50.0
 10
-122.776556
 20
-99.840040000000002
 30
0.0
 11
122.776556
 21
-99.840040000000002
 31
0.0
  0
LINE
  5
FE
  8
DETAIL
  6
CONTINUOUS
 62
     5
 39
50.0
 10
99.180612999999994
 20
-33.248176999999998
 30
0.0
 11
98.764847000000003
 21
-33.663943000000003
 31
0.0
  0
LINE
  5
FF
  8
SIZE
  6
CONTINUOUS
 62
    30
 10
0.0
 20
19.493967000000001
 30
0.0
 11
0.0
 21
47.07971899999999
 31
0.0
  0
LINE
  5
100
  8
SIZE
  6
CONTINUOUS
 62
    30
 10
110.0
 20
-24.899096
 30
0.0
 11
110.0
 21
47.07971899999999
 31
0.0
  0
LINE
  5
101
  8
SIZE
  6
CONTINUOUS
 62
    30
 10
98.0
 20
27.079719000000001
 30
0.0
 11
12.0
 21
27.079719000000001
 31
0.0
  0
LINE
  5
102
  8
SIZE
  6
CONTINUOUS
 62
    30
 10
0.0
 20
27.079719000000001
 30
0.0
 11
-191.38670099999999
 21
27.079719000000001
 31
0.0
  0
CIRCLE
  5
103
  8
SIZE
  6
CONTINUOUS
 62
    30
 10
110.0
 20
27.079719000000001
 30
0.0
 40
6.0
  0
LINE
  5
104
  8
SIZE
  6
CONTINUOUS
 62
    30
 10
110.0
 20
27.079719000000001
 30
0.0
 11
98.0
 21
27.079719000000001
 31
0.0
  0
CIRCLE
  5
105
  8
SIZE
  6
CONTINUOUS
 62
    30
 10
0.0
 20
27.079719000000001
 30
0.0
 40
6.0
  0
LINE
  5
106
  8
SIZE
  6
CONTINUOUS
 62
    30
 10
0.0
 20
27.079719000000001
 30
0.0
 11
12.0
 21
27.079719000000001
 31
0.0
  0
TEXT
  5
107
  8
SIZE
  6
CONTINUOUS
 62
    30
 10
-166.3867002857142
 20
52.079718999999997
 30
0.0
 40
64.0
  1
110
 41
0.9
 72
     1
 11
-103.30098599999999
 21
52.079718999999997
 31
0.0
  0
POINT
  5
108
  8
DEFPOINTS
  6
CONTINUOUS
 62
    30
 10
0.0
 20
-0.506033
 30
0.0
  0
POINT
  5
109
  8
DEFPOINTS
  6
CONTINUOUS
 62
    30
 10
110.0
 20
-44.899095999999993
 30
0.0
  0
POINT
  5
10A
  8
DEFPOINTS
  6
CONTINUOUS
 62
    30
 10
110.0
 20
27.079719000000001
 30
0.0
  0
LINE
  5
10B
  8
SIZE
  6
CONTINUOUS
 62
    30
 10
0.0
 20
37.708202999999997
 30
0.0
 11
0.0
 21
170.17801499999999
 31
0.0
  0
LINE
  5
10C
  8
SIZE
  6
CONTINUOUS
 62
    30
 10
134.0
 20
-48.311114000000011
 30
0.0
 11
134.0
 21
170.17801499999999
 31
0.0
  0
LINE
  5
10D
  8
SIZE
  6
CONTINUOUS
 62
    30
 10
-12.0
 20
150.17801499999999
 30
0.0
 11
-24.0
 21
150.17801499999999
 31
0.0
  0
LINE
  5
10E
  8
SIZE
  6
CONTINUOUS
 62
    30
 10
146.0
 20
150.17801499999999
 30
0.0
 11
158.0
 21
150.17801499999999
 31
0.0
  0
LINE
  5
10F
  8
SIZE
  6
CONTINUOUS
 62
    30
 10
0.0
 20
150.17801499999999
 30
0.0
 11
134.0
 21
150.17801499999999
 31
0.0
  0
CIRCLE
  5
110
  8
SIZE
  6
CONTINUOUS
 62
    30
 10
0.0
 20
150.17801499999999
 30
0.0
 40
6.0
  0
LINE
  5
111
  8
SIZE
  6
CONTINUOUS
 62
    30
 10
0.0
 20
150.17801499999999
 30
0.0
 11
-12.0
 21
150.17801499999999
 31
0.0
  0
CIRCLE
  5
112
  8
SIZE
  6
CONTINUOUS
 62
    30
 10
134.0
 20
150.17801499999999
 30
0.0
 40
6.0
  0
LINE
  5
113
  8
SIZE
  6
CONTINUOUS
 62
    30
 10
134.0
 20
150.17801499999999
 30
0.0
 11
146.0
 21
150.17801499999999
 31
0.0
  0
TEXT
  5
114
  8
SIZE
  6
CONTINUOUS
 62
    30
 10
-2.9428571428571351
 20
175.17801499999999
 30
0.0
 40
64.0
  1
134
 41
0.9
 72
     1
 11
67.0
 21
175.17801499999999
 31
0.0
  0
POINT
  5
115
  8
DEFPOINTS
  6
CONTINUOUS
 62
    30
 10
0.0
 20
17.708203000000001
 30
0.0
  0
POINT
  5
116
  8
DEFPOINTS
  6
CONTINUOUS
 62
    30
 10
134.0
 20
-68.311114000000003
 30
0.0
  0
POINT
  5
117
  8
DEFPOINTS
  6
CONTINUOUS
 62
    30
 10
134.0
 20
150.17801499999999
 30
0.0
  0
LINE
  5
118
  8
SIZE
  6
CONTINUOUS
 62
    30
 10
-21.203475000000001
 20
0.15996
 30
0.0
 11
-247.26632900000001
 21
0.15996
 31
0.0
  0
LINE
  5
119
  8
SIZE
  6
CONTINUOUS
 62
    30
 10
-139.996938
 20
-99.840040000000002
 30
0.0
 11
-247.26632900000001
 21
-99.840040000000002
 31
0.0
  0
LINE
  5
11A
  8
SIZE
  6
CONTINUOUS
 62
    30
 10
-227.26632900000001
 20
12.15996
 30
0.0
 11
-227.26632900000001
 21
24.159960000000002
 31
0.0
  0
LINE
  5
11B
  8
SIZE
  6
CONTINUOUS
 62
    30
 10
-227.26632900000001
 20
-111.84004
 30
0.0
 11
-227.26632900000001
 21
-123.84004
 31
0.0
  0
LINE
  5
11C
  8
SIZE
  6
CONTINUOUS
 62
    30
 10
-227.26632900000001
 20
0.15996
 30
0.0
 11
-227.26632900000001
 21
-99.840040000000002
 31
0.0
  0
CIRCLE
  5
11D
  8
SIZE
  6
CONTINUOUS
 62
    30
 10
-227.26632900000001
 20
0.15996
 30
0.0
 40
6.0
  0
LINE
  5
11E
  8
SIZE
  6
CONTINUOUS
 62
    30
 10
-227.26632900000001
 20
0.15996
 30
0.0
 11
-227.26632900000001
 21
12.15996
 31
0.0
  0
CIRCLE
  5
11F
  8
SIZE
  6
CONTINUOUS
 62
    30
 10
-227.26632900000001
 20
-99.840040000000002
 30
0.0
 40
6.0
  0
LINE
  5
120
  8
SIZE
  6
CONTINUOUS
 62
    30
 10
-227.26632900000001
 20
-99.840040000000002
 30
0.0
 11
-227.26632900000001
 21
-111.84004
 31
0.0
  0
TEXT
  5
121
  8
SIZE
  6
CONTINUOUS
 62
    30
 10
-252.26632900000001
 20
-118.4114685714285
 30
0.0
 40
64.0
  1
100
 50
90.0
 41
0.9
 72
     1
 11
-252.26632900000001
 21
-49.840040000000002
 31
0.0
  0
POINT
  5
122
  8
DEFPOINTS
  6
CONTINUOUS
 62
    30
 10
-1.2034750000000001
 20
0.15996
 30
0.0
  0
POINT
  5
123
  8
DEFPOINTS
  6
CONTINUOUS
 62
    30
 10
-119.996938
 20
-99.840040000000002
 30
0.0
  0
POINT
  5
124
  8
DEFPOINTS
  6
CONTINUOUS
 62
    30
 10
-227.26632900000001
 20
-99.840040000000002
 30
0.0
  0
LINE
  5
125
  8
SIZE
  6
CONTINUOUS
 62
    30
 10
-142.776556
 20
-99.840040000000002
 30
0.0
 11
-247.26632900000001
 21
-99.840040000000002
 31
0.0
  0
LINE
  5
126
  8
SIZE
  6
CONTINUOUS
 62
    30
 10
-22.988655000000001
 20
-194.84003999999999
 30
0.0
 11
-247.26632900000001
 21
-194.84003999999999
 31
0.0
  0
LINE
  5
127
  8
SIZE
  6
CONTINUOUS
 62
    30
 10
-227.26632900000001
 20
-111.84004
 30
0.0
 11
-227.26632900000001
 21
-182.8400399999999
 31
0.0
  0
LINE
  5
128
  8
SIZE
  6
CONTINUOUS
 62
    30
 10
-227.26632900000001
 20
-194.84003999999999
 30
0.0
 11
-227.26632900000001
 21
-350.09718300000009
 31
0.0
  0
CIRCLE
  5
129
  8
SIZE
  6
CONTINUOUS
 62
    30
 10
-227.26632900000001
 20
-99.840040000000002
 30
0.0
 40
6.0
  0
LINE
  5
12A
  8
SIZE
  6
CONTINUOUS
 62
    30
 10
-227.26632900000001
 20
-99.840040000000002
 30
0.0
 11
-227.26632900000001
 21
-111.84004
 31
0.0
  0
CIRCLE
  5
12B
  8
SIZE
  6
CONTINUOUS
 62
    30
 10
-227.26632900000001
 20
-194.84003999999999
 30
0.0
 40
6.0
  0
LINE
  5
12C
  8
SIZE
  6
CONTINUOUS
 62
    30
 10
-227.26632900000001
 20
-194.84003999999999
 30
0.0
 11
-227.26632900000001
 21
-182.8400399999999
 31
0.0
  0
TEXT
  5
12D
  8
SIZE
  6
CONTINUOUS
 62
    30
 10
-252.26632900000001
 20
-325.0971834285715
 30
0.0
 40
64.0
  1
95
 50
90.0
 41
0.9
 72
     1
 11
-252.26632900000001
 21
-278.46861200000001
 31
0.0
  0
POINT
  5
12E
  8
DEFPOINTS
  6
CONTINUOUS
 62
    30
 10
-122.776556
 20
-99.840040000000002
 30
0.0
  0
POINT
  5
12F
  8
DEFPOINTS
  6
CONTINUOUS
 62
    30
 10
-2.9886549999999992
 20
-194.84003999999999
 30
0.0
  0
POINT
  5
130
  8
DEFPOINTS
  6
CONTINUOUS
 62
    30
 10
-227.26632900000001
 20
-194.84003999999999
 30
0.0
  0
LINE
  5
131
  8
SIZE
  6
CONTINUOUS
 62
    30
 10
418.68270599999988
 20
-453.22512
 30
0.0
 11
66.101754
 21
-155.63258500000001
 31
0.0
  0
LINE
  5
132
  8
SIZE
  6
CONTINUOUS
 62
    30
 10
-66.101754
 20
-44.047494999999998
 30
0.0
 11
-75.271940000000001
 21
-36.307488999999997
 31
0.0
  0
TEXT
  5
133
  8
SIZE
  6
CONTINUOUS
 62
    30
 10
262.27288120164047
 20
-288.49414645995159
 30
0.0
 40
64.0
  1
φ149
 50
319.83425999999997
 41
0.9
 72
     1
 11
344.43771299999997
 21
-357.84463899999997
 31
0.0
  0
LINE
  5
134
  8
SIZE
  6
CONTINUOUS
 62
    30
 10
-56.931568999999989
 20
-51.787502000000003
 30
0.0
 11
56.931568999999989
 21
-147.89257900000001
 31
0.0
  0
CIRCLE
  5
135
  8
SIZE
  6
CONTINUOUS
 62
    30
 10
-56.931568999999989
 20
-51.787502000000003
 30
0.0
 40
6.0
  0
LINE
  5
136
  8
SIZE
  6
CONTINUOUS
 62
    30
 10
-56.931568999999989
 20
-51.787502000000003
 30
0.0
 11
-66.101755000000011
 21
-44.047496000000002
 31
0.0
  0
CIRCLE
  5
137
  8
SIZE
  6
CONTINUOUS
 62
    30
 10
56.931568999999989
 20
-147.89257900000001
 30
0.0
 40
6.0
  0
LINE
  5
138
  8
SIZE
  6
CONTINUOUS
 62
    30
 10
56.931568999999989
 20
-147.89257900000001
 30
0.0
 11
66.101755000000011
 21
-155.63258500000001
 31
0.0
  0
POINT
  5
139
  8
DEFPOINTS
  6
CONTINUOUS
 62
    30
 10
56.931568999999989
 20
-147.89257900000001
 30
0.0
  0
POINT
  5
13A
  8
DEFPOINTS
  6
CONTINUOUS
 62
    30
 10
-56.931568999999989
 20
-51.787502000000003
 30
0.0
  0
LINE
  5
13B
  8
SIZE
  6
CONTINUOUS
 62
    30
 10
284.68476299999998
 20
-548.59398299999987
 30
0.0
 11
48.211958000000003
 21
-175.837456
 31
0.0
  0
LINE
  5
13C
  8
SIZE
  6
CONTINUOUS
 62
    30
 10
-48.211958000000003
 20
-23.842625000000002
 30
0.0
 11
-54.640218999999981
 21
-13.709636
 31
0.0
  0
TEXT
  5
13D
  8
SIZE
  6
CONTINUOUS
 62
    30
 10
184.84899110602191
 20
-344.5519606817744
 30
0.0
 40
64.0
  1
φ156
 50
302.39058199999999
 41
0.9
 72
     1
 11
242.44616500000001
 21
-435.34356799999989
 31
0.0
  0
LINE
  5
13E
  8
SIZE
  6
CONTINUOUS
 62
    30
 10
-41.783696999999997
 20
-33.975614
 30
0.0
 11
41.783696999999997
 21
-165.70446699999999
 31
0.0
  0
CIRCLE
  5
13F
  8
SIZE
  6
CONTINUOUS
 62
    30
 10
-41.783696999999997
 20
-33.975614
 30
0.0
 40
6.0
  0
LINE
  5
140
  8
SIZE
  6
CONTINUOUS
 62
    30
 10
-41.783696999999997
 20
-33.975614
 30
0.0
 11
-48.211958000000003
 21
-23.842625000000002
 31
0.0
  0
CIRCLE
  5
141
  8
SIZE
  6
CONTINUOUS
 62
    30
 10
41.783696999999997
 20
-165.70446699999999
 30
0.0
 40
6.0
  0
LINE
  5
142
  8
SIZE
  6
CONTINUOUS
 62
    30
 10
41.783696999999997
 20
-165.70446699999999
 30
0.0
 11
48.211958000000003
 21
-175.837456
 31
0.0
  0
POINT
  5
143
  8
DEFPOINTS
  6
CONTINUOUS
 62
    30
 10
41.783696999999997
 20
-165.70446699999999
 30
0.0
  0
POINT
  5
144
  8
DEFPOINTS
  6
CONTINUOUS
 62
    30
 10
-41.783696999999997
 20
-33.975614
 30
0.0
  0
LINE
  5
145
  8
SIZE
  6
CONTINUOUS
 62
    30
 10
100.0
 20
-139.84003999999999
 30
0.0
 11
100.0
 21
-399.41094199999998
 31
0.0
  0
LINE
  5
146
  8
SIZE
  6
CONTINUOUS
 62
    30
 10
-100.0
 20
-139.84003999999999
 30
0.0
 11
-100.0
 21
-399.41094199999998
 31
0.0
  0
LINE
  5
147
  8
SIZE
  6
CONTINUOUS
 62
    30
 10
88.0
 20
-379.41094199999998
 30
0.0
 11
-88.0
 21
-379.41094199999998
 31
0.0
  0
CIRCLE
  5
148
  8
SIZE
  6
CONTINUOUS
 62
    30
 10
100.0
 20
-379.41094199999998
 30
0.0
 40
6.0
  0
LINE
  5
149
  8
SIZE
  6
CONTINUOUS
 62
    30
 10
100.0
 20
-379.41094199999998
 30
0.0
 11
88.0
 21
-379.41094199999998
 31
0.0
  0
CIRCLE
  5
14A
  8
SIZE
  6
CONTINUOUS
 62
    30
 10
-100.0
 20
-379.41094199999998
 30
0.0
 40
6.0
  0
LINE
  5
14B
  8
SIZE
  6
CONTINUOUS
 62
    30
 10
-100.0
 20
-379.41094199999998
 30
0.0
 11
-88.0
 21
-379.41094199999998
 31
0.0
  0
TEXT
  5
14C
  8
SIZE
  6
CONTINUOUS
 62
    30
 10
-74.05714285714285
 20
-354.41094199999998
 30
0.0
 40
64.0
  1
200
 41
0.9
 72
     1
 11
0.0
 21
-354.41094199999998
 31
0.0
  0
POINT
  5
14D
  8
DEFPOINTS
  6
CONTINUOUS
 62
    30
 10
100.0
 20
-119.84004
 30
0.0
  0
POINT
  5
14E
  8
DEFPOINTS
  6
CONTINUOUS
 62
    30
 10
-100.0
 20
-119.84004
 30
0.0
  0
POINT
  5
14F
  8
DEFPOINTS
  6
CONTINUOUS
 62
    30
 10
-100.0
 20
-379.41094199999998
 30
0.0
  0
LINE
  5
150
  8
SIZE
  6
CONTINUOUS
 62
    30
 10
-115.0
 20
-121.639985
 30
0.0
 11
-115.0
 21
-539.96284500000002
 31
0.0
  0
LINE
  5
151
  8
SIZE
  6
CONTINUOUS
 62
    30
 10
115.0
 20
-121.639985
 30
0.0
 11
115.0
 21
-539.96284500000002
 31
0.0
  0
LINE
  5
152
  8
SIZE
  6
CONTINUOUS
 62
    30
 10
-103.0
 20
-519.96284500000002
 30
0.0
 11
103.0
 21
-519.96284500000002
 31
0.0
  0
CIRCLE
  5
153
  8
SIZE
  6
CONTINUOUS
 62
    30
 10
-115.0
 20
-519.96284500000002
 30
0.0
 40
6.0
  0
LINE
  5
154
  8
SIZE
  6
CONTINUOUS
 62
    30
 10
-115.0
 20
-519.96284500000002
 30
0.0
 11
-103.0
 21
-519.96284500000002
 31
0.0
  0
CIRCLE
  5
155
  8
SIZE
  6
CONTINUOUS
 62
    30
 10
115.0
 20
-519.96284500000002
 30
0.0
 40
6.0
  0
LINE
  5
156
  8
SIZE
  6
CONTINUOUS
 62
    30
 10
115.0
 20
-519.96284500000002
 30
0.0
 11
103.0
 21
-519.96284500000002
 31
0.0
  0
TEXT
  5
157
  8
SIZE
  6
CONTINUOUS
 62
    30
 10
-74.057142857142864
 20
-494.96284500000002
 30
0.0
 40
64.0
  1
230
 41
0.9
 72
     1
 11
0.0
 21
-494.96284500000002
 31
0.0
  0
POINT
  5
158
  8
DEFPOINTS
  6
CONTINUOUS
 62
    30
 10
-115.0
 20
-101.639985
 30
0.0
  0
POINT
  5
159
  8
DEFPOINTS
  6
CONTINUOUS
 62
    30
 10
115.0
 20
-101.639985
 30
0.0
  0
POINT
  5
15A
  8
DEFPOINTS
  6
CONTINUOUS
 62
    30
 10
115.0
 20
-519.96284500000002
 30
0.0
  0
TEXT
  5
15B
  8
NOTE
  6
CONTINUOUS
 62
     4
 10
-822.74732400000005
 20
95.480196000000007
 30
0.0
 40
64.0
  1
AH 4-19×12
 41
0.9
  0
LINE
  5
15C
  8
NOTE
  6
CONTINUOUS
 62
     4
 39
50.0
 10
-825.51817800000003
 20
85.520199000000005
 30
0.0
 11
-280.30217499999998
 21
85.520199000000005
 31
0.0
  0
LINE
  5
15D
  8
NOTE
  6
CONTINUOUS
 62
     4
 39
50.0
 10
-99.996938000000014
 20
-99.840040000000002
 30
0.0
 11
-280.30217499999998
 21
85.520199000000005
 31
0.0
  0
LINE
  5
15E
  8
NOTE
  6
CONTINUOUS
 62
     4
 10
-134.10074599999999
 20
-78.939763999999983
 30
0.0
 11
-99.992940000000004
 21
-99.836118000000013
 31
0.0
  0
LINE
  5
15F
  8
NOTE
  6
CONTINUOUS
 62
     4
 10
-99.992940000000004
 20
-99.836118000000013
 30
0.0
 11
-119.082989
 21
-64.685442000000009
 31
0.0
  0
LINE
  5
160
  8
OUTLINE
  6
CONTINUOUS
 62
     3
 10
0.0
 20
-4.8429489999999991
 30
0.0
 11
-2.399926999999999
 21
-4.8429489999999991
 31
0.0
  0
LINE
  5
161
  8
OUTLINE
  6
CONTINUOUS
 62
     3
 10
0.0
 20
-21.058698
 30
0.0
 11
0.0
 21
-20.258559000000002
 31
0.0
  0
LINE
  5
162
  8
OUTLINE
  6
CONTINUOUS
 62
     3
 10
0.0
 20
-20.258559000000002
 30
0.0
 11
0.0
 21
-4.8429489999999991
 31
0.0
  0
ARC
  5
163
  8
OUTLINE
  6
CONTINUOUS
 62
     3
 10
-3.1999019999999989
 20
-21.058698
 30
0.0
 40
0.7999760000000001
 50
271.16344600000002
 51
0.0
  0
LINE
  5
164
  8
OUTLINE
  6
CONTINUOUS
 62
     3
 10
-5.3890979999999988
 20
-14.499290999999999
 30
0.0
 11
-7.6231070000000001
 21
-13.900690000000001
 31
0.0
  0
ARC
  5
165
  8
OUTLINE
  6
CONTINUOUS
 62
     3
 10
0.0
 20
-99.840040000000002
 30
0.0
 40
82.297479999999979
 50
0.0
 51
86.374155999999999
  0
LINE
  5
166
  8
OUTLINE
  6
CONTINUOUS
 62
     3
 10
-82.297479999999979
 20
-99.840040000000002
 30
0.0
 11
-99.996938000000014
 21
-99.840040000000002
 31
0.0
  0
LINE
  5
167
  8
OUTLINE
  6
CONTINUOUS
 62
     3
 10
82.297479999999979
 20
-99.840040000000002
 30
0.0
 11
99.996938000000014
 21
-99.840040000000002
 31
0.0
  0
LINE
  5
168
  8
OUTLINE
  6
CONTINUOUS
 62
     3
 10
-114.996478
 20
-99.840040000000002
 30
0.0
 11
-99.996938000000014
 21
-99.840040000000002
 31
0.0
  0
LINE
  5
169
  8
OUTLINE
  6
CONTINUOUS
 62
     3
 10
114.996478
 20
-99.840040000000002
 30
0.0
 11
99.996938000000014
 21
-99.840040000000002
 31
0.0
  0
LINE
  5
16A
  8
OUTLINE
  6
CONTINUOUS
 62
     3
 10
-115.0
 20
-99.840040000000002
 30
0.0
 11
-115.0
 21
-103.43993
 31
0.0
  0
LINE
  5
16B
  8
OUTLINE
  6
CONTINUOUS
 62
     3
 10
115.0
 20
-99.840040000000002
 30
0.0
 11
115.0
 21
-103.43993
 31
0.0
  0
LINE
  5
16C
  8
OUTLINE
  6
CONTINUOUS
 62
     3
 10
-83.170344999999998
 20
-103.43993
 30
0.0
 11
-99.996938000000014
 21
-103.43993
 31
0.0
  0
LINE
  5
16D
  8
OUTLINE
  6
CONTINUOUS
 62
     3
 10
83.170344999999998
 20
-103.43993
 30
0.0
 11
99.996938000000014
 21
-103.43993
 31
0.0
  0
LINE
  5
16E
  8
OUTLINE
  6
CONTINUOUS
 62
     3
 10
-115.0
 20
-103.43993
 30
0.0
 11
-99.996938000000014
 21
-103.43993
 31
0.0
  0
LINE
  5
16F
  8
OUTLINE
  6
CONTINUOUS
 62
     3
 10
115.0
 20
-103.43993
 30
0.0
 11
99.996938000000014
 21
-103.43993
 31
0.0
  0
LINE
  5
170
  8
OUTLINE
  6
CONTINUOUS
 62
     3
 10
3.299898999999999
 20
-15.628309
 30
0.0
 11
3.299898999999999
 21
-4.8429489999999991
 31
0.0
  0
ARC
  5
171
  8
OUTLINE
  6
CONTINUOUS
 62
     3
 10
5.2998380000000003
 20
-15.628309
 30
0.0
 40
1.999938999999999
 50
180.0
 51
267.41639700000002
  0
ARC
  5
172
  8
OUTLINE
  6
CONTINUOUS
 62
     3
 10
0.0
 20
-99.840040000000002
 30
0.0
 40
82.297479999999979
 50
98.242417000000003
 51
180.0
  0
ARC
  5
173
  8
OUTLINE
  6
CONTINUOUS
 62
     3
 10
-12.149474
 20
-23.380161999999999
 30
0.0
 40
4.999846999999999
 50
40.201168000000003
 51
85.972433999999978
  0
ARC
  5
174
  8
OUTLINE
  6
CONTINUOUS
 62
     3
 10
-4.5118790000000004
 20
-16.925626999999999
 30
0.0
 40
4.999846999999999
 50
220.201168
 51
272.56330000000003
  0
ARC
  5
175
  8
OUTLINE
  6
CONTINUOUS
 62
     3
 10
0.0
 20
-99.840040000000002
 30
0.0
 40
82.297479999999979
 50
183.165603
 51
356.83439700000002
  0
ARC
  5
176
  8
OUTLINE
  6
CONTINUOUS
 62
     3
 10
83.170344999999998
 20
-104.439899
 30
0.0
 40
0.9999689999999999
 50
90.0
 51
176.834397
  0
ARC
  5
177
  8
OUTLINE
  6
CONTINUOUS
 62
     3
 10
-83.170344999999998
 20
-104.439899
 30
0.0
 40
0.9999689999999999
 50
3.1656029999999991
 51
90.0
  0
ARC
  5
178
  8
OUTLINE
  6
CONTINUOUS
 62
     3
 10
-1.1877690000000001
 20
-4.3550449999999987
 30
0.0
 40
4.514113
 50
353.79511100000002
 51
171.62385900000001
  0
LINE
  5
179
  8
OUTLINE
  6
CONTINUOUS
 62
     3
 10
-5.3890979999999988
 20
-14.499290999999999
 30
0.0
 11
-3.3499469999999989
 21
-3.934572999999999
 31
0.0
  0
LINE
  5
17A
  8
OUTLINE
  6
CONTINUOUS
 62
     3
 10
-7.6231070000000001
 20
-13.900690000000001
 30
0.0
 11
-5.6537300000000004
 21
-3.6974699999999991
 31
0.0
  0
ARC
  5
17B
  8
OUTLINE
  6
CONTINUOUS
 62
     3
 10
-1.699948
 20
-4.3399029999999987
 30
0.0
 40
1.699948
 50
0.0
 51
165.0
  0
LINE
  5
17C
  8
OUTLINE
  6
CONTINUOUS
 62
     3
 10
-2.399926999999999
 20
-21.058698
 30
0.0
 11
-2.399926999999999
 21
-4.8429489999999991
 31
0.0
  0
LINE
  5
17D
  8
NOTE
  6
CONTINUOUS
 62
     4
 10
109.234779
 20
-85.615649000000005
 30
0.0
 11
109.234779
 21
-45.615648999999991
 31
0.0
  0
LINE
  5
17E
  8
NOTE
  6
CONTINUOUS
 62
     4
 10
89.234778999999989
 20
-65.615649000000005
 30
0.0
 11
129.234779
 21
-65.615649000000005
 31
0.0
  0
LINE
  5
17F
  8
NOTE
  6
CONTINUOUS
 62
     4
 10
141.16044600000001
 20
-89.714813000000007
 30
0.0
 11
109.23506
 21
-65.615649000000005
 31
0.0
  0
LINE
  5
180
  8
NOTE
  6
CONTINUOUS
 62
     4
 10
109.23506
 20
-65.615649000000005
 30
0.0
 11
124.833673
 21
-102.448831
 31
0.0
  0
TEXT
  5
181
  8
NOTE
  6
CONTINUOUS
 62
     4
 10
203.869913
 20
-178.29889
 30
0.0
 40
64.0
  1
EL
 41
0.9
  0
LINE
  5
182
  8
NOTE
  6
CONTINUOUS
 62
     4
 39
50.0
 10
201.468639
 20
-187.55479099999999
 30
0.0
 11
293.27703500000001
 21
-187.55479099999999
 31
0.0
  0
LINE
  5
183
  8
NOTE
  6
CONTINUOUS
 62
     4
 39
50.0
 10
201.468639
 20
-187.55479099999999
 30
0.0
 11
109.234779
 21
-65.615368000000004
 31
0.0
  0
ENDSEC
  0
EOF
