  0
SECTION
  2
HEADER
  9
$ACADVER
  1
AC1009
  9
$INSBASE
 10
0.0
 20
0.0
 30
0.0
  9
$EXTMIN
 10
-738.69322087696492
 20
-687.33214189686441
 30
-0.0000000349181948
  9
$EXTMAX
 10
1206.381237362953
 20
559.79920232179393
 30
0.0000000814935746
  9
$LIMMIN
 10
-2970.0
 20
-2100.0
  9
$LIMMAX
 10
2970.0
 20
2100.0
  9
$ORTHOMODE
 70
     1
  9
$REGENMODE
 70
     0
  9
$FILLMODE
 70
     1
  9
$QTEXTMODE
 70
     0
  9
$MIRRTEXT
 70
     0
  9
$DRAGMODE
 70
     2
  9
$LTSCALE
 40
20.0
  9
$OSMODE
 70
    33
  9
$ATTMODE
 70
     1
  9
$TEXTSIZE
 40
64.0
  9
$TRACEWID
 40
0.05
  9
$TEXTSTYLE
  7
STANDARD
  9
$CLAYER
  8
ETC
  9
$CELTYPE
  6
CONTINUOUS
  9
$CECOLOR
 62
     8
  9
$DIMSCALE
 40
1.0
  9
$DIMASZ
 40
2.0
  9
$DIMEXO
 40
20.0
  9
$DIMDLI
 40
200.0
  9
$DIMRND
 40
0.0
  9
$DIMDLE
 40
0.0
  9
$DIMEXE
 40
30.0
  9
$DIMTP
 40
0.0
  9
$DIMTM
 40
0.0
  9
$DIMTXT
 40
64.0
  9
$DIMCEN
 40
0.09
  9
$DIMTSZ
 40
0.0
  9
$DIMTOL
 70
     0
  9
$DIMLIM
 70
     0
  9
$DIMTIH
 70
     0
  9
$DIMTOH
 70
     0
  9
$DIMSE1
 70
     0
  9
$DIMSE2
 70
     0
  9
$DIMTAD
 70
     1
  9
$DIMZIN
 70
     8
  9
$DIMBLK
  1

  9
$DIMASO
 70
     1
  9
$DIMSHO
 70
     0
  9
$DIMPOST
  1

  9
$DIMAPOST
  1

  9
$DIMALT
 70
     0
  9
$DIMALTD
 70
     2
  9
$DIMALTF
 40
25.399999999999999
  9
$DIMLFAC
 40
1.0
  9
$DIMTOFL
 70
     1
  9
$DIMTVP
 40
0.0
  9
$DIMTIX
 70
     1
  9
$DIMSOXD
 70
     0
  9
$DIMSAH
 70
     0
  9
$DIMBLK1
  1

  9
$DIMBLK2
  1

  9
$DIMSTYLE
  2
STANDARD
  9
$DIMCLRD
 70
     0
  9
$DIMCLRE
 70
     0
  9
$DIMCLRT
 70
     0
  9
$DIMTFAC
 40
1.0
  9
$DIMGAP
 40
0.09
  9
$LUNITS
 70
     2
  9
$LUPREC
 70
     4
  9
$SKETCHINC
 40
0.1
  9
$FILLETRAD
 40
20.0
  9
$AUNITS
 70
     1
  9
$AUPREC
 70
     3
  9
$MENU
  1
ACAD
  9
$ELEVATION
 40
0.0
  9
$PELEVATION
 40
0.0
  9
$THICKNESS
 40
0.0
  9
$LIMCHECK
 70
     1
  9
$BLIPMODE
 70
     0
  9
$CHAMFERA
 40
0.0
  9
$CHAMFERB
 40
0.0
  9
$SKPOLY
 70
     0
  9
$TDCREATE
 40
2451753.6518171299
  9
$TDUPDATE
 40
2454726.5586527889
  9
$TDINDWG
 40
0.0314646991
  9
$TDUSRTIMER
 40
0.0314589236
  9
$USRTIMER
 70
     1
  9
$ANGBASE
 50
0.0
  9
$ANGDIR
 70
     0
  9
$PDMODE
 70
     3
  9
$PDSIZE
 40
-2.0
  9
$PLINEWID
 40
0.0
  9
$COORDS
 70
     1
  9
$SPLFRAME
 70
     0
  9
$SPLINETYPE
 70
     6
  9
$SPLINESEGS
 70
     8
  9
$ATTDIA
 70
     0
  9
$ATTREQ
 70
     1
  9
$HANDLING
 70
     1
  9
$HANDSEED
  5
1FF
  9
$SURFTAB1
 70
     6
  9
$SURFTAB2
 70
     6
  9
$SURFTYPE
 70
     6
  9
$SURFU
 70
     6
  9
$SURFV
 70
     6
  9
$UCSNAME
  2

  9
$UCSORG
 10
0.0
 20
0.0
 30
0.0
  9
$UCSXDIR
 10
1.0
 20
0.0
 30
0.0
  9
$UCSYDIR
 10
0.0
 20
1.0
 30
0.0
  9
$PUCSNAME
  2

  9
$PUCSORG
 10
0.0
 20
0.0
 30
0.0
  9
$PUCSXDIR
 10
1.0
 20
0.0
 30
0.0
  9
$PUCSYDIR
 10
0.0
 20
1.0
 30
0.0
  9
$USERI1
 70
     0
  9
$USERI2
 70
     0
  9
$USERI3
 70
     0
  9
$USERI4
 70
     0
  9
$USERI5
 70
     0
  9
$USERR1
 40
20.0
  9
$USERR2
 40
0.0
  9
$USERR3
 40
0.0
  9
$USERR4
 40
0.0
  9
$USERR5
 40
0.0
  9
$WORLDVIEW
 70
     1
  9
$SHADEDGE
 70
     3
  9
$SHADEDIF
 70
    70
  9
$TILEMODE
 70
     1
  9
$MAXACTVP
 70
    64
  9
$PLIMCHECK
 70
     0
  9
$PEXTMIN
 10
1.0000000000000000E+020
 20
1.0000000000000000E+020
 30
1.0000000000000000E+020
  9
$PEXTMAX
 10
-1.0000000000000000E+020
 20
-1.0000000000000000E+020
 30
-1.0000000000000000E+020
  9
$PLIMMIN
 10
0.0
 20
0.0
  9
$PLIMMAX
 10
12.0
 20
9.0
  9
$UNITMODE
 70
     0
  9
$VISRETAIN
 70
     1
  9
$PLINEGEN
 70
     0
  9
$PSLTSCALE
 70
     1
  0
ENDSEC
  0
SECTION
  2
TABLES
  0
TABLE
  2
VPORT
 70
     1
  0
VPORT
  2
*ACTIVE
 70
     0
 10
0.0
 20
0.0
 11
1.0
 21
1.0
 12
233.84400824299439
 22
-63.766469787535243
 13
0.0
 23
0.0
 14
400.0
 24
400.0
 15
400.0
 25
400.0
 16
0.0
 26
0.0
 36
1.0
 17
0.0
 27
0.0
 37
0.0
 40
1257.6114395482271
 41
1.771388499298737
 42
50.0
 43
0.0
 44
0.0
 50
0.0
 51
0.0
 71
     0
 72
   500
 73
     1
 74
     0
 75
     0
 76
     0
 77
     0
 78
     1
  0
ENDTAB
  0
TABLE
  2
LTYPE
 70
     7
  0
LTYPE
  2
CONTINUOUS
 70
     0
  3
実線
 72
    65
 73
     0
 40
0.0
  0
LTYPE
  2
DOT
 70
     0
  3
...............................................
 72
    65
 73
     2
 40
0.8
 49
0.5
 49
-0.3
  0
LTYPE
  2
DASHED
 70
     0
  3
_ _ _ _ _ _ _ _ _ _ _ _ _ _ _ _ _ _ _ _ _ _ _
 72
    65
 73
     2
 40
2.0
 49
1.1999999999999991
 49
-0.8
  0
LTYPE
  2
DASHDOT
 70
     0
  3
____ _ ____ _ ____ _ ____ _ ____ _ ____ _ ____
 72
    65
 73
     4
 40
5.5
 49
4.0
 49
-0.6
 49
0.3
 49
-0.6
  0
LTYPE
  2
DASHDOT1
 70
     0
  3
____ _ ____ _ ____ _ ____ _ ____ _ ____ _ ____
 72
    65
 73
     4
 40
2.0
 49
1.5
 49
-0.2
 49
0.1
 49
-0.2
  0
LTYPE
  2
DIVIDE
 70
     0
  3
_____ _ _ _____ _ _ _____ _ _ _____ _ _ ____
 72
    65
 73
     6
 40
6.4000000000000004
 49
4.0
 49
-0.6
 49
0.3
 49
-0.6
 49
0.3
 49
-0.6
  0
LTYPE
  2
DIVIDE1
 70
     0
  3
_____ _ _ _____ _ _ _____ _ _ _____ _ _ ____
 72
    65
 73
     6
 40
3.2000000000000002
 49
2.0
 49
-0.3
 49
0.15
 49
-0.3
 49
0.15
 49
-0.3
  0
ENDTAB
  0
TABLE
  2
LAYER
 70
    12
  0
LAYER
  2
0
 70
     0
 62
     7
  6
CONTINUOUS
  0
LAYER
  2
OUTLINE
 70
     0
 62
     3
  6
CONTINUOUS
  0
LAYER
  2
DETAIL
 70
     0
 62
     5
  6
CONTINUOUS
  0
LAYER
  2
BASIS
 70
     0
 62
     6
  6
DASHDOT
  0
LAYER
  2
SIZE
 70
     0
 62
    30
  6
CONTINUOUS
  0
LAYER
  2
NOTE
 70
     0
 62
     4
  6
CONTINUOUS
  0
LAYER
  2
ARRANGE
 70
     0
 62
     1
  6
CONTINUOUS
  0
LAYER
  2
FIX
 70
     0
 62
    11
  6
CONTINUOUS
  0
LAYER
  2
ETC
 70
     0
 62
    61
  6
CONTINUOUS
  0
LAYER
  2
DEFPOINTS
 70
     0
 62
     7
  6
CONTINUOUS
  0
LAYER
  2
SERVICESPACE
 70
     0
 62
     2
  6
DASHDOT
  0
LAYER
  2
SYMBOLLINE
 70
     0
 62
    15
  6
CONTINUOUS
  0
ENDTAB
  0
TABLE
  2
STYLE
 70
     2
  0
STYLE
  2
STANDARD
 70
     0
 40
0.0
 41
0.9
 50
0.0
 71
     0
 42
64.0
  3
SIMPLEX
  4
BIGFONT
  0
STYLE
  2
ANNOTATIVE
 70
     0
 40
0.0
 41
1.0
 50
0.0
 71
     0
 42
0.2
  3
txt
  4

  0
ENDTAB
  0
TABLE
  2
VIEW
 70
     1
  0
VIEW
  2
ALL
 70
     0
 40
4508.0208510000002
 10
0.0
 20
41.309903999999989
 41
6252.631578999999
 11
0.0
 21
0.0
 31
1.0
 12
0.0
 22
0.0
 32
0.0
 42
50.0
 43
0.0
 44
0.0
 50
0.0
 71
     0
  0
ENDTAB
  0
TABLE
  2
UCS
 70
     0
  0
ENDTAB
  0
TABLE
  2
APPID
 70
     4
  0
APPID
  2
ACAD
 70
     0
  0
APPID
  2
ACADANNOTATIVE
 70
     0
  0
APPID
  2
ACAD_MLEADERVER
 70
     0
  0
APPID
  2
ACAD_EXEMPT_FROM_CAD_STANDARDS
 70
     0
  0
ENDTAB
  0
TABLE
  2
DIMSTYLE
 70
     2
  0
DIMSTYLE
  2
STANDARD
 70
     0
  3

  4

  5

  6

  7

 40
1.0
 41
0.18
 42
0.0625
 43
0.38
 44
0.18
 45
0.0
 46
0.0
 47
0.0
 48
0.0
140
0.18
141
0.09
142
0.0
143
25.399999999999999
144
1.0
145
0.0
146
1.0
147
0.09
 71
     0
 72
     0
 73
     1
 74
     1
 75
     0
 76
     0
 77
     0
 78
     0
170
     0
171
     2
172
     0
173
     0
174
     0
175
     0
176
     0
177
     0
178
     0
  0
DIMSTYLE
  2
ANNOTATIVE
 70
     0
  3

  4

  5

  6

  7

 40
1.0
 41
0.18
 42
0.0625
 43
0.38
 44
0.18
 45
0.0
 46
0.0
 47
0.0
 48
0.0
140
0.18
141
0.09
142
0.0
143
25.399999999999999
144
1.0
145
0.0
146
1.0
147
0.09
 71
     0
 72
     0
 73
     1
 74
     1
 75
     0
 76
     0
 77
     0
 78
     0
170
     0
171
     2
172
     0
173
     0
174
     0
175
     0
176
     0
177
     0
178
     0
  0
ENDTAB
  0
ENDSEC
  0
SECTION
  2
BLOCKS
  0
BLOCK
  8
0
  2
$MODEL_SPACE
 70
     0
 10
0.0
 20
0.0
 30
0.0
  3
$MODEL_SPACE
  1

  0
ENDBLK
  5
1A8
  8
0
  0
BLOCK
 67
     1
  8
0
  2
$PAPER_SPACE
 70
     0
 10
0.0
 20
0.0
 30
0.0
  3
$PAPER_SPACE
  1

  0
ENDBLK
  5
1A4
 67
     1
  8
0
  0
ENDSEC
  0
SECTION
  2
ENTITIES
  0
TEXT
  5
37
  8
ETC
  6
CONTINUOUS
 62
    61
 10
640.95741975382475
 20
495.77146403804949
 30
0.0
 40
64.0
  1
V-150JDF3_1
 41
0.9
  0
ARC
  5
38
  8
DETAIL
  6
CONTINUOUS
 62
     5
 10
176.40000000000001
 20
-14.999938
 30
0.0
 40
2.5
 50
180.0
 51
0.0
  0
ARC
  5
39
  8
DETAIL
  6
CONTINUOUS
 62
     5
 10
176.40000000000001
 20
15.000062
 30
0.0
 40
2.5
 50
0.0
 51
180.0
  0
LINE
  5
3A
  8
DETAIL
  6
CONTINUOUS
 62
     5
 10
178.90000000000001
 20
-14.999938
 30
0.0
 11
178.90000000000001
 21
15.000062
 31
0.0
  0
LINE
  5
3B
  8
DETAIL
  6
CONTINUOUS
 62
     5
 10
173.90000000000001
 20
-14.999938
 30
0.0
 11
173.90000000000001
 21
15.000062
 31
0.0
  0
LINE
  5
3C
  8
DETAIL
  6
CONTINUOUS
 62
     5
 10
185.5
 20
-122.89993799999991
 30
0.0
 11
183.39993799999991
 21
-125.0
 31
0.0
  0
LINE
  5
3D
  8
DETAIL
  6
CONTINUOUS
 62
     5
 10
183.40006199999999
 20
125.0
 30
0.0
 11
185.5
 21
122.90006200000001
 31
0.0
  0
LINE
  5
3E
  8
BASIS
  6
DASHDOT
 62
     6
 10
-240.501541
 20
0.0
 30
0.0
 11
244.15895299999991
 21
0.0
 31
0.0
  0
LINE
  5
3F
  8
BASIS
  6
DASHDOT
 62
     6
 10
0.0
 20
-241.10922199999999
 30
0.0
 11
0.0
 21
234.8694449999999
 31
0.0
  0
LINE
  5
40
  8
DETAIL
  6
CONTINUOUS
 62
     5
 10
147.5
 20
-147.5
 30
0.0
 11
136.30000000000001
 21
-147.5
 31
0.0
  0
LINE
  5
41
  8
DETAIL
  6
CONTINUOUS
 62
     5
 10
153.0
 20
-147.5
 30
0.0
 11
-153.0
 21
-147.5
 31
0.0
  0
LINE
  5
42
  8
DETAIL
  6
CONTINUOUS
 62
     5
 10
153.0
 20
-159.4999999999998
 30
0.0
 11
-153.0
 21
-159.4999999999998
 31
0.0
  0
LINE
  5
43
  8
DETAIL
  6
CONTINUOUS
 62
     5
 10
153.0
 20
-159.4999999999998
 30
0.0
 11
153.0
 21
-147.5
 31
0.0
  0
LINE
  5
44
  8
DETAIL
  6
CONTINUOUS
 62
     5
 10
-153.0
 20
-159.4999999999998
 30
0.0
 11
-153.0
 21
-147.5
 31
0.0
  0
LINE
  5
45
  8
DETAIL
  6
CONTINUOUS
 62
     5
 10
141.0
 20
141.5
 30
0.0
 11
-141.0
 21
141.5
 31
0.0
  0
LINE
  5
46
  8
DETAIL
  6
CONTINUOUS
 62
     5
 10
-141.0
 20
-147.5
 30
0.0
 11
-141.0
 21
141.5
 31
0.0
  0
LINE
  5
47
  8
DETAIL
  6
CONTINUOUS
 62
     5
 10
141.0
 20
-147.5
 30
0.0
 11
141.0
 21
141.5
 31
0.0
  0
LINE
  5
48
  8
DETAIL
  6
CONTINUOUS
 62
     5
 10
185.5
 20
-122.89993799999991
 30
0.0
 11
185.5
 21
122.90006200000001
 31
0.0
  0
LINE
  5
49
  8
DETAIL
  6
CONTINUOUS
 62
     5
 10
141.0
 20
125.0
 30
0.0
 11
183.40006199999999
 21
125.0
 31
0.0
  0
LINE
  5
4A
  8
DETAIL
  6
CONTINUOUS
 62
     5
 10
141.0
 20
-125.0
 30
0.0
 11
183.39993799999991
 21
-125.0
 31
0.0
  0
CIRCLE
  5
4B
  8
DETAIL
  6
CONTINUOUS
 62
     5
 10
176.5
 20
-110.0
 30
0.0
 40
2.5
  0
CIRCLE
  5
4C
  8
FIX
  6
CONTINUOUS
 62
    11
 10
176.5
 20
-110.0
 30
0.0
 40
2.5
  0
CIRCLE
  5
4D
  8
FIX
  6
CONTINUOUS
 62
    11
 10
176.5
 20
110.0
 30
0.0
 40
2.5
  0
CIRCLE
  5
4E
  8
DETAIL
  6
CONTINUOUS
 62
     5
 10
176.5
 20
110.0
 30
0.0
 40
2.5
  0
CIRCLE
  5
4F
  8
DETAIL
  6
CONTINUOUS
 62
     5
 10
-176.5
 20
110.0
 30
0.0
 40
2.5
  0
CIRCLE
  5
50
  8
FIX
  6
CONTINUOUS
 62
    11
 10
-176.5
 20
110.0
 30
0.0
 40
2.5
  0
CIRCLE
  5
51
  8
FIX
  6
CONTINUOUS
 62
    11
 10
-176.5
 20
-110.0
 30
0.0
 40
2.5
  0
CIRCLE
  5
52
  8
DETAIL
  6
CONTINUOUS
 62
     5
 10
-176.5
 20
-110.0
 30
0.0
 40
2.5
  0
LINE
  5
53
  8
DETAIL
  6
CONTINUOUS
 62
     5
 10
-141.0
 20
-125.0
 30
0.0
 11
-183.39993799999991
 21
-125.0
 31
0.0
  0
LINE
  5
54
  8
DETAIL
  6
CONTINUOUS
 62
     5
 10
-141.0
 20
125.0
 30
0.0
 11
-183.40006199999999
 21
125.0
 31
0.0
  0
LINE
  5
55
  8
DETAIL
  6
CONTINUOUS
 62
     5
 10
-185.5
 20
-122.89993799999991
 30
0.0
 11
-185.5
 21
122.90006200000001
 31
0.0
  0
LINE
  5
56
  8
DETAIL
  6
CONTINUOUS
 62
     5
 10
-183.40006199999999
 20
125.0
 30
0.0
 11
-185.5
 21
122.90006200000001
 31
0.0
  0
LINE
  5
57
  8
DETAIL
  6
CONTINUOUS
 62
     5
 10
-185.5
 20
-122.89993799999991
 30
0.0
 11
-183.39993799999991
 21
-125.0
 31
0.0
  0
LINE
  5
58
  8
DETAIL
  6
CONTINUOUS
 62
     5
 10
-173.90000000000001
 20
-14.999938
 30
0.0
 11
-173.90000000000001
 21
15.000062
 31
0.0
  0
LINE
  5
59
  8
DETAIL
  6
CONTINUOUS
 62
     5
 10
-178.90000000000001
 20
-14.999938
 30
0.0
 11
-178.90000000000001
 21
15.000062
 31
0.0
  0
ARC
  5
5A
  8
DETAIL
  6
CONTINUOUS
 62
     5
 10
-176.40000000000001
 20
15.000062
 30
0.0
 40
2.5
 50
0.0
 51
180.0
  0
ARC
  5
5B
  8
DETAIL
  6
CONTINUOUS
 62
     5
 10
-176.40000000000001
 20
-14.999938
 30
0.0
 40
2.5
 50
180.0
 51
0.0
  0
TEXT
  5
5C
  8
ETC
  6
CONTINUOUS
 62
    61
 10
638.96774075382473
 20
395.20590403804948
 30
0.0
 40
64.0
  1
換気扇
 41
0.9
  0
LINE
  5
5D
  8
DETAIL
  6
CONTINUOUS
 62
     5
 10
-190.0
 20
-170.0
 30
0.0
 11
-190.0
 21
170.0
 31
0.0
  0
LINE
  5
5E
  8
DETAIL
  6
CONTINUOUS
 62
     5
 10
-170.0
 20
190.0
 30
0.0
 11
170.0
 21
190.0
 31
0.0
  0
LINE
  5
5F
  8
DETAIL
  6
CONTINUOUS
 62
     5
 10
-170.0
 20
-190.0
 30
0.0
 11
170.0
 21
-190.0
 31
0.0
  0
ARC
  5
60
  8
DETAIL
  6
CONTINUOUS
 62
     5
 10
170.0
 20
170.0
 30
0.0
 40
20.0
 50
0.0
 51
90.0
  0
ARC
  5
61
  8
DETAIL
  6
CONTINUOUS
 62
     5
 10
170.0
 20
-170.0
 30
0.0
 40
20.0
 50
270.0
 51
0.0
  0
ARC
  5
62
  8
DETAIL
  6
CONTINUOUS
 62
     5
 10
-170.0
 20
-170.0
 30
0.0
 40
20.0
 50
180.0
 51
270.0
  0
ARC
  5
63
  8
DETAIL
  6
CONTINUOUS
 62
     5
 10
-170.0
 20
170.0
 30
0.0
 40
20.0
 50
90.0
 51
180.0
  0
LINE
  5
64
  8
DETAIL
  6
CONTINUOUS
 62
     5
 10
190.0
 20
-170.0
 30
0.0
 11
190.0
 21
170.0
 31
0.0
  0
LINE
  5
65
  8
OUTLINE
  6
CONTINUOUS
 62
     3
 10
-170.0
 20
190.0
 30
0.0
 11
170.0
 21
190.0
 31
0.0
  0
ARC
  5
66
  8
OUTLINE
  6
CONTINUOUS
 62
     3
 10
-170.0
 20
170.0
 30
0.0
 40
20.0
 50
90.0
 51
180.0
  0
LINE
  5
67
  8
OUTLINE
  6
CONTINUOUS
 62
     3
 10
-190.0
 20
-170.0
 30
0.0
 11
-190.0
 21
170.0
 31
0.0
  0
ARC
  5
68
  8
OUTLINE
  6
CONTINUOUS
 62
     3
 10
-170.0
 20
-170.0
 30
0.0
 40
20.0
 50
180.0
 51
270.0
  0
LINE
  5
69
  8
OUTLINE
  6
CONTINUOUS
 62
     3
 10
-170.0
 20
-190.0
 30
0.0
 11
170.0
 21
-190.0
 31
0.0
  0
ARC
  5
6A
  8
OUTLINE
  6
CONTINUOUS
 62
     3
 10
170.0
 20
-170.0
 30
0.0
 40
20.0
 50
270.0
 51
0.0
  0
ARC
  5
6B
  8
OUTLINE
  6
CONTINUOUS
 62
     3
 10
170.0
 20
170.0
 30
0.0
 40
20.0
 50
0.0
 51
90.0
  0
LINE
  5
6C
  8
OUTLINE
  6
CONTINUOUS
 62
     3
 10
190.0
 20
-170.0
 30
0.0
 11
190.0
 21
170.0
 31
0.0
  0
LINE
  5
6D
  8
SIZE
  6
CONTINUOUS
 62
    30
 10
669.688129
 20
-159.4999999999998
 30
0.0
 11
669.688129
 21
-294.49811699999992
 31
0.0
  0
LINE
  5
6E
  8
SIZE
  6
CONTINUOUS
 62
    30
 10
523.88302599999986
 20
-151.5
 30
0.0
 11
523.88302599999986
 21
-429.74262199999998
 31
0.0
  0
LINE
  5
6F
  8
SIZE
  6
CONTINUOUS
 62
    30
 10
153.0
 20
-392.311733
 30
0.0
 11
322.09860099999992
 21
-392.311733
 31
0.0
  0
LINE
  5
70
  8
SIZE
  6
CONTINUOUS
 62
    30
 10
-137.0
 20
-392.311733
 30
0.0
 11
-321.27798499999989
 21
-392.311733
 31
0.0
  0
TEXT
  5
71
  8
NOTE
  6
CONTINUOUS
 62
     4
 10
322.09860099999992
 20
249.29834299999999
 30
0.0
 40
64.0
  1
EL
 41
0.9
  0
TEXT
  5
72
  8
NOTE
  6
CONTINUOUS
 62
     4
 10
-628.97982999999999
 20
274.70375599999988
 30
0.0
 40
64.0
  1
4-φ5
 41
0.9
  0
LINE
  5
73
  8
NOTE
  6
CONTINUOUS
 62
     4
 10
-647.62842699999976
 20
251.103791
 30
0.0
 11
-383.43997400000001
 21
251.103791
 31
0.0
  0
LINE
  5
74
  8
NOTE
  6
CONTINUOUS
 62
     4
 10
300.341905
 20
221.32555300000001
 30
0.0
 11
424.66588300000001
 21
221.32555300000001
 31
0.0
  0
LINE
  5
75
  8
NOTE
  6
CONTINUOUS
 62
     4
 10
-176.5
 20
110.0
 30
0.0
 11
-383.43997400000001
 21
251.103791
 31
0.0
  0
LINE
  5
76
  8
NOTE
  6
CONTINUOUS
 62
     4
 10
116.5499999999999
 20
118.5
 30
0.0
 11
300.341905
 21
221.32555300000001
 31
0.0
  0
POINT
  5
77
  8
ARRANGE
  6
CONTINUOUS
 62
     1
 10
0.0
 20
0.0
 30
0.0
  0
CIRCLE
  5
78
  8
ARRANGE
  6
CONTINUOUS
 62
     1
 10
0.0
 20
0.0
 30
0.0
 40
40.0
  0
TEXT
  5
79
  8
NOTE
  6
CONTINUOUS
 62
     4
 10
-50.516065999999988
 20
-131.3546429999999
 30
0.0
 40
64.0
  1
EA
 41
0.9
  0
LINE
  5
7A
  8
SIZE
  6
CONTINUOUS
 62
    30
 10
-406.14691199999987
 20
-159.4999999999998
 30
0.0
 11
-406.14691199999987
 21
-414.46638199999978
 31
0.0
  0
LINE
  5
7B
  8
SIZE
  6
BYBLOCK
 62
    30
 10
-260.50154099999997
 20
0.0
 30
0.0
 11
-436.14691199999987
 21
0.0
 31
0.0
  0
LINE
  5
7C
  8
SIZE
  6
BYBLOCK
 62
    30
 10
-173.0
 20
-159.4999999999998
 30
0.0
 11
-436.14691199999987
 21
-159.4999999999998
 31
0.0
  0
LINE
  5
7D
  8
SIZE
  6
BYBLOCK
 62
    30
 10
-406.14691199999987
 20
-161.5
 30
0.0
 11
-406.14691199999987
 21
-163.4999999999998
 31
0.0
  0
LINE
  5
7E
  8
SIZE
  6
BYBLOCK
 62
    30
 10
-406.14691199999987
 20
2.0
 30
0.0
 11
-406.14691199999987
 21
4.0
 31
0.0
  0
LINE
  5
7F
  8
SIZE
  6
BYBLOCK
 62
    30
 10
-406.14691199999987
 20
-159.4999999999998
 30
0.0
 11
-406.14691199999987
 21
0.0
 31
0.0
  0
TEXT
  5
80
  8
SIZE
  6
BYBLOCK
 62
    30
 10
-438.14691199999999
 20
-408.19251899999989
 30
0.0
 40
64.0
  1
159.5
 50
90.0
 41
0.9
  0
LINE
  5
81
  8
SIZE
  6
BYBLOCK
 62
    30
 10
173.0
 20
-147.5
 30
0.0
 11
699.688129
 21
-147.5
 31
0.0
  0
LINE
  5
82
  8
SIZE
  6
BYBLOCK
 62
    30
 10
161.0
 20
141.5
 30
0.0
 11
699.688129
 21
141.5
 31
0.0
  0
LINE
  5
83
  8
SIZE
  6
BYBLOCK
 62
    30
 10
669.688129
 20
-145.5
 30
0.0
 11
669.688129
 21
-3.0
 31
0.0
  0
LINE
  5
84
  8
SIZE
  6
BYBLOCK
 62
    30
 10
669.688129
 20
139.5
 30
0.0
 11
669.688129
 21
-3.0
 31
0.0
  0
TEXT
  5
85
  8
SIZE
  6
BYBLOCK
 62
    30
 10
637.688129
 20
-75.685714000000004
 30
0.0
 40
64.0
  1
289
 50
90.0
 41
0.9
  0
LINE
  5
86
  8
SIZE
  6
BYBLOCK
 62
    30
 10
173.0
 20
-147.5
 30
0.0
 11
699.688129
 21
-147.5
 31
0.0
  0
LINE
  5
87
  8
SIZE
  6
BYBLOCK
 62
    30
 10
173.0
 20
-159.4999999999998
 30
0.0
 11
699.688129
 21
-159.4999999999998
 31
0.0
  0
LINE
  5
88
  8
SIZE
  6
BYBLOCK
 62
    30
 10
669.688129
 20
-161.5
 30
0.0
 11
669.688129
 21
-163.4999999999998
 31
0.0
  0
LINE
  5
89
  8
SIZE
  6
BYBLOCK
 62
    30
 10
669.688129
 20
-145.5
 30
0.0
 11
669.688129
 21
-143.5
 31
0.0
  0
LINE
  5
8A
  8
SIZE
  6
BYBLOCK
 62
    30
 10
669.688129
 20
-159.4999999999998
 30
0.0
 11
669.688129
 21
-147.5
 31
0.0
  0
TEXT
  5
8B
  8
SIZE
  6
BYBLOCK
 62
    30
 10
637.688129
 20
-281.62345499999992
 30
0.0
 40
64.0
  1
12
 50
90.0
 41
0.9
  0
LINE
  5
8C
  8
SIZE
  6
BYBLOCK
 62
    30
 10
264.158953
 20
0.0
 30
0.0
 11
553.88302599999997
 21
0.0
 31
0.0
  0
LINE
  5
8D
  8
SIZE
  6
BYBLOCK
 62
    30
 10
167.5
 20
-147.5
 30
0.0
 11
553.88302599999997
 21
-147.5
 31
0.0
  0
LINE
  5
8E
  8
SIZE
  6
BYBLOCK
 62
    30
 10
523.88302599999986
 20
-149.5
 30
0.0
 11
523.88302599999986
 21
-151.5
 31
0.0
  0
LINE
  5
8F
  8
SIZE
  6
BYBLOCK
 62
    30
 10
523.88302599999986
 20
2.0
 30
0.0
 11
523.88302599999986
 21
4.0
 31
0.0
  0
LINE
  5
90
  8
SIZE
  6
BYBLOCK
 62
    30
 10
523.88302599999986
 20
-147.5
 30
0.0
 11
523.88302599999986
 21
0.0
 31
0.0
  0
TEXT
  5
91
  8
SIZE
  6
BYBLOCK
 62
    30
 10
491.88302599999997
 20
-418.028975
 30
0.0
 40
64.0
  1
147.5
 50
90.0
 41
0.9
  0
LINE
  5
92
  8
SIZE
  6
BYBLOCK
 62
    30
 10
-203.40006199999999
 20
125.0
 30
0.0
 11
-672.24691800000005
 21
125.0
 31
0.0
  0
LINE
  5
93
  8
SIZE
  6
BYBLOCK
 62
    30
 10
-203.39993799999999
 20
-125.0
 30
0.0
 11
-672.24691800000005
 21
-125.0
 31
0.0
  0
LINE
  5
94
  8
SIZE
  6
BYBLOCK
 62
    30
 10
-642.24691800000005
 20
123.0
 30
0.0
 11
-642.24691800000005
 21
0.0
 31
0.0
  0
LINE
  5
95
  8
SIZE
  6
BYBLOCK
 62
    30
 10
-642.24691800000005
 20
-123.0
 30
0.0
 11
-642.24691800000005
 21
0.0
 31
0.0
  0
TEXT
  5
96
  8
SIZE
  6
BYBLOCK
 62
    30
 10
-674.24691800000005
 20
-74.057143000000025
 30
0.0
 40
64.0
  1
250
 50
90.0
 41
0.9
  0
LINE
  5
97
  8
SIZE
  6
BYBLOCK
 62
    30
 10
-216.5
 20
110.0
 30
0.0
 11
-539.12051899999994
 21
110.0
 31
0.0
  0
LINE
  5
98
  8
SIZE
  6
BYBLOCK
 62
    30
 10
-216.5
 20
-110.0
 30
0.0
 11
-539.12051899999994
 21
-110.0
 31
0.0
  0
LINE
  5
99
  8
SIZE
  6
BYBLOCK
 62
    30
 10
-509.12051900000012
 20
108.0
 30
0.0
 11
-509.12051900000012
 21
0.0
 31
0.0
  0
LINE
  5
9A
  8
SIZE
  6
BYBLOCK
 62
    30
 10
-509.12051900000012
 20
-108.0
 30
0.0
 11
-509.12051900000012
 21
0.0
 31
0.0
  0
TEXT
  5
9B
  8
SIZE
  6
BYBLOCK
 62
    30
 10
-541.12051899999994
 20
-74.057143000000025
 30
0.0
 40
64.0
  1
220
 50
90.0
 41
0.9
  0
LINE
  5
9C
  8
SIZE
  6
BYBLOCK
 62
    30
 10
185.5
 20
-142.89993799999999
 30
0.0
 11
185.5
 21
-687.15174999999999
 31
0.0
  0
LINE
  5
9D
  8
SIZE
  6
BYBLOCK
 62
    30
 10
-185.5
 20
-142.89993799999999
 30
0.0
 11
-185.5
 21
-687.15174999999999
 31
0.0
  0
LINE
  5
9E
  8
SIZE
  6
BYBLOCK
 62
    30
 10
183.49999999999989
 20
-657.15174999999977
 30
0.0
 11
-183.49999999999989
 21
-657.15174999999977
 31
0.0
  0
TEXT
  5
9F
  8
SIZE
  6
BYBLOCK
 62
    30
 10
-61.714286000000001
 20
-625.15174999999999
 30
0.0
 40
64.0
  1
371
 41
0.9
  0
LINE
  5
A0
  8
SIZE
  6
BYBLOCK
 62
    30
 10
176.5
 20
-150.0
 30
0.0
 11
176.5
 21
-552.89227599999992
 31
0.0
  0
LINE
  5
A1
  8
SIZE
  6
BYBLOCK
 62
    30
 10
-176.5
 20
-150.0
 30
0.0
 11
-176.5
 21
-552.89227599999992
 31
0.0
  0
LINE
  5
A2
  8
SIZE
  6
BYBLOCK
 62
    30
 10
174.5
 20
-522.89227599999992
 30
0.0
 11
-174.5
 21
-522.89227599999992
 31
0.0
  0
TEXT
  5
A3
  8
SIZE
  6
BYBLOCK
 62
    30
 10
-74.057143000000025
 20
-490.89227599999998
 30
0.0
 40
64.0
  1
353
 41
0.9
  0
LINE
  5
A4
  8
SIZE
  6
BYBLOCK
 62
    30
 10
-141.0
 20
-167.5
 30
0.0
 11
-141.0
 21
-422.311733
 31
0.0
  0
LINE
  5
A5
  8
SIZE
  6
BYBLOCK
 62
    30
 10
-153.0
 20
-179.49999999999989
 30
0.0
 11
-153.0
 21
-422.311733
 31
0.0
  0
LINE
  5
A6
  8
SIZE
  6
BYBLOCK
 62
    30
 10
-155.0
 20
-392.311733
 30
0.0
 11
-157.0
 21
-392.311733
 31
0.0
  0
LINE
  5
A7
  8
SIZE
  6
BYBLOCK
 62
    30
 10
-139.0
 20
-392.311733
 30
0.0
 11
-137.0
 21
-392.311733
 31
0.0
  0
LINE
  5
A8
  8
SIZE
  6
BYBLOCK
 62
    30
 10
-153.0
 20
-392.311733
 30
0.0
 11
-141.0
 21
-392.311733
 31
0.0
  0
TEXT
  5
A9
  8
SIZE
  6
BYBLOCK
 62
    30
 10
-306.25063599999987
 20
-360.31173299999989
 30
0.0
 40
64.0
  1
12
 41
0.9
  0
LINE
  5
AA
  8
SIZE
  6
BYBLOCK
 62
    30
 10
141.0
 20
-167.5
 30
0.0
 11
141.0
 21
-422.311733
 31
0.0
  0
LINE
  5
AB
  8
SIZE
  6
BYBLOCK
 62
    30
 10
153.0
 20
-179.49999999999989
 30
0.0
 11
153.0
 21
-422.311733
 31
0.0
  0
LINE
  5
AC
  8
SIZE
  6
BYBLOCK
 62
    30
 10
155.0
 20
-392.311733
 30
0.0
 11
157.0
 21
-392.311733
 31
0.0
  0
LINE
  5
AD
  8
SIZE
  6
BYBLOCK
 62
    30
 10
139.0
 20
-392.311733
 30
0.0
 11
137.0
 21
-392.311733
 31
0.0
  0
LINE
  5
AE
  8
SIZE
  6
BYBLOCK
 62
    30
 10
153.0
 20
-392.311733
 30
0.0
 11
141.0
 21
-392.311733
 31
0.0
  0
TEXT
  5
AF
  8
SIZE
  6
BYBLOCK
 62
    30
 10
220.85682199999999
 20
-360.31173299999989
 30
0.0
 40
64.0
  1
12
 41
0.9
  0
LINE
  5
B0
  8
SIZE
  6
BYBLOCK
 62
    30
 10
141.0
 20
-167.5
 30
0.0
 11
141.0
 21
-422.311733
 31
0.0
  0
LINE
  5
B1
  8
SIZE
  6
BYBLOCK
 62
    30
 10
-141.0
 20
-167.5
 30
0.0
 11
-141.0
 21
-422.311733
 31
0.0
  0
LINE
  5
B2
  8
SIZE
  6
BYBLOCK
 62
    30
 10
139.0
 20
-392.311733
 30
0.0
 11
0.0
 21
-392.311733
 31
0.0
  0
LINE
  5
B3
  8
SIZE
  6
BYBLOCK
 62
    30
 10
-139.0
 20
-392.311733
 30
0.0
 11
0.0
 21
-392.311733
 31
0.0
  0
TEXT
  5
B4
  8
SIZE
  6
BYBLOCK
 62
    30
 10
-74.057143000000025
 20
-360.31173299999989
 30
0.0
 40
64.0
  1
282
 41
0.9
  0
LINE
  5
B5
  8
SIZE
  6
BYBLOCK
 62
    30
 10
190.0
 20
190.0
 30
0.0
 11
190.0
 21
362.06628999999992
 31
0.0
  0
LINE
  5
B6
  8
SIZE
  6
BYBLOCK
 62
    30
 10
-190.0
 20
190.0
 30
0.0
 11
-190.0
 21
362.06628999999992
 31
0.0
  0
LINE
  5
B7
  8
SIZE
  6
BYBLOCK
 62
    30
 10
188.0
 20
332.06628999999992
 30
0.0
 11
-188.0
 21
332.06628999999992
 31
0.0
  0
TEXT
  5
B8
  8
SIZE
  6
BYBLOCK
 62
    30
 10
-106.6971429999999
 20
364.06628999999992
 30
0.0
 40
64.0
  1
□380
 41
0.9
  0
CIRCLE
  5
B9
  8
SIZE
  6
CONTINUOUS
 62
    30
 10
-190.0
 20
332.06628999999992
 30
0.0
 40
6.0
  0
CIRCLE
  5
BA
  8
SIZE
  6
CONTINUOUS
 62
    30
 10
190.0
 20
332.06628999999992
 30
0.0
 40
6.0
  0
CIRCLE
  5
BB
  8
SIZE
  6
CONTINUOUS
 62
    30
 10
-141.0
 20
-392.311733
 30
0.0
 40
6.0
  0
CIRCLE
  5
BC
  8
SIZE
  6
CONTINUOUS
 62
    30
 10
141.0
 20
-392.311733
 30
0.0
 40
6.0
  0
CIRCLE
  5
BD
  8
SIZE
  6
CONTINUOUS
 62
    30
 10
141.0
 20
-392.311733
 30
0.0
 40
6.0
  0
CIRCLE
  5
BE
  8
SIZE
  6
CONTINUOUS
 62
    30
 10
153.0
 20
-392.311733
 30
0.0
 40
6.0
  0
CIRCLE
  5
BF
  8
SIZE
  6
CONTINUOUS
 62
    30
 10
-141.0
 20
-392.311733
 30
0.0
 40
6.0
  0
CIRCLE
  5
C0
  8
SIZE
  6
CONTINUOUS
 62
    30
 10
-153.0
 20
-392.311733
 30
0.0
 40
6.0
  0
CIRCLE
  5
C1
  8
SIZE
  6
CONTINUOUS
 62
    30
 10
-176.5
 20
-522.89227599999992
 30
0.0
 40
6.0
  0
CIRCLE
  5
C2
  8
SIZE
  6
CONTINUOUS
 62
    30
 10
176.5
 20
-522.89227599999992
 30
0.0
 40
6.0
  0
CIRCLE
  5
C3
  8
SIZE
  6
CONTINUOUS
 62
    30
 10
-185.5
 20
-657.15174999999977
 30
0.0
 40
6.0
  0
CIRCLE
  5
C4
  8
SIZE
  6
CONTINUOUS
 62
    30
 10
185.5
 20
-657.15174999999977
 30
0.0
 40
6.0
  0
CIRCLE
  5
C5
  8
SIZE
  6
CONTINUOUS
 62
    30
 10
-509.12051900000012
 20
-110.0
 30
0.0
 40
6.0
  0
CIRCLE
  5
C6
  8
SIZE
  6
CONTINUOUS
 62
    30
 10
-509.12051900000012
 20
110.0
 30
0.0
 40
6.0
  0
CIRCLE
  5
C7
  8
SIZE
  6
CONTINUOUS
 62
    30
 10
-642.24691800000005
 20
-125.0
 30
0.0
 40
6.0
  0
CIRCLE
  5
C8
  8
SIZE
  6
CONTINUOUS
 62
    30
 10
-642.24691800000005
 20
125.0
 30
0.0
 40
6.0
  0
CIRCLE
  5
C9
  8
SIZE
  6
CONTINUOUS
 62
    30
 10
523.88302599999986
 20
0.0
 30
0.0
 40
6.0
  0
CIRCLE
  5
CA
  8
SIZE
  6
CONTINUOUS
 62
    30
 10
523.88302599999986
 20
-147.5
 30
0.0
 40
6.0
  0
CIRCLE
  5
CB
  8
SIZE
  6
CONTINUOUS
 62
    30
 10
669.688129
 20
-147.5
 30
0.0
 40
6.0
  0
CIRCLE
  5
CC
  8
SIZE
  6
CONTINUOUS
 62
    30
 10
669.688129
 20
-159.4999999999998
 30
0.0
 40
6.0
  0
CIRCLE
  5
CD
  8
SIZE
  6
CONTINUOUS
 62
    30
 10
669.688129
 20
141.5
 30
0.0
 40
6.0
  0
CIRCLE
  5
CE
  8
SIZE
  6
CONTINUOUS
 62
    30
 10
669.688129
 20
-147.5
 30
0.0
 40
6.0
  0
CIRCLE
  5
CF
  8
SIZE
  6
CONTINUOUS
 62
    30
 10
-406.14691199999987
 20
0.0
 30
0.0
 40
6.0
  0
CIRCLE
  5
D0
  8
SIZE
  6
CONTINUOUS
 62
    30
 10
-406.14691199999987
 20
-159.4999999999998
 30
0.0
 40
6.0
  0
LINE
  5
DB
  8
NOTE
  6
CONTINUOUS
 62
     4
 10
-176.5
 20
-130.0
 30
0.0
 11
-176.5
 21
-90.0
 31
0.0
  0
LINE
  5
DC
  8
NOTE
  6
CONTINUOUS
 62
     4
 10
-156.4999999999998
 20
-110.0
 30
0.0
 11
-196.5
 21
-110.0
 31
0.0
  0
LINE
  5
DD
  8
NOTE
  6
CONTINUOUS
 62
     4
 10
-176.5
 20
130.0
 30
0.0
 11
-176.5
 21
90.0
 31
0.0
  0
LINE
  5
DE
  8
NOTE
  6
CONTINUOUS
 62
     4
 10
-156.4999999999998
 20
110.0
 30
0.0
 11
-196.5
 21
110.0
 31
0.0
  0
LINE
  5
DF
  8
NOTE
  6
CONTINUOUS
 62
     4
 10
116.5499999999999
 20
138.5
 30
0.0
 11
116.5499999999999
 21
98.500000000000014
 31
0.0
  0
LINE
  5
E0
  8
NOTE
  6
CONTINUOUS
 62
     4
 10
96.550000000000011
 20
118.5
 30
0.0
 11
136.55000000000001
 21
118.5
 31
0.0
  0
LINE
  5
E1
  8
NOTE
  6
CONTINUOUS
 62
     4
 10
176.5
 20
130.0
 30
0.0
 11
176.5
 21
90.0
 31
0.0
  0
LINE
  5
E2
  8
NOTE
  6
CONTINUOUS
 62
     4
 10
156.4999999999998
 20
110.0
 30
0.0
 11
196.5
 21
110.0
 31
0.0
  0
LINE
  5
E3
  8
NOTE
  6
CONTINUOUS
 62
     4
 10
176.5
 20
-130.0
 30
0.0
 11
176.5
 21
-90.0
 31
0.0
  0
LINE
  5
E4
  8
NOTE
  6
CONTINUOUS
 62
     4
 10
156.4999999999998
 20
-110.0
 30
0.0
 11
196.5
 21
-110.0
 31
0.0
  0
TEXT
  5
EE
  8
ETC
  6
CONTINUOUS
 62
    61
 10
778.63715876987101
 20
304.88958780340209
 30
0.0
 40
50.0
  1
V-150JDF2
 41
0.9
  0
LINE
  5
EF
  8
NOTE
  6
CONTINUOUS
 62
     4
 10
-201.663096
 20
141.09370699999991
 30
0.0
 11
-176.5
 21
110.0
 31
0.0
  0
LINE
  5
F0
  8
NOTE
  6
CONTINUOUS
 62
     4
 10
-176.5
 20
110.0
 30
0.0
 11
-213.8387339999999
 21
124.3463919999999
 31
0.0
  0
LINE
  5
F1
  8
NOTE
  6
CONTINUOUS
 62
     4
 10
144.50613200000001
 20
147.10864699999991
 30
0.0
 11
116.5499999999999
 21
118.5
 31
0.0
  0
LINE
  5
F2
  8
NOTE
  6
CONTINUOUS
 62
     4
 10
116.5499999999999
 20
118.5
 30
0.0
 11
155.065044
 21
129.29774900000001
 31
0.0
  0
TEXT
  5
1C6
  8
ETC
  6
CONTINUOUS
 62
    61
 10
778.63715876987101
 20
202.2048841581794
 30
0.0
 40
50.0
  1
V-150JDF3
 41
0.9
  0
ENDSEC
  0
EOF
