  0
SECTION
  2
HEADER
  9
$ACADVER
  1
AC1009
  9
$DWGCODEPAGE
  3
dos932
  9
$INSBASE
 10
0.0
 20
0.0
 30
0.0
  9
$EXTMIN
 10
-790.478161
 20
-580.26147100000003
 30
0.0
  9
$EXTMAX
 10
1277.4025163064509
 20
875.72552999999994
 30
50.0
  9
$LIMMIN
 10
-2970.0
 20
-2100.0
  9
$LIMMAX
 10
2970.0
 20
2100.0
  9
$ORTHOMODE
 70
     0
  9
$REGENMODE
 70
     1
  9
$FILLMODE
 70
     1
  9
$QTEXTMODE
 70
     0
  9
$MIRRTEXT
 70
     0
  9
$LTSCALE
 40
20.0
  9
$ATTMODE
 70
     1
  9
$TEXTSIZE
 40
64.0
  9
$TRACEWID
 40
0.05
  9
$TEXTSTYLE
  7
STANDARD
  9
$CLAYER
  8
SIZE
  9
$CELTYPE
  6
CONTINUOUS
  9
$CECOLOR
 62
     7
  9
$DIMSCALE
 40
1.0
  9
$DIMASZ
 40
12.0
  9
$DIMEXO
 40
20.0
  9
$DIMDLI
 40
200.0
  9
$DIMRND
 40
0.0
  9
$DIMDLE
 40
0.0
  9
$DIMEXE
 40
20.0
  9
$DIMTP
 40
0.0
  9
$DIMTM
 40
0.0
  9
$DIMTXT
 40
64.0
  9
$DIMCEN
 40
0.09
  9
$DIMTSZ
 40
0.0
  9
$DIMTOL
 70
     0
  9
$DIMLIM
 70
     0
  9
$DIMTIH
 70
     0
  9
$DIMTOH
 70
     0
  9
$DIMSE1
 70
     0
  9
$DIMSE2
 70
     0
  9
$DIMTAD
 70
     1
  9
$DIMZIN
 70
     8
  9
$DIMBLK
  1

  9
$DIMASO
 70
     1
  9
$DIMSHO
 70
     0
  9
$DIMPOST
  1

  9
$DIMAPOST
  1

  9
$DIMALT
 70
     0
  9
$DIMALTD
 70
     2
  9
$DIMALTF
 40
25.399999999999999
  9
$DIMLFAC
 40
1.0
  9
$DIMTOFL
 70
     1
  9
$DIMTVP
 40
0.0
  9
$DIMTIX
 70
     1
  9
$DIMSOXD
 70
     0
  9
$DIMSAH
 70
     0
  9
$DIMBLK1
  1

  9
$DIMBLK2
  1

  9
$DIMSTYLE
  2
STANDARD
  9
$DIMCLRD
 70
     7
  9
$DIMCLRE
 70
     7
  9
$DIMCLRT
 70
     7
  9
$DIMTFAC
 40
1.0
  9
$DIMGAP
 40
25.0
  9
$LUNITS
 70
     2
  9
$LUPREC
 70
     4
  9
$SKETCHINC
 40
0.1
  9
$FILLETRAD
 40
3.0
  9
$AUNITS
 70
     1
  9
$AUPREC
 70
     3
  9
$MENU
  1
ACAD
  9
$ELEVATION
 40
0.0
  9
$PELEVATION
 40
0.0
  9
$THICKNESS
 40
0.0
  9
$LIMCHECK
 70
     0
  9
$CHAMFERA
 40
0.0
  9
$CHAMFERB
 40
0.0
  9
$SKPOLY
 70
     0
  9
$TDCREATE
 40
2453019.623009259
  9
$TDUPDATE
 40
2459292.432027998
  9
$TDINDWG
 40
1.7196919097
  9
$TDUSRTIMER
 40
1.7196919097
  9
$USRTIMER
 70
     1
  9
$ANGBASE
 50
0.0
  9
$ANGDIR
 70
     0
  9
$PDMODE
 70
     3
  9
$PDSIZE
 40
-2.0
  9
$PLINEWID
 40
0.0
  9
$SPLFRAME
 70
     0
  9
$SPLINETYPE
 70
     6
  9
$SPLINESEGS
 70
     8
  9
$SURFTAB1
 70
     6
  9
$SURFTAB2
 70
     6
  9
$SURFTYPE
 70
     6
  9
$SURFU
 70
     6
  9
$SURFV
 70
     6
  9
$UCSNAME
  2

  9
$UCSORG
 10
0.0
 20
0.0
 30
0.0
  9
$UCSXDIR
 10
1.0
 20
0.0
 30
0.0
  9
$UCSYDIR
 10
0.0
 20
1.0
 30
0.0
  9
$PUCSNAME
  2

  9
$PUCSORG
 10
0.0
 20
0.0
 30
0.0
  9
$PUCSXDIR
 10
1.0
 20
0.0
 30
0.0
  9
$PUCSYDIR
 10
0.0
 20
1.0
 30
0.0
  9
$USERI1
 70
     0
  9
$USERI2
 70
     0
  9
$USERI3
 70
     0
  9
$USERI4
 70
     0
  9
$USERI5
 70
     0
  9
$USERR1
 40
20.0
  9
$USERR2
 40
0.0
  9
$USERR3
 40
0.0
  9
$USERR4
 40
0.0
  9
$USERR5
 40
0.0
  9
$WORLDVIEW
 70
     1
  9
$SHADEDGE
 70
     3
  9
$SHADEDIF
 70
    70
  9
$TILEMODE
 70
     1
  9
$MAXACTVP
 70
    48
  9
$PINSBASE
 10
0.0
 20
0.0
 30
0.0
  9
$PLIMCHECK
 70
     0
  9
$PEXTMIN
 10
-100000000000000000000.0
 20
-100000000000000000000.0
 30
-100000000000000000000.0
  9
$PEXTMAX
 10
100000000000000000000.0
 20
100000000000000000000.0
 30
100000000000000000000.0
  9
$PLIMMIN
 10
0.0
 20
0.0
  9
$PLIMMAX
 10
12.0
 20
9.0
  9
$UNITMODE
 70
     0
  9
$VISRETAIN
 70
     0
  9
$PLINEGEN
 70
     0
  9
$PSLTSCALE
 70
     0
  9
$TREEDEPTH
 70
  3020
  9
$ATTDIA
 70
     0
  9
$ATTREQ
 70
     1
  9
$BLIPMODE
 70
     1
  9
$COORDS
 70
     1
  9
$DRAGMODE
 70
     2
  9
$OSMODE
 70
     0
  9
$HANDLING
 70
     0
  9
$HANDSEED
  5
2C1
  0
ENDSEC
  0
SECTION
  2
TABLES
  0
TABLE
  2
LTYPE
 70
     2
  0
LTYPE
  2
CONTINUOUS
 70
     0
  3
実線
 72
    65
 73
     0
 40
0.0
  0
LTYPE
  2
DASHDOT
 70
     0
  3
____ _ ____ _ ____ _ ____ _ ____ _ ____ _ ____
 72
    65
 73
     4
 40
5.5
 49
4.0
 49
-0.6
 49
0.3
 49
-0.6
  0
ENDTAB
  0
TABLE
  2
LAYER
 70
    12
  0
LAYER
  2
SIZE
 70
     0
 62
    30
  6
CONTINUOUS
  0
LAYER
  2
BASIS
 70
     0
 62
     6
  6
DASHDOT
  0
LAYER
  2
OUTLINE
 70
     0
 62
     3
  6
CONTINUOUS
  0
LAYER
  2
DETAIL
 70
     0
 62
     5
  6
CONTINUOUS
  0
LAYER
  2
ARRANGE
 70
     0
 62
     1
  6
CONTINUOUS
  0
LAYER
  2
ETC
 70
     0
 62
    61
  6
CONTINUOUS
  0
LAYER
  2
FIX
 70
     0
 62
    11
  6
CONTINUOUS
  0
LAYER
  2
NOTE
 70
     0
 62
     4
  6
CONTINUOUS
  0
LAYER
  2
0
 70
    64
 62
     7
  6
CONTINUOUS
  0
LAYER
  2
DEFPOINTS
 70
    64
 62
     7
  6
CONTINUOUS
  0
LAYER
  2
SERVICESPACE
 70
    64
 62
     2
  6
DASHDOT
  0
LAYER
  2
SYMBOLLINE
 70
    64
 62
    15
  6
CONTINUOUS
  0
ENDTAB
  0
TABLE
  2
STYLE
 70
     1
  0
STYLE
  2
STANDARD
 70
     0
 40
64.0
 41
0.9
 50
0.0
 71
     0
 42
64.0
  3
SIMPLEX.shx
  4
BIGFONT.shx
  0
ENDTAB
  0
TABLE
  2
APPID
 70
    20
  0
APPID
  2
ACAD
 70
     0
  0
APPID
  2
ACADANNOTATIVE
 70
     0
  0
APPID
  2
AUTOCAD_POSTSCRIPT_FIGURE
 70
     0
  0
APPID
  2
ACAD_EXEMPT_FROM_CAD_STANDARDS
 70
     0
  0
APPID
  2
ACAD_PSEXT
 70
     0
  0
APPID
  2
ACAUTHENVIRON
 70
     0
  0
APPID
  2
GENIUS_GENOENT_13
 70
     0
  0
APPID
  2
GENIUS_GENCFG_13
 70
     0
  0
APPID
  2
GENIUS_GENCFG0_13
 70
     0
  0
APPID
  2
GENIUS_GENCFG1_13
 70
     0
  0
APPID
  2
GENIUS_GENCFG2_13
 70
     0
  0
APPID
  2
GENIUS_GENCFG3_13
 70
     0
  0
APPID
  2
GENIUS_GENCFG4_13
 70
     0
  0
APPID
  2
GENIUS_GEVCFG0_13
 70
     0
  0
APPID
  2
CONTENTBLOCKICON
 70
     0
  0
APPID
  2
CONTENTBLOCKDESCRIPTION
 70
     0
  0
APPID
  2
ACAD_NAV_VCDISPLAY
 70
     0
  0
APPID
  2
ACAD_MLEADERVER
 70
     0
  0
APPID
  2
ACDBDYNAMICBLOCKTRUENAME
 70
     0
  0
APPID
  2
ACDBDYNAMICBLOCKGUID
 70
     0
  0
ENDTAB
  0
TABLE
  2
DIMSTYLE
 70
     1
  0
DIMSTYLE
  2
STANDARD
 70
     0
  3

  4

  5

  6

  7

 40
1.0
 41
12.0
 42
20.0
 43
200.0
 44
20.0
 45
0.0
 46
0.0
 47
0.0
 48
0.0
140
64.0
141
0.09
142
0.0
143
25.399999999999999
144
1.0
145
0.0
146
1.0
147
25.0
 71
     0
 72
     0
 73
     0
 74
     0
 75
     0
 76
     0
 77
     1
 78
     8
170
     0
171
     2
172
     1
173
     0
174
     1
175
     0
176
     7
177
     7
178
     7
  0
ENDTAB
  0
TABLE
  2
VIEW
 70
     1
  0
VIEW
  2
ALL
 70
     0
 40
4282.6198079999986
 10
0.0
 20
41.309904000000003
 41
5940.0
 11
0.0
 21
0.0
 31
1.0
 12
0.0
 22
0.0
 32
0.0
 42
50.0
 43
0.0
 44
0.0
 50
0.0
 71
     0
  0
ENDTAB
  0
TABLE
  2
UCS
 70
     0
  0
ENDTAB
  0
TABLE
  2
VPORT
 70
     1
  0
VPORT
  2
*ACTIVE
 70
     0
 10
0.0
 20
0.0
 11
1.0
 21
1.0
 12
257.78895255447651
 22
147.7320295000001
 13
0.0
 23
0.0
 14
1.0
 24
1.0
 15
0.0
 25
0.0
 16
0.0
 26
0.0
 36
1.0
 17
0.0
 27
0.0
 37
0.0
 40
1465.639953492818
 41
1.767337807606264
 42
50.0
 43
0.0
 44
0.0
 50
0.0
 51
0.0
 71
     0
 72
  1000
 73
     1
 74
     3
 75
     0
 76
     0
 77
     0
 78
     0
  0
ENDTAB
  0
ENDSEC
  0
SECTION
  2
BLOCKS
  0
ENDSEC
  0
SECTION
  2
ENTITIES
  0
LINE
  8
BASIS
  6
DASHDOT
 62
     6
 10
0.0
 20
229.725109
 30
0.0
 11
0.0
 21
-62.039553000000012
 31
0.0
  0
LINE
  8
DETAIL
  6
CONTINUOUS
 62
     5
 10
-237.5
 20
0.0
 30
0.0
 11
237.5
 21
0.0
 31
0.0
  0
LINE
  8
DETAIL
  6
CONTINUOUS
 62
     5
 10
-7.5
 20
207.0
 30
0.0
 11
-108.5
 21
207.0
 31
0.0
  0
LINE
  8
DETAIL
  6
CONTINUOUS
 62
     5
 10
-108.5
 20
183.0
 30
0.0
 11
-108.5
 21
207.0
 31
0.0
  0
LINE
  8
DETAIL
  6
CONTINUOUS
 62
     5
 10
-7.5
 20
207.0
 30
0.0
 11
-7.5
 21
183.0
 31
0.0
  0
LINE
  8
BASIS
  6
DASHDOT
 62
     6
 10
-58.0
 20
136.64871400000001
 30
0.0
 11
-58.0
 21
245.94007999999999
 31
0.0
  0
LINE
  8
SIZE
  6
CONTINUOUS
 62
    30
 10
-187.0
 20
203.0
 30
0.0
 11
-187.0
 21
805.25808899999981
 31
0.0
  0
LINE
  8
SIZE
  6
CONTINUOUS
 62
    30
 10
-385.0
 20
185.01221799999999
 30
0.0
 11
-385.0
 21
805.25808899999981
 31
0.0
  0
LINE
  8
SIZE
  6
CONTINUOUS
 62
    30
 10
-199.0
 20
785.25808899999981
 30
0.0
 11
-373.0
 21
785.25808899999981
 31
0.0
  0
TEXT
  8
SIZE
  6
CONTINUOUS
 62
    30
 10
-360.02814057142848
 20
811.72552999999982
 30
0.0
 40
64.0
  1
198
 41
0.9
 72
     1
 11
-291.45671199999998
 21
811.72552999999982
 31
0.0
  0
CIRCLE
  8
SIZE
  6
CONTINUOUS
 62
    30
 10
-187.0
 20
785.25808899999981
 30
0.0
 40
6.0
  0
LINE
  8
SIZE
  6
CONTINUOUS
 62
    30
 10
-187.0
 20
785.25808899999981
 30
0.0
 11
-199.0
 21
785.25808899999981
 31
0.0
  0
CIRCLE
  8
SIZE
  6
CONTINUOUS
 62
    30
 10
-385.0
 20
785.25808899999981
 30
0.0
 40
6.0
  0
LINE
  8
SIZE
  6
CONTINUOUS
 62
    30
 10
-385.0
 20
785.25808899999981
 30
0.0
 11
-373.0
 21
785.25808899999981
 31
0.0
  0
LINE
  8
DETAIL
  6
CONTINUOUS
 62
     5
 10
219.5
 20
33.206745000000012
 30
0.0
 11
219.5
 21
0.0
 31
0.0
  0
LINE
  8
SIZE
  6
CONTINUOUS
 62
    30
 10
796.91581099999996
 20
7.0
 30
0.0
 11
796.91581099999996
 21
-141.21852000000001
 31
0.0
  0
LINE
  8
DETAIL
  6
CONTINUOUS
 62
     5
 10
-355.0
 20
67.012218000000018
 30
0.0
 11
-385.0
 21
67.012218000000018
 31
0.0
  0
LINE
  8
DETAIL
  6
CONTINUOUS
 62
     5
 10
-385.0
 20
165.01221799999999
 30
0.0
 11
-355.0
 21
165.01221799999999
 31
0.0
  0
LINE
  8
DETAIL
  6
CONTINUOUS
 62
     5
 10
-355.0
 20
168.51221799999999
 30
0.0
 11
-355.0
 21
63.512218000000018
 31
0.0
  0
LINE
  8
NOTE
  6
CONTINUOUS
 62
     4
 10
-205.0
 20
189.0
 30
0.0
 11
-414.47511899999989
 21
282.54257000000001
 31
0.0
  0
LINE
  8
NOTE
  6
CONTINUOUS
 62
     4
 10
-244.10861
 20
197.39741699999999
 30
0.0
 11
-205.0
 21
189.0
 31
0.0
  0
LINE
  8
NOTE
  6
CONTINUOUS
 62
     4
 10
-205.0
 20
189.0
 30
0.0
 11
-234.67034100000001
 21
215.82668200000001
 31
0.0
  0
POINT
  8
ARRANGE
  6
CONTINUOUS
 62
     1
 10
0.0
 20
0.0
 30
0.0
  0
LINE
  8
DETAIL
  6
CONTINUOUS
 62
     5
 10
-303.3075
 20
163.24042900000001
 30
0.0
 11
-187.418722
 21
163.24042900000001
 31
0.0
  0
LINE
  8
DETAIL
  6
CONTINUOUS
 62
     5
 10
280.80323800000002
 20
195.0
 30
0.0
 11
280.80323800000002
 21
183.0
 31
0.0
  0
LINE
  8
DETAIL
  6
CONTINUOUS
 62
     5
 10
120.35473500000001
 20
195.0
 30
0.0
 11
120.35473500000001
 21
183.0
 31
0.0
  0
LINE
  8
BASIS
  6
DASHDOT
 62
     6
 10
-35.0
 20
176.176738
 30
0.0
 11
-35.0
 21
53.303818000000007
 31
0.0
  0
LINE
  8
DETAIL
  6
CONTINUOUS
 62
     5
 10
291.20620899999989
 20
168.51221799999999
 30
0.0
 11
117.418722
 21
168.51221799999999
 31
0.0
  0
LINE
  8
DETAIL
  6
CONTINUOUS
 62
     5
 10
-219.5
 20
10.0
 30
0.0
 11
219.5
 21
10.0
 31
0.0
  0
LINE
  8
DETAIL
  6
CONTINUOUS
 62
     5
 10
-219.5
 20
10.0
 30
0.0
 11
-219.5
 21
0.0
 31
0.0
  0
LINE
  8
DETAIL
  6
CONTINUOUS
 62
     5
 10
-187.0
 20
183.0
 30
0.0
 11
-192.0
 21
10.0
 31
0.0
  0
LINE
  8
DETAIL
  6
CONTINUOUS
 62
     5
 10
117.0
 20
183.0
 30
0.0
 11
122.0
 21
10.0
 31
0.0
  0
LINE
  8
SIZE
  6
CONTINUOUS
 62
    30
 10
-192.0
 20
-10.0
 30
0.0
 11
-192.0
 21
-454.15723300000002
 31
0.0
  0
LINE
  8
SIZE
  6
CONTINUOUS
 62
    30
 10
122.0
 20
-10.0
 30
0.0
 11
122.0
 21
-454.15723300000002
 31
0.0
  0
LINE
  8
SIZE
  6
CONTINUOUS
 62
    30
 10
-180.0
 20
-434.15723300000002
 30
0.0
 11
110.0
 21
-434.15723300000002
 31
0.0
  0
TEXT
  8
SIZE
  6
CONTINUOUS
 62
    30
 10
-92.359830142857106
 20
-409.15723300000002
 30
0.0
 40
64.0
  1
314
 41
0.9
 72
     1
 11
-22.416972999999981
 21
-409.15723300000002
 31
0.0
  0
CIRCLE
  8
SIZE
  6
CONTINUOUS
 62
    30
 10
-192.0
 20
-434.15723300000002
 30
0.0
 40
6.0
  0
LINE
  8
SIZE
  6
CONTINUOUS
 62
    30
 10
-192.0
 20
-434.15723300000002
 30
0.0
 11
-180.0
 21
-434.15723300000002
 31
0.0
  0
CIRCLE
  8
SIZE
  6
CONTINUOUS
 62
    30
 10
122.0
 20
-434.15723300000002
 30
0.0
 40
6.0
  0
LINE
  8
SIZE
  6
CONTINUOUS
 62
    30
 10
122.0
 20
-434.15723300000002
 30
0.0
 11
110.0
 21
-434.15723300000002
 31
0.0
  0
LINE
  8
DETAIL
  6
CONTINUOUS
 62
     5
 10
-385.0
 20
67.012218000000018
 30
0.0
 11
-385.0
 21
165.01221799999999
 31
0.0
  0
LINE
  8
SIZE
  6
CONTINUOUS
 62
    30
 10
-385.0
 20
185.01221799999999
 30
0.0
 11
-385.0
 21
664.83209699999998
 31
0.0
  0
LINE
  8
SIZE
  6
CONTINUOUS
 62
    30
 10
-355.0
 20
186.01221799999999
 30
0.0
 11
-355.0
 21
664.83209699999998
 31
0.0
  0
LINE
  8
SIZE
  6
CONTINUOUS
 62
    30
 10
-397.0
 20
644.83209699999998
 30
0.0
 11
-409.0
 21
644.83209699999998
 31
0.0
  0
LINE
  8
SIZE
  6
CONTINUOUS
 62
    30
 10
-343.0
 20
644.83209699999998
 30
0.0
 11
-331.0
 21
644.83209699999998
 31
0.0
  0
TEXT
  8
SIZE
  6
CONTINUOUS
 62
    30
 10
-507.84826242857139
 20
672.42915599999981
 30
0.0
 40
64.0
  1
30
 41
0.9
 72
     1
 11
-461.21969100000001
 21
672.42915599999981
 31
0.0
  0
LINE
  8
SIZE
  6
CONTINUOUS
 62
    30
 10
-385.0
 20
644.83209699999998
 30
0.0
 11
-355.0
 21
644.83209699999998
 31
0.0
  0
LINE
  8
SIZE
  6
CONTINUOUS
 62
    30
 10
-385.0
 20
644.83209699999998
 30
0.0
 11
-355.0
 21
644.83209699999998
 31
0.0
  0
CIRCLE
  8
SIZE
  6
CONTINUOUS
 62
    30
 10
-385.0
 20
644.83209699999998
 30
0.0
 40
6.0
  0
LINE
  8
SIZE
  6
CONTINUOUS
 62
    30
 10
-385.0
 20
644.83209699999998
 30
0.0
 11
-397.0
 21
644.83209699999998
 31
0.0
  0
CIRCLE
  8
SIZE
  6
CONTINUOUS
 62
    30
 10
-355.0
 20
644.83209699999998
 30
0.0
 40
6.0
  0
LINE
  8
SIZE
  6
CONTINUOUS
 62
    30
 10
-355.0
 20
644.83209699999998
 30
0.0
 11
-343.0
 21
644.83209699999998
 31
0.0
  0
LINE
  8
SIZE
  6
CONTINUOUS
 62
    30
 10
-35.0
 20
-306.68186200000002
 30
0.0
 11
-175.36217300000001
 21
-306.68186200000002
 31
0.0
  0
LINE
  8
SIZE
  6
CONTINUOUS
 62
    30
 10
205.0
 20
229.23326399999999
 30
0.0
 11
205.0
 21
670.42781200000002
 31
0.0
  0
LINE
  8
SIZE
  6
CONTINUOUS
 62
    30
 10
-205.0
 20
229.62909200000001
 30
0.0
 11
-205.0
 21
670.42781200000002
 31
0.0
  0
LINE
  8
SIZE
  6
CONTINUOUS
 62
    30
 10
193.0
 20
650.42781200000002
 30
0.0
 11
-193.0
 21
650.42781200000002
 31
0.0
  0
TEXT
  8
SIZE
  6
CONTINUOUS
 62
    30
 10
-139.0356025714286
 20
674.64021100000002
 30
0.0
 40
64.0
  1
□410
 41
0.9
 72
     1
 11
-33.984174000000003
 21
674.64021100000002
 31
0.0
  0
CIRCLE
  8
SIZE
  6
CONTINUOUS
 62
    30
 10
205.0
 20
650.42781200000002
 30
0.0
 40
6.0
  0
LINE
  8
SIZE
  6
CONTINUOUS
 62
    30
 10
205.0
 20
650.42781200000002
 30
0.0
 11
193.0
 21
650.42781200000002
 31
0.0
  0
CIRCLE
  8
SIZE
  6
CONTINUOUS
 62
    30
 10
-205.0
 20
650.42781200000002
 30
0.0
 40
6.0
  0
LINE
  8
SIZE
  6
CONTINUOUS
 62
    30
 10
-205.0
 20
650.42781200000002
 30
0.0
 11
-193.0
 21
650.42781200000002
 31
0.0
  0
LINE
  8
SIZE
  6
CONTINUOUS
 62
    30
 10
796.91581099999996
 20
159.0
 30
0.0
 11
796.91581099999996
 21
380.44405
 31
0.0
  0
LINE
  8
NOTE
  6
CONTINUOUS
 62
     4
 10
205.0
 20
169.0
 30
0.0
 11
205.0
 21
209.0
 31
0.0
  0
LINE
  8
NOTE
  6
CONTINUOUS
 62
     4
 10
225.0
 20
189.0
 30
0.0
 11
185.0
 21
189.0
 31
0.0
  0
CIRCLE
  8
ARRANGE
  6
CONTINUOUS
 62
     1
 10
0.0
 20
0.0
 30
0.0
 40
40.0
  0
TEXT
  8
NOTE
  6
CONTINUOUS
 62
     4
 10
-657.20710800000018
 20
304.42524400000002
 30
0.0
 40
64.0
  1
AH-4
 41
0.9
  0
LINE
  8
NOTE
  6
CONTINUOUS
 62
     4
 10
-414.47511899999989
 20
282.54257000000001
 30
0.0
 11
-666.31520699999999
 21
282.54257000000001
 31
0.0
  0
CIRCLE
  8
FIX
  6
CONTINUOUS
 62
    11
 10
205.0
 20
189.0
 30
0.0
 40
5.0
  0
LINE
  8
SIZE
  6
CONTINUOUS
 62
    30
 10
-108.5
 20
227.0
 30
0.0
 11
-108.5
 21
406.72820300000001
 31
0.0
  0
LINE
  8
SIZE
  6
CONTINUOUS
 62
    30
 10
-7.5
 20
227.0
 30
0.0
 11
-7.5
 21
406.72820300000001
 31
0.0
  0
LINE
  8
SIZE
  6
CONTINUOUS
 62
    30
 10
-96.5
 20
386.72820300000001
 30
0.0
 11
-19.5
 21
386.72820300000001
 31
0.0
  0
TEXT
  8
SIZE
  6
CONTINUOUS
 62
    30
 10
-154.3689814285714
 20
411.72820300000001
 30
0.0
 40
64.0
  1
φ101
 41
0.9
 72
     1
 11
-57.820409999999981
 21
411.72820300000001
 31
0.0
  0
CIRCLE
  8
SIZE
  6
CONTINUOUS
 62
    30
 10
-108.5
 20
386.72820300000001
 30
0.0
 40
6.0
  0
LINE
  8
SIZE
  6
CONTINUOUS
 62
    30
 10
-108.5
 20
386.72820300000001
 30
0.0
 11
-96.5
 21
386.72820300000001
 31
0.0
  0
CIRCLE
  8
SIZE
  6
CONTINUOUS
 62
    30
 10
-7.5
 20
386.72820300000001
 30
0.0
 40
6.0
  0
LINE
  8
SIZE
  6
CONTINUOUS
 62
    30
 10
-7.5
 20
386.72820300000001
 30
0.0
 11
-19.5
 21
386.72820300000001
 31
0.0
  0
LINE
  8
SIZE
  6
CONTINUOUS
 62
    30
 10
-387.0
 20
644.83209699999998
 30
0.0
 11
-520.46018400000003
 21
644.83209699999998
 31
0.0
  0
LINE
  8
SIZE
  6
CONTINUOUS
 62
    30
 10
-35.0
 20
196.176738
 30
0.0
 11
-35.0
 21
350.49468400000001
 31
0.0
  0
LINE
  8
SIZE
  6
CONTINUOUS
 62
    30
 10
-58.0
 20
265.94008000000002
 30
0.0
 11
-58.0
 21
350.49468400000001
 31
0.0
  0
LINE
  8
SIZE
  6
CONTINUOUS
 62
    30
 10
-23.0
 20
330.49468400000001
 30
0.0
 11
-11.0
 21
330.49468400000001
 31
0.0
  0
LINE
  8
SIZE
  6
CONTINUOUS
 62
    30
 10
-70.0
 20
330.49468400000001
 30
0.0
 11
-82.0
 21
330.49468400000001
 31
0.0
  0
LINE
  8
SIZE
  6
CONTINUOUS
 62
    30
 10
188.794028
 20
330.49468400000001
 30
0.0
 11
-35.0
 21
330.49468400000001
 31
0.0
  0
TEXT
  8
SIZE
  6
CONTINUOUS
 62
    30
 10
70.53688557142857
 20
355.49468400000001
 30
0.0
 40
64.0
  1
23
 41
0.9
 72
     1
 11
117.165457
 21
355.49468400000001
 31
0.0
  0
LINE
  8
SIZE
  6
CONTINUOUS
 62
    30
 10
-35.0
 20
330.49468400000001
 30
0.0
 11
-58.0
 21
330.49468400000001
 31
0.0
  0
LINE
  8
SIZE
  6
CONTINUOUS
 62
    30
 10
-35.0
 20
330.49468400000001
 30
0.0
 11
-58.0
 21
330.49468400000001
 31
0.0
  0
CIRCLE
  8
SIZE
  6
CONTINUOUS
 62
    30
 10
-35.0
 20
330.49468400000001
 30
0.0
 40
6.0
  0
LINE
  8
SIZE
  6
CONTINUOUS
 62
    30
 10
-35.0
 20
330.49468400000001
 30
0.0
 11
-23.0
 21
330.49468400000001
 31
0.0
  0
CIRCLE
  8
SIZE
  6
CONTINUOUS
 62
    30
 10
-58.0
 20
330.49468400000001
 30
0.0
 40
6.0
  0
LINE
  8
SIZE
  6
CONTINUOUS
 62
    30
 10
-58.0
 20
330.49468400000001
 30
0.0
 11
-70.0
 21
330.49468400000001
 31
0.0
  0
LINE
  8
SIZE
  6
CONTINUOUS
 62
    30
 10
0.0
 20
-82.039553000000012
 30
0.0
 11
0.0
 21
-326.68186200000002
 31
0.0
  0
LINE
  8
SIZE
  6
CONTINUOUS
 62
    30
 10
-35.0
 20
33.303818000000007
 30
0.0
 11
-35.0
 21
-326.68186200000002
 31
0.0
  0
LINE
  8
SIZE
  6
CONTINUOUS
 62
    30
 10
12.0
 20
-306.68186200000002
 30
0.0
 11
24.0
 21
-306.68186200000002
 31
0.0
  0
LINE
  8
SIZE
  6
CONTINUOUS
 62
    30
 10
-47.0
 20
-306.68186200000002
 30
0.0
 11
-59.0
 21
-306.68186200000002
 31
0.0
  0
TEXT
  8
SIZE
  6
CONTINUOUS
 62
    30
 10
-153.23302642857141
 20
-281.68186200000002
 30
0.0
 40
64.0
  1
35
 41
0.9
 72
     1
 11
-106.604455
 21
-281.68186200000002
 31
0.0
  0
LINE
  8
SIZE
  6
CONTINUOUS
 62
    30
 10
0.0
 20
-306.68186200000002
 30
0.0
 11
-35.0
 21
-306.68186200000002
 31
0.0
  0
LINE
  8
SIZE
  6
CONTINUOUS
 62
    30
 10
0.0
 20
-306.68186200000002
 30
0.0
 11
-35.0
 21
-306.68186200000002
 31
0.0
  0
CIRCLE
  8
SIZE
  6
CONTINUOUS
 62
    30
 10
0.0
 20
-306.68186200000002
 30
0.0
 40
6.0
  0
LINE
  8
SIZE
  6
CONTINUOUS
 62
    30
 10
0.0
 20
-306.68186200000002
 30
0.0
 11
12.0
 21
-306.68186200000002
 31
0.0
  0
CIRCLE
  8
SIZE
  6
CONTINUOUS
 62
    30
 10
-35.0
 20
-306.68186200000002
 30
0.0
 40
6.0
  0
LINE
  8
SIZE
  6
CONTINUOUS
 62
    30
 10
-35.0
 20
-306.68186200000002
 30
0.0
 11
-47.0
 21
-306.68186200000002
 31
0.0
  0
LINE
  8
DETAIL
  6
CONTINUOUS
 62
     5
 10
-328.5
 20
168.51221799999999
 30
0.0
 11
-328.5
 21
63.512218000000018
 31
0.0
  0
LINE
  8
DETAIL
  6
CONTINUOUS
 62
     5
 10
-190.98149000000001
 20
45.240429000000013
 30
0.0
 11
-303.3075
 21
45.240429000000013
 31
0.0
  0
LINE
  8
DETAIL
  6
CONTINUOUS
 62
     5
 10
-303.3075
 20
168.51221799999999
 30
0.0
 11
-303.3075
 21
160.443971
 31
0.0
  0
LINE
  8
DETAIL
  6
CONTINUOUS
 62
     5
 10
-303.3075
 20
168.51221799999999
 30
0.0
 11
-355.0
 21
168.51221799999999
 31
0.0
  0
LINE
  8
DETAIL
  6
CONTINUOUS
 62
     5
 10
-303.3075
 20
63.512218000000018
 30
0.0
 11
-355.0
 21
63.512218000000018
 31
0.0
  0
LINE
  8
DETAIL
  6
CONTINUOUS
 62
     5
 10
120.35473500000001
 20
195.0
 30
0.0
 11
280.80323800000002
 21
195.0
 31
0.0
  0
LINE
  8
DETAIL
  6
CONTINUOUS
 62
     5
 10
120.35473500000001
 20
183.0
 30
0.0
 11
280.80323800000002
 21
183.0
 31
0.0
  0
CIRCLE
  8
FIX
  6
CONTINUOUS
 62
    11
 10
-205.0
 20
189.0
 30
0.0
 40
5.0
  0
LINE
  8
NOTE
  6
CONTINUOUS
 62
     4
 10
-225.0
 20
189.0
 30
0.0
 11
-185.0
 21
189.0
 31
0.0
  0
LINE
  8
NOTE
  6
CONTINUOUS
 62
     4
 10
-205.0
 20
169.0
 30
0.0
 11
-205.0
 21
209.0
 31
0.0
  0
LINE
  8
DETAIL
  6
CONTINUOUS
 62
     5
 10
117.0
 20
183.0
 30
0.0
 11
-296.11384900000007
 21
183.0
 31
0.0
  0
LINE
  8
DETAIL
  6
CONTINUOUS
 62
     5
 10
-135.665346
 20
195.0
 30
0.0
 11
-296.11384900000007
 21
195.0
 31
0.0
  0
LINE
  8
DETAIL
  6
CONTINUOUS
 62
     5
 10
-135.665346
 20
195.0
 30
0.0
 11
-135.665346
 21
183.0
 31
0.0
  0
LINE
  8
DETAIL
  6
CONTINUOUS
 62
     5
 10
-296.11384900000007
 20
195.0
 30
0.0
 11
-296.11384900000007
 21
183.0
 31
0.0
  0
LINE
  8
DETAIL
  6
CONTINUOUS
 62
     5
 10
134.48042599999999
 20
183.0
 30
0.0
 11
134.48042599999999
 21
168.51221799999999
 31
0.0
  0
LINE
  8
DETAIL
  6
CONTINUOUS
 62
     5
 10
154.48042599999999
 20
183.0
 30
0.0
 11
154.48042599999999
 21
168.51221799999999
 31
0.0
  0
TEXT
  8
NOTE
  6
CONTINUOUS
 62
     4
 10
263.689975
 20
327.63712199999998
 30
0.0
 40
64.0
  1
EL
 41
0.9
  0
LINE
  8
NOTE
  6
CONTINUOUS
 62
     4
 10
369.61155300000001
 20
299.71337299999999
 30
0.0
 11
253.13186800000011
 21
299.71337299999999
 31
0.0
  0
TEXT
  8
NOTE
  6
CONTINUOUS
 62
     4
 10
-565.10383100000001
 20
84.191628000000023
 30
0.0
 40
64.0
  1
RA1
 41
0.9
  0
LINE
  8
SIZE
  6
CONTINUOUS
 62
    30
 10
-187.0
 20
203.0
 30
0.0
 11
-187.0
 21
805.25808899999981
 31
0.0
  0
LINE
  8
SIZE
  6
CONTINUOUS
 62
    30
 10
117.0
 20
203.0
 30
0.0
 11
117.0
 21
805.25808899999981
 31
0.0
  0
LINE
  8
SIZE
  6
CONTINUOUS
 62
    30
 10
-175.0
 20
785.25808899999981
 30
0.0
 11
105.0
 21
785.25808899999981
 31
0.0
  0
CIRCLE
  8
SIZE
  6
CONTINUOUS
 62
    30
 10
-187.0
 20
785.25808899999981
 30
0.0
 40
6.0
  0
LINE
  8
SIZE
  6
CONTINUOUS
 62
    30
 10
-187.0
 20
785.25808899999981
 30
0.0
 11
-175.0
 21
785.25808899999981
 31
0.0
  0
CIRCLE
  8
SIZE
  6
CONTINUOUS
 62
    30
 10
117.0
 20
785.25808899999981
 30
0.0
 40
6.0
  0
LINE
  8
SIZE
  6
CONTINUOUS
 62
    30
 10
117.0
 20
785.25808899999981
 30
0.0
 11
105.0
 21
785.25808899999981
 31
0.0
  0
TEXT
  8
SIZE
  6
CONTINUOUS
 62
    30
 10
-146.90857142857141
 20
810.25808899999981
 30
0.0
 40
64.0
  1
□304
 41
0.9
 72
     1
 11
-35.0
 21
810.25808899999981
 31
0.0
  0
LINE
  8
SIZE
  6
CONTINUOUS
 62
    30
 10
-87.5
 20
136.01221799999999
 30
0.0
 11
-87.5
 21
545.55825900000002
 31
0.0
  0
LINE
  8
SIZE
  6
CONTINUOUS
 62
    30
 10
17.5
 20
136.01220699999999
 30
0.0
 11
17.5
 21
545.55825900000002
 31
0.0
  0
LINE
  8
SIZE
  6
CONTINUOUS
 62
    30
 10
-75.5
 20
525.55825900000002
 30
0.0
 11
5.5
 21
525.55825900000002
 31
0.0
  0
TEXT
  8
SIZE
  6
CONTINUOUS
 62
    30
 10
-143.89142857142861
 20
548.61016900000004
 30
0.0
 40
64.0
  1
φ105
 41
0.9
 72
     1
 11
-35.0
 21
548.61016900000004
 31
0.0
  0
CIRCLE
  8
SIZE
  6
CONTINUOUS
 62
    30
 10
-87.5
 20
525.55825900000002
 30
0.0
 40
6.0
  0
LINE
  8
SIZE
  6
CONTINUOUS
 62
    30
 10
-87.5
 20
525.55825900000002
 30
0.0
 11
-75.5
 21
525.55825900000002
 31
0.0
  0
CIRCLE
  8
SIZE
  6
CONTINUOUS
 62
    30
 10
17.5
 20
525.55825900000002
 30
0.0
 40
6.0
  0
LINE
  8
SIZE
  6
CONTINUOUS
 62
    30
 10
17.5
 20
525.55825900000002
 30
0.0
 11
5.5
 21
525.55825900000002
 31
0.0
  0
LINE
  8
NOTE
  6
CONTINUOUS
 62
     4
 10
52.5
 20
163.0
 30
0.0
 11
52.5
 21
203.0
 31
0.0
  0
LINE
  8
NOTE
  6
CONTINUOUS
 62
     4
 10
72.5
 20
183.0
 30
0.0
 11
32.5
 21
183.0
 31
0.0
  0
LINE
  8
SIZE
  6
CONTINUOUS
 62
    30
 10
257.5
 20
0.0
 30
0.0
 11
1188.423
 21
0.0
 31
0.0
  0
LINE
  8
SIZE
  6
CONTINUOUS
 62
    30
 10
12.5
 20
207.0
 30
0.0
 11
1188.423
 21
207.0
 31
0.0
  0
LINE
  8
SIZE
  6
CONTINUOUS
 62
    30
 10
1168.423
 20
12.0
 30
0.0
 11
1168.423
 21
195.0
 31
0.0
  0
TEXT
  8
SIZE
  6
CONTINUOUS
 62
    30
 10
1143.5730000000001
 20
27.568782142857149
 30
0.0
 40
64.0
  1
207
 50
90.0
 41
0.9
 72
     1
 11
1143.5730000000001
 21
101.625925
 31
0.0
  0
CIRCLE
  8
SIZE
  6
CONTINUOUS
 62
    30
 10
1168.423
 20
0.0
 30
0.0
 40
6.0
  0
LINE
  8
SIZE
  6
CONTINUOUS
 62
    30
 10
1168.423
 20
0.0
 30
0.0
 11
1168.423
 21
12.0
 31
0.0
  0
CIRCLE
  8
SIZE
  6
CONTINUOUS
 62
    30
 10
1168.423
 20
207.0
 30
0.0
 40
6.0
  0
LINE
  8
SIZE
  6
CONTINUOUS
 62
    30
 10
1168.423
 20
207.0
 30
0.0
 11
1168.423
 21
195.0
 31
0.0
  0
LINE
  8
SIZE
  6
CONTINUOUS
 62
    30
 10
257.5
 20
0.0
 30
0.0
 11
1065.2049999999999
 21
0.0
 31
0.0
  0
LINE
  8
SIZE
  6
CONTINUOUS
 62
    30
 10
137.0
 20
183.0
 30
0.0
 11
1065.2049999999999
 21
183.0
 31
0.0
  0
LINE
  8
SIZE
  6
CONTINUOUS
 62
    30
 10
1045.2049999999999
 20
12.0
 30
0.0
 11
1045.2049999999999
 21
171.0
 31
0.0
  0
TEXT
  8
SIZE
  6
CONTINUOUS
 62
    30
 10
1019.25589
 20
21.054496428571429
 30
0.0
 40
64.0
  1
183
 50
90.0
 41
0.9
 72
     1
 11
1019.25589
 21
89.625924999999981
 31
0.0
  0
CIRCLE
  8
SIZE
  6
CONTINUOUS
 62
    30
 10
1045.2049999999999
 20
0.0
 30
0.0
 40
6.0
  0
LINE
  8
SIZE
  6
CONTINUOUS
 62
    30
 10
1045.2049999999999
 20
0.0
 30
0.0
 11
1045.2049999999999
 21
12.0
 31
0.0
  0
CIRCLE
  8
SIZE
  6
CONTINUOUS
 62
    30
 10
1045.2049999999999
 20
183.0
 30
0.0
 40
6.0
  0
LINE
  8
SIZE
  6
CONTINUOUS
 62
    30
 10
1045.2049999999999
 20
183.0
 30
0.0
 11
1045.2049999999999
 21
171.0
 31
0.0
  0
LINE
  8
BASIS
  6
DASHDOT
 62
     6
 10
-422.49954299999979
 20
116.0
 30
0.0
 11
492.78542099999999
 21
116.0
 31
0.0
  0
LINE
  8
SIZE
  6
CONTINUOUS
 62
    30
 10
257.5
 20
0.0
 30
0.0
 11
938.24687200000005
 21
0.0
 31
0.0
  0
LINE
  8
SIZE
  6
CONTINUOUS
 62
    30
 10
504.635942
 20
116.0
 30
0.0
 11
938.24687200000005
 21
116.0
 31
0.0
  0
LINE
  8
SIZE
  6
CONTINUOUS
 62
    30
 10
918.24687200000005
 20
12.0
 30
0.0
 11
918.24687200000005
 21
104.0
 31
0.0
  0
LINE
  8
SIZE
  6
CONTINUOUS
 62
    30
 10
918.24687200000005
 20
-241.268642
 30
0.0
 11
918.24687200000005
 21
0.0
 31
0.0
  0
TEXT
  8
SIZE
  6
CONTINUOUS
 62
    30
 10
893.24687200000017
 20
-216.26864171428571
 30
0.0
 40
64.0
  1
116
 50
90.0
 41
0.9
 72
     1
 11
893.24687200000017
 21
-154.55435600000001
 31
0.0
  0
CIRCLE
  8
SIZE
  6
CONTINUOUS
 62
    30
 10
918.24687200000005
 20
0.0
 30
0.0
 40
6.0
  0
LINE
  8
SIZE
  6
CONTINUOUS
 62
    30
 10
918.24687200000005
 20
0.0
 30
0.0
 11
918.24687200000005
 21
12.0
 31
0.0
  0
CIRCLE
  8
SIZE
  6
CONTINUOUS
 62
    30
 10
918.24687200000005
 20
116.0
 30
0.0
 40
6.0
  0
LINE
  8
SIZE
  6
CONTINUOUS
 62
    30
 10
918.24687200000005
 20
116.0
 30
0.0
 11
918.24687200000005
 21
104.0
 31
0.0
  0
LINE
  8
SIZE
  6
CONTINUOUS
 62
    30
 10
257.5
 20
0.0
 30
0.0
 11
816.91581099999996
 21
0.0
 31
0.0
  0
LINE
  8
SIZE
  6
CONTINUOUS
 62
    30
 10
357.50054999999998
 20
18.0
 30
0.0
 11
816.91581099999996
 21
18.0
 31
0.0
  0
LINE
  8
SIZE
  6
CONTINUOUS
 62
    30
 10
796.91581099999996
 20
-12.0
 30
0.0
 11
796.91581099999996
 21
-24.0
 31
0.0
  0
LINE
  8
SIZE
  6
CONTINUOUS
 62
    30
 10
796.91581099999996
 20
30.0
 30
0.0
 11
796.91581099999996
 21
42.0
 31
0.0
  0
TEXT
  8
SIZE
  6
CONTINUOUS
 62
    30
 10
774.90419499999996
 20
-112.4828271428571
 30
0.0
 40
64.0
  1
18
 50
90.0
 41
0.9
 72
     1
 11
774.90419499999996
 21
-71.339969999999994
 31
0.0
  0
LINE
  8
SIZE
  6
CONTINUOUS
 62
    30
 10
796.91581099999996
 20
0.0
 30
0.0
 11
796.91581099999996
 21
18.0
 31
0.0
  0
LINE
  8
SIZE
  6
CONTINUOUS
 62
    30
 10
796.91581099999996
 20
0.0
 30
0.0
 11
796.91581099999996
 21
18.0
 31
0.0
  0
CIRCLE
  8
SIZE
  6
CONTINUOUS
 62
    30
 10
796.91581099999996
 20
0.0
 30
0.0
 40
6.0
  0
LINE
  8
SIZE
  6
CONTINUOUS
 62
    30
 10
796.91581099999996
 20
0.0
 30
0.0
 11
796.91581099999996
 21
-12.0
 31
0.0
  0
CIRCLE
  8
SIZE
  6
CONTINUOUS
 62
    30
 10
796.91581099999996
 20
18.0
 30
0.0
 40
6.0
  0
LINE
  8
SIZE
  6
CONTINUOUS
 62
    30
 10
796.91581099999996
 20
18.0
 30
0.0
 11
796.91581099999996
 21
30.0
 31
0.0
  0
LINE
  8
SIZE
  6
CONTINUOUS
 62
    30
 10
438.50000399999999
 20
18.0
 30
0.0
 11
816.91581099999996
 21
18.0
 31
0.0
  0
LINE
  8
SIZE
  6
CONTINUOUS
 62
    30
 10
411.0
 20
163.0
 30
0.0
 11
816.91581099999996
 21
163.0
 31
0.0
  0
LINE
  8
SIZE
  6
CONTINUOUS
 62
    30
 10
796.91581099999996
 20
30.0
 30
0.0
 11
796.91581099999996
 21
151.0
 31
0.0
  0
LINE
  8
SIZE
  6
CONTINUOUS
 62
    30
 10
796.91581099999996
 20
390.34972900000002
 30
0.0
 11
796.91581099999996
 21
163.0
 31
0.0
  0
TEXT
  8
SIZE
  6
CONTINUOUS
 62
    30
 10
771.91581099999996
 20
228.20687242857139
 30
0.0
 40
64.0
  1
145
 50
90.0
 41
0.9
 72
     1
 11
771.91581099999996
 21
296.778301
 31
0.0
  0
CIRCLE
  8
SIZE
  6
CONTINUOUS
 62
    30
 10
796.91581099999996
 20
18.0
 30
0.0
 40
6.0
  0
LINE
  8
SIZE
  6
CONTINUOUS
 62
    30
 10
796.91581099999996
 20
18.0
 30
0.0
 11
796.91581099999996
 21
30.0
 31
0.0
  0
CIRCLE
  8
SIZE
  6
CONTINUOUS
 62
    30
 10
796.91581099999996
 20
163.0
 30
0.0
 40
6.0
  0
LINE
  8
SIZE
  6
CONTINUOUS
 62
    30
 10
796.91581099999996
 20
163.0
 30
0.0
 11
796.91581099999996
 21
151.0
 31
0.0
  0
LINE
  8
DETAIL
  6
CONTINUOUS
 62
     5
 10
-227.5
 20
-15.0
 30
0.0
 11
227.5
 21
-15.0
 31
0.0
  0
LINE
  8
DETAIL
  6
CONTINUOUS
 62
     5
 10
-237.5
 20
0.0
 30
0.0
 11
-237.5
 21
-5.0
 31
0.0
  0
LINE
  8
DETAIL
  6
CONTINUOUS
 62
     5
 10
237.5
 20
0.0
 30
0.0
 11
237.5
 21
-5.0
 31
0.0
  0
ARC
  8
DETAIL
  6
CONTINUOUS
 62
     5
 10
227.5
 20
-5.0
 30
0.0
 40
10.0
 50
270.0
 51
0.0
  0
ARC
  8
DETAIL
  6
CONTINUOUS
 62
     5
 10
-227.5
 20
-5.0
 30
0.0
 40
10.0
 50
180.0
 51
270.0
  0
LINE
  8
SIZE
  6
CONTINUOUS
 62
    30
 10
-237.5
 20
-20.0
 30
0.0
 11
-237.5
 21
-580.26147100000003
 31
0.0
  0
LINE
  8
SIZE
  6
CONTINUOUS
 62
    30
 10
237.5
 20
-20.0
 30
0.0
 11
237.5
 21
-580.26147100000003
 31
0.0
  0
LINE
  8
SIZE
  6
CONTINUOUS
 62
    30
 10
-225.5
 20
-560.26147100000003
 30
0.0
 11
225.5
 21
-560.26147100000003
 31
0.0
  0
TEXT
  8
SIZE
  6
CONTINUOUS
 62
    30
 10
-97.954115857142853
 20
-535.06576200000006
 30
0.0
 40
64.0
  1
□475
 41
0.9
 72
     1
 11
12.583027000000021
 21
-535.06576200000006
 31
0.0
  0
CIRCLE
  8
SIZE
  6
CONTINUOUS
 62
    30
 10
-237.5
 20
-560.26147100000003
 30
0.0
 40
6.0
  0
LINE
  8
SIZE
  6
CONTINUOUS
 62
    30
 10
-237.5
 20
-560.26147100000003
 30
0.0
 11
-225.5
 21
-560.26147100000003
 31
0.0
  0
CIRCLE
  8
SIZE
  6
CONTINUOUS
 62
    30
 10
237.5
 20
-560.26147100000003
 30
0.0
 40
6.0
  0
LINE
  8
SIZE
  6
CONTINUOUS
 62
    30
 10
237.5
 20
-560.26147100000003
 30
0.0
 11
225.5
 21
-560.26147100000003
 31
0.0
  0
LINE
  8
NOTE
  6
CONTINUOUS
 62
     4
 10
52.5
 20
183.0
 30
0.0
 11
253.13186800000011
 21
299.71337299999999
 31
0.0
  0
LINE
  8
NOTE
  6
CONTINUOUS
 62
     4
 10
90.687884999999994
 20
194.90316799999999
 30
0.0
 11
52.5
 21
183.0
 31
0.0
  0
LINE
  8
NOTE
  6
CONTINUOUS
 62
     4
 10
52.5
 20
183.0
 30
0.0
 11
79.62009399999998
 21
212.402389
 31
0.0
  0
LINE
  8
SIZE
  6
CONTINUOUS
 62
    30
 10
-375.0
 20
63.512218000000018
 30
0.0
 11
-721.99876799999981
 21
63.512218000000018
 31
0.0
  0
LINE
  8
SIZE
  6
CONTINUOUS
 62
    30
 10
-375.0
 20
168.51221799999999
 30
0.0
 11
-721.99876799999981
 21
168.51221799999999
 31
0.0
  0
LINE
  8
SIZE
  6
CONTINUOUS
 62
    30
 10
-701.99876799999981
 20
75.512218000000033
 30
0.0
 11
-701.99876799999981
 21
156.51221799999999
 31
0.0
  0
TEXT
  8
SIZE
  6
CONTINUOUS
 62
    30
 10
-726.478161
 20
-178.0141455714286
 30
0.0
 40
64.0
  1
φ105
 50
90.0
 41
0.9
 72
     1
 11
-726.478161
 21
-69.122717000000023
 31
0.0
  0
CIRCLE
  8
SIZE
  6
CONTINUOUS
 62
    30
 10
-701.99876799999981
 20
63.512218000000018
 30
0.0
 40
6.0
  0
LINE
  8
SIZE
  6
CONTINUOUS
 62
    30
 10
-701.99876799999981
 20
63.512218000000018
 30
0.0
 11
-701.99876799999981
 21
75.512218000000033
 31
0.0
  0
CIRCLE
  8
SIZE
  6
CONTINUOUS
 62
    30
 10
-701.99876799999981
 20
168.51221799999999
 30
0.0
 40
6.0
  0
LINE
  8
SIZE
  6
CONTINUOUS
 62
    30
 10
-701.99876799999981
 20
168.51221799999999
 30
0.0
 11
-701.99876799999981
 21
156.51221799999999
 31
0.0
  0
LINE
  8
SIZE
  6
CONTINUOUS
 62
    30
 10
-405.0
 20
165.01221799999999
 30
0.0
 11
-608.92564100000004
 21
165.01221799999999
 31
0.0
  0
LINE
  8
SIZE
  6
CONTINUOUS
 62
    30
 10
-405.0
 20
67.012218000000018
 30
0.0
 11
-608.92564100000004
 21
67.012218000000018
 31
0.0
  0
LINE
  8
SIZE
  6
CONTINUOUS
 62
    30
 10
-588.92564100000004
 20
153.01221799999999
 30
0.0
 11
-588.92564100000004
 21
79.012218000000033
 31
0.0
  0
LINE
  8
SIZE
  6
CONTINUOUS
 62
    30
 10
-588.92564100000004
 20
-148.59261699999999
 30
0.0
 11
-588.92564100000004
 21
67.012218000000018
 31
0.0
  0
TEXT
  8
SIZE
  6
CONTINUOUS
 62
    30
 10
-613.92564100000004
 20
-135.11261742857141
 30
0.0
 40
64.0
  1
φ98
 50
90.0
 41
0.9
 72
     1
 11
-613.92564100000004
 21
-48.164045999999978
 31
0.0
  0
CIRCLE
  8
SIZE
  6
CONTINUOUS
 62
    30
 10
-588.92564100000004
 20
165.01221799999999
 30
0.0
 40
6.0
  0
LINE
  8
SIZE
  6
CONTINUOUS
 62
    30
 10
-588.92564100000004
 20
165.01221799999999
 30
0.0
 11
-588.92564100000004
 21
153.01221799999999
 31
0.0
  0
CIRCLE
  8
SIZE
  6
CONTINUOUS
 62
    30
 10
-588.92564100000004
 20
67.012218000000018
 30
0.0
 40
6.0
  0
LINE
  8
SIZE
  6
CONTINUOUS
 62
    30
 10
-588.92564100000004
 20
67.012218000000018
 30
0.0
 11
-588.92564100000004
 21
79.012218000000033
 31
0.0
  0
LINE
  8
SIZE
  6
CONTINUOUS
 62
    30
 10
-701.99876799999981
 20
63.512218000000018
 30
0.0
 11
-701.99876799999981
 21
-162.37880899999999
 31
0.0
  0
ARC
  8
DETAIL
  6
CONTINUOUS
 62
     5
 10
337.50054999999998
 20
23.49945
 30
0.0
 40
5.49945
 50
270.0
 51
0.0
  0
ARC
  8
DETAIL
  6
CONTINUOUS
 62
     5
 10
278.49945000000002
 20
23.49945
 30
0.0
 40
5.49945
 50
180.0
 51
270.0
  0
LINE
  8
DETAIL
  6
CONTINUOUS
 62
     5
 10
389.0
 20
163.0
 30
0.0
 11
321.20620899999989
 21
163.0
 31
0.0
  0
LINE
  8
DETAIL
  6
CONTINUOUS
 62
     5
 10
389.0
 20
33.0
 30
0.0
 11
343.0
 21
33.0
 31
0.0
  0
LINE
  8
DETAIL
  6
CONTINUOUS
 62
     5
 10
439.0
 20
83.0
 30
0.0
 11
439.0
 21
113.0
 31
0.0
  0
LINE
  8
DETAIL
  6
CONTINUOUS
 62
     5
 10
337.50054999999998
 20
18.0
 30
0.0
 11
278.49945000000002
 21
18.0
 31
0.0
  0
LINE
  8
DETAIL
  6
CONTINUOUS
 62
     5
 10
343.0
 20
33.0
 30
0.0
 11
343.0
 21
23.49945
 31
0.0
  0
ARC
  8
DETAIL
  6
CONTINUOUS
 62
     5
 10
269.70033000000001
 20
29.907074999999988
 30
0.0
 40
3.29967
 50
0.0
 51
90.0
  0
LINE
  8
DETAIL
  6
CONTINUOUS
 62
     5
 10
273.0
 20
30.098790000000012
 30
0.0
 11
273.0
 21
23.49945
 31
0.0
  0
LINE
  8
DETAIL
  6
CONTINUOUS
 62
     5
 10
269.70033000000001
 20
33.206745000000012
 30
0.0
 11
219.5
 21
33.206745000000012
 31
0.0
  0
TEXT
  8
NOTE
  6
CONTINUOUS
 62
     4
 10
451.76845700000001
 20
69.897745999999984
 30
0.0
 40
64.0
  1
RA3
 41
0.9
  0
LINE
  8
DETAIL
  6
CONTINUOUS
 62
     5
 10
321.20620899999989
 20
165.01221799999999
 30
0.0
 11
291.20620899999989
 21
165.01221799999999
 31
0.0
  0
ARC
  8
DETAIL
  6
CONTINUOUS
 62
     5
 10
389.0
 20
113.0
 30
0.0
 40
50.0
 50
0.0
 51
90.0
  0
ARC
  8
DETAIL
  6
CONTINUOUS
 62
     5
 10
389.0
 20
83.0
 30
0.0
 40
50.0
 50
270.0
 51
0.0
  0
LINE
  8
SIZE
  6
CONTINUOUS
 62
    30
 10
257.5
 20
0.0
 30
0.0
 11
700.59279900000001
 21
0.0
 31
0.0
  0
LINE
  8
SIZE
  6
CONTINUOUS
 62
    30
 10
409.0
 20
33.0
 30
0.0
 11
700.59279900000001
 21
33.0
 31
0.0
  0
LINE
  8
SIZE
  6
CONTINUOUS
 62
    30
 10
680.59279900000001
 20
-12.0
 30
0.0
 11
680.59279900000001
 21
-24.0
 31
0.0
  0
LINE
  8
SIZE
  6
CONTINUOUS
 62
    30
 10
680.59279900000001
 20
45.0
 30
0.0
 11
680.59279900000001
 21
57.0
 31
0.0
  0
LINE
  8
SIZE
  6
CONTINUOUS
 62
    30
 10
680.59279900000001
 20
-170.83721399999999
 30
0.0
 11
680.59279900000001
 21
0.0
 31
0.0
  0
TEXT
  8
SIZE
  6
CONTINUOUS
 62
    30
 10
655.59279900000001
 20
-145.8372144285714
 30
0.0
 40
64.0
  1
33
 50
90.0
 41
0.9
 72
     1
 11
655.59279900000001
 21
-99.208642999999995
 31
0.0
  0
LINE
  8
SIZE
  6
CONTINUOUS
 62
    30
 10
680.59279900000001
 20
0.0
 30
0.0
 11
680.59279900000001
 21
33.0
 31
0.0
  0
LINE
  8
SIZE
  6
CONTINUOUS
 62
    30
 10
680.59279900000001
 20
0.0
 30
0.0
 11
680.59279900000001
 21
33.0
 31
0.0
  0
CIRCLE
  8
SIZE
  6
CONTINUOUS
 62
    30
 10
680.59279900000001
 20
0.0
 30
0.0
 40
6.0
  0
LINE
  8
SIZE
  6
CONTINUOUS
 62
    30
 10
680.59279900000001
 20
0.0
 30
0.0
 11
680.59279900000001
 21
-12.0
 31
0.0
  0
CIRCLE
  8
SIZE
  6
CONTINUOUS
 62
    30
 10
680.59279900000001
 20
33.0
 30
0.0
 40
6.0
  0
LINE
  8
SIZE
  6
CONTINUOUS
 62
    30
 10
680.59279900000001
 20
33.0
 30
0.0
 11
680.59279900000001
 21
45.0
 31
0.0
  0
LINE
  8
SIZE
  6
CONTINUOUS
 62
    30
 10
-257.5
 20
0.0
 30
0.0
 11
-481.37643700000001
 21
0.0
 31
0.0
  0
LINE
  8
SIZE
  6
CONTINUOUS
 62
    30
 10
-247.5
 20
-15.0
 30
0.0
 11
-481.37643700000001
 21
-15.0
 31
0.0
  0
LINE
  8
SIZE
  6
CONTINUOUS
 62
    30
 10
-461.37643700000001
 20
12.0
 30
0.0
 11
-461.37643700000001
 21
24.0
 31
0.0
  0
LINE
  8
SIZE
  6
CONTINUOUS
 62
    30
 10
-461.37643700000001
 20
-27.0
 30
0.0
 11
-461.37643700000001
 21
-39.0
 31
0.0
  0
LINE
  8
SIZE
  6
CONTINUOUS
 62
    30
 10
-461.37643700000001
 20
-173.338044
 30
0.0
 11
-461.37643700000001
 21
-15.0
 31
0.0
  0
TEXT
  8
SIZE
  6
CONTINUOUS
 62
    30
 10
-486.37643700000001
 20
-148.33804414285709
 30
0.0
 40
64.0
  1
15
 50
90.0
 41
0.9
 72
     1
 11
-486.37643700000001
 21
-107.195187
 31
0.0
  0
LINE
  8
SIZE
  6
CONTINUOUS
 62
    30
 10
-461.37643700000001
 20
0.0
 30
0.0
 11
-461.37643700000001
 21
-15.0
 31
0.0
  0
LINE
  8
SIZE
  6
CONTINUOUS
 62
    30
 10
-461.37643700000001
 20
0.0
 30
0.0
 11
-461.37643700000001
 21
-15.0
 31
0.0
  0
CIRCLE
  8
SIZE
  6
CONTINUOUS
 62
    30
 10
-461.37643700000001
 20
0.0
 30
0.0
 40
6.0
  0
LINE
  8
SIZE
  6
CONTINUOUS
 62
    30
 10
-461.37643700000001
 20
0.0
 30
0.0
 11
-461.37643700000001
 21
12.0
 31
0.0
  0
CIRCLE
  8
SIZE
  6
CONTINUOUS
 62
    30
 10
-461.37643700000001
 20
-15.0
 30
0.0
 40
6.0
  0
LINE
  8
SIZE
  6
CONTINUOUS
 62
    30
 10
-461.37643700000001
 20
-15.0
 30
0.0
 11
-461.37643700000001
 21
-27.0
 31
0.0
  0
LINE
  8
SIZE
  6
CONTINUOUS
 62
    30
 10
343.0
 20
3.499450000000024
 30
0.0
 11
343.0
 21
-179.27930900000001
 31
0.0
  0
LINE
  8
SIZE
  6
CONTINUOUS
 62
    30
 10
273.0
 20
3.499450000000024
 30
0.0
 11
273.0
 21
-179.27930900000001
 31
0.0
  0
LINE
  8
SIZE
  6
CONTINUOUS
 62
    30
 10
355.0
 20
-159.27930900000001
 30
0.0
 11
367.0
 21
-159.27930900000001
 31
0.0
  0
LINE
  8
SIZE
  6
CONTINUOUS
 62
    30
 10
261.0
 20
-159.27930900000001
 30
0.0
 11
249.0
 21
-159.27930900000001
 31
0.0
  0
LINE
  8
SIZE
  6
CONTINUOUS
 62
    30
 10
515.9043519999999
 20
-159.27930900000001
 30
0.0
 11
343.0
 21
-159.27930900000001
 31
0.0
  0
TEXT
  8
SIZE
  6
CONTINUOUS
 62
    30
 10
397.64720857142851
 20
-134.27930900000001
 30
0.0
 40
64.0
  1
70
 41
0.9
 72
     1
 11
444.27577999999988
 21
-134.27930900000001
 31
0.0
  0
LINE
  8
SIZE
  6
CONTINUOUS
 62
    30
 10
343.0
 20
-159.27930900000001
 30
0.0
 11
273.0
 21
-159.27930900000001
 31
0.0
  0
LINE
  8
SIZE
  6
CONTINUOUS
 62
    30
 10
343.0
 20
-159.27930900000001
 30
0.0
 11
273.0
 21
-159.27930900000001
 31
0.0
  0
CIRCLE
  8
SIZE
  6
CONTINUOUS
 62
    30
 10
343.0
 20
-159.27930900000001
 30
0.0
 40
6.0
  0
LINE
  8
SIZE
  6
CONTINUOUS
 62
    30
 10
343.0
 20
-159.27930900000001
 30
0.0
 11
355.0
 21
-159.27930900000001
 31
0.0
  0
CIRCLE
  8
SIZE
  6
CONTINUOUS
 62
    30
 10
273.0
 20
-159.27930900000001
 30
0.0
 40
6.0
  0
LINE
  8
SIZE
  6
CONTINUOUS
 62
    30
 10
273.0
 20
-159.27930900000001
 30
0.0
 11
261.0
 21
-159.27930900000001
 31
0.0
  0
LINE
  8
SIZE
  6
CONTINUOUS
 62
    30
 10
273.0
 20
3.499450000000024
 30
0.0
 11
273.0
 21
-179.27930900000001
 31
0.0
  0
LINE
  8
SIZE
  6
CONTINUOUS
 62
    30
 10
225.0
 20
13.20674500000001
 30
0.0
 11
225.0
 21
-179.27930900000001
 31
0.0
  0
LINE
  8
SIZE
  6
CONTINUOUS
 62
    30
 10
285.0
 20
-159.27930900000001
 30
0.0
 11
297.0
 21
-159.27930900000001
 31
0.0
  0
LINE
  8
SIZE
  6
CONTINUOUS
 62
    30
 10
213.0
 20
-159.27930900000001
 30
0.0
 11
201.0
 21
-159.27930900000001
 31
0.0
  0
TEXT
  8
SIZE
  6
CONTINUOUS
 62
    30
 10
133.19722357142859
 20
-134.065406
 30
0.0
 40
64.0
  1
48
 41
0.9
 72
     1
 11
179.825795
 21
-134.065406
 31
0.0
  0
LINE
  8
SIZE
  6
CONTINUOUS
 62
    30
 10
273.0
 20
-159.27930900000001
 30
0.0
 11
225.0
 21
-159.27930900000001
 31
0.0
  0
LINE
  8
SIZE
  6
CONTINUOUS
 62
    30
 10
273.0
 20
-159.27930900000001
 30
0.0
 11
225.0
 21
-159.27930900000001
 31
0.0
  0
CIRCLE
  8
SIZE
  6
CONTINUOUS
 62
    30
 10
273.0
 20
-159.27930900000001
 30
0.0
 40
6.0
  0
LINE
  8
SIZE
  6
CONTINUOUS
 62
    30
 10
273.0
 20
-159.27930900000001
 30
0.0
 11
285.0
 21
-159.27930900000001
 31
0.0
  0
CIRCLE
  8
SIZE
  6
CONTINUOUS
 62
    30
 10
225.0
 20
-159.27930900000001
 30
0.0
 40
6.0
  0
LINE
  8
SIZE
  6
CONTINUOUS
 62
    30
 10
225.0
 20
-159.27930900000001
 30
0.0
 11
213.0
 21
-159.27930900000001
 31
0.0
  0
LINE
  8
SIZE
  6
CONTINUOUS
 62
    30
 10
117.0
 20
203.0
 30
0.0
 11
117.0
 21
805.25808899999981
 31
0.0
  0
LINE
  8
SIZE
  6
CONTINUOUS
 62
    30
 10
439.0
 20
133.0
 30
0.0
 11
439.0
 21
805.25808899999981
 31
0.0
  0
LINE
  8
SIZE
  6
CONTINUOUS
 62
    30
 10
129.0
 20
785.25808899999981
 30
0.0
 11
427.0
 21
785.25808899999981
 31
0.0
  0
CIRCLE
  8
SIZE
  6
CONTINUOUS
 62
    30
 10
117.0
 20
785.25808899999981
 30
0.0
 40
6.0
  0
LINE
  8
SIZE
  6
CONTINUOUS
 62
    30
 10
117.0
 20
785.25808899999981
 30
0.0
 11
129.0
 21
785.25808899999981
 31
0.0
  0
CIRCLE
  8
SIZE
  6
CONTINUOUS
 62
    30
 10
439.0
 20
785.25808899999981
 30
0.0
 40
6.0
  0
LINE
  8
SIZE
  6
CONTINUOUS
 62
    30
 10
439.0
 20
785.25808899999981
 30
0.0
 11
427.0
 21
785.25808899999981
 31
0.0
  0
TEXT
  8
SIZE
  6
CONTINUOUS
 62
    30
 10
203.94285714285721
 20
810.25808899999981
 30
0.0
 40
64.0
  1
322
 41
0.9
 72
     1
 11
278.0
 21
810.25808899999981
 31
0.0
  0
CIRCLE
  8
DETAIL
  6
CONTINUOUS
 62
     5
 10
-35.0
 20
116.012218
 30
0.0
 40
52.5
  0
LINE
  8
DETAIL
  6
CONTINUOUS
 62
     5
 10
-87.499999000000003
 20
56.512218000000018
 30
0.0
 11
17.5
 21
56.512218000000018
 31
0.0
  0
LINE
  8
DETAIL
  6
CONTINUOUS
 62
     5
 10
-87.499999000000003
 20
175.48778200000001
 30
0.0
 11
17.5
 21
175.48778200000001
 31
0.0
  0
LINE
  8
BASIS
  6
DASHDOT
 62
     6
 10
-35.0
 20
176.176738
 30
0.0
 11
-35.0
 21
53.303818000000007
 31
0.0
  0
LINE
  8
DETAIL
  6
CONTINUOUS
 62
     5
 10
-87.499999000000003
 20
10.0
 30
0.0
 11
-87.499999000000003
 21
175.48778200000001
 31
0.0
  0
LINE
  8
DETAIL
  6
CONTINUOUS
 62
     5
 10
17.5
 20
10.0
 30
0.0
 11
17.5
 21
175.48778200000001
 31
0.0
  0
LINE
  8
DETAIL
  6
CONTINUOUS
 62
     5
 10
-305.47377000000012
 20
160.443971
 30
0.0
 11
-305.47377000000012
 21
81.514714999999981
 31
0.0
  0
LINE
  8
DETAIL
  6
CONTINUOUS
 62
     5
 10
-305.47377000000012
 20
81.514714999999981
 30
0.0
 11
-205.0
 21
81.514714999999981
 31
0.0
  0
LINE
  8
DETAIL
  6
CONTINUOUS
 62
     5
 10
-205.0
 20
160.443971
 30
0.0
 11
-205.0
 21
81.514714999999981
 31
0.0
  0
LINE
  8
DETAIL
  6
CONTINUOUS
 62
     5
 10
-305.47377000000012
 20
160.443971
 30
0.0
 11
-205.0
 21
160.443971
 31
0.0
  0
LINE
  8
DETAIL
  6
CONTINUOUS
 62
     5
 10
-303.3075
 20
81.514714999999981
 30
0.0
 11
-303.3075
 21
45.240429000000013
 31
0.0
  0
LINE
  8
DETAIL
  6
CONTINUOUS
 62
     5
 10
242.07426100000001
 20
33.206745000000012
 30
0.0
 11
242.07426100000001
 21
135.0
 31
0.0
  0
LINE
  8
DETAIL
  6
CONTINUOUS
 62
     5
 10
225.0
 20
135.0
 30
0.0
 11
225.0
 21
33.206745000000012
 31
0.0
  0
LINE
  8
DETAIL
  6
CONTINUOUS
 62
     5
 10
199.5
 20
135.0
 30
0.0
 11
341.09265199999999
 21
135.0
 31
0.0
  0
LINE
  8
DETAIL
  6
CONTINUOUS
 62
     5
 10
321.20620899999989
 20
165.01221799999999
 30
0.0
 11
321.20620899999989
 21
135.0
 31
0.0
  0
LINE
  8
DETAIL
  6
CONTINUOUS
 62
     5
 10
291.20620899999989
 20
168.51221799999999
 30
0.0
 11
291.20620899999989
 21
135.0
 31
0.0
  0
LINE
  8
DETAIL
  6
CONTINUOUS
 62
     5
 10
264.70620899999989
 20
168.51221799999999
 30
0.0
 11
264.70620899999989
 21
135.0
 31
0.0
  0
LINE
  8
DETAIL
  6
CONTINUOUS
 62
     5
 10
239.51370899999989
 20
168.51221799999999
 30
0.0
 11
239.51370899999989
 21
135.0
 31
0.0
  0
ARC
  8
DETAIL
  6
CONTINUOUS
 62
     5
 10
199.5
 20
85.0
 30
0.0
 40
50.0
 50
90.0
 51
180.0
  0
LINE
  8
DETAIL
  6
CONTINUOUS
 62
     5
 10
149.5
 20
85.0
 30
0.0
 11
149.5
 21
10.0
 31
0.0
  0
LINE
  8
DETAIL
  6
CONTINUOUS
 62
     5
 10
149.5
 20
50.51221799999999
 30
0.0
 11
120.923402
 21
50.51221799999999
 31
0.0
  0
LINE
  8
DETAIL
  6
CONTINUOUS
 62
     5
 10
149.5
 20
63.512218000000018
 30
0.0
 11
120.45340400000001
 21
63.512218000000018
 31
0.0
  0
TEXT
  8
NOTE
  6
CONTINUOUS
 62
     4
 10
-78.865553999999975
 20
70.133966999999984
 30
0.0
 40
64.0
  1
EA
 41
0.9
  0
LINE
  8
SIZE
  6
CONTINUOUS
 62
    30
 10
201.0
 20
-159.27930900000001
 30
0.0
 11
101.053461
 21
-159.27930900000001
 31
0.0
  0
CIRCLE
  8
DETAIL
  6
CONTINUOUS
 62
     5
 10
-35.0
 20
116.0
 30
0.0
 40
49.0
  0
LINE
  8
SIZE
  6
CONTINUOUS
 62
    30
 10
14.0
 20
96.0
 30
0.0
 11
14.0
 21
-208.863709
 31
0.0
  0
LINE
  8
SIZE
  6
CONTINUOUS
 62
    30
 10
-84.0
 20
96.0
 30
0.0
 11
-84.0
 21
-208.863709
 31
0.0
  0
LINE
  8
SIZE
  6
CONTINUOUS
 62
    30
 10
2.0
 20
-188.863709
 30
0.0
 11
-72.0
 21
-188.863709
 31
0.0
  0
LINE
  8
SIZE
  6
CONTINUOUS
 62
    30
 10
-433.42065200000002
 20
-188.863709
 30
0.0
 11
-84.0
 21
-188.863709
 31
0.0
  0
TEXT
  8
SIZE
  6
CONTINUOUS
 62
    30
 10
-422.68350842857132
 20
-163.863709
 30
0.0
 40
64.0
  1
φ98
 41
0.9
 72
     1
 11
-335.73493699999989
 21
-163.863709
 31
0.0
  0
CIRCLE
  8
SIZE
  6
CONTINUOUS
 62
    30
 10
14.0
 20
-188.863709
 30
0.0
 40
6.0
  0
LINE
  8
SIZE
  6
CONTINUOUS
 62
    30
 10
14.0
 20
-188.863709
 30
0.0
 11
2.0
 21
-188.863709
 31
0.0
  0
CIRCLE
  8
SIZE
  6
CONTINUOUS
 62
    30
 10
-84.0
 20
-188.863709
 30
0.0
 40
6.0
  0
LINE
  8
SIZE
  6
CONTINUOUS
 62
    30
 10
-84.0
 20
-188.863709
 30
0.0
 11
-72.0
 21
-188.863709
 31
0.0
  0
TEXT
  8
ETC
  6
CONTINUOUS
 62
    61
 10
536.8310877350217
 20
804.96215256067171
 30
0.0
 40
64.0
  1
V-180SZU5-N_2
 41
0.9
  0
TEXT
  8
ETC
  6
CONTINUOUS
 62
    61
 10
532.64509373502142
 20
687.00684254584053
 30
0.0
 40
64.0
  1
換気扇
 41
0.9
  0
TEXT
  8
ETC
  6
CONTINUOUS
 62
    61
 10
583.34649198357738
 20
578.85806965961524
 30
0.0
 40
40.0
  1
V-180SZU5-N
 41
0.9
  0
LINE
  8
OUTLINE
  6
CONTINUOUS
 62
     3
 10
-108.5
 20
207.0
 30
0.0
 11
-7.5
 21
207.0
 31
0.0
  0
LINE
  8
OUTLINE
  6
CONTINUOUS
 62
     3
 10
-7.5
 20
207.0
 30
0.0
 11
-7.5
 21
183.0
 31
0.0
  0
LINE
  8
OUTLINE
  6
CONTINUOUS
 62
     3
 10
-7.5
 20
183.0
 30
0.0
 11
117.0000000000001
 21
183.0
 31
0.0
  0
LINE
  8
OUTLINE
  6
CONTINUOUS
 62
     3
 10
117.0000000000001
 20
183.0
 30
0.0
 11
117.4187220231214
 21
168.51221799999999
 31
0.0
  0
LINE
  8
OUTLINE
  6
CONTINUOUS
 62
     3
 10
117.4187220231214
 20
168.51221799999999
 30
0.0
 11
134.48042599999999
 21
168.51221799999999
 31
0.0
  0
LINE
  8
OUTLINE
  6
CONTINUOUS
 62
     3
 10
134.48042599999999
 20
168.51221799999999
 30
0.0
 11
134.48042599999999
 21
183.0
 31
0.0
  0
LINE
  8
OUTLINE
  6
CONTINUOUS
 62
     3
 10
134.48042599999999
 20
183.0
 30
0.0
 11
120.35473500000001
 21
183.0
 31
0.0
  0
LINE
  8
OUTLINE
  6
CONTINUOUS
 62
     3
 10
120.35473500000001
 20
183.0
 30
0.0
 11
120.35473500000001
 21
195.0
 31
0.0
  0
LINE
  8
OUTLINE
  6
CONTINUOUS
 62
     3
 10
120.35473500000001
 20
195.0
 30
0.0
 11
280.80323800000002
 21
195.0
 31
0.0
  0
LINE
  8
OUTLINE
  6
CONTINUOUS
 62
     3
 10
280.80323800000002
 20
195.0
 30
0.0
 11
280.80323800000002
 21
183.0
 31
0.0
  0
LINE
  8
OUTLINE
  6
CONTINUOUS
 62
     3
 10
280.80323800000002
 20
183.0
 30
0.0
 11
154.48042599999999
 21
183.0
 31
0.0
  0
LINE
  8
OUTLINE
  6
CONTINUOUS
 62
     3
 10
154.48042599999999
 20
183.0
 30
0.0
 11
154.48042599999999
 21
168.51221799999999
 31
0.0
  0
LINE
  8
OUTLINE
  6
CONTINUOUS
 62
     3
 10
154.48042599999999
 20
168.51221799999999
 30
0.0
 11
291.20620899999989
 21
168.51221799999999
 31
0.0
  0
LINE
  8
OUTLINE
  6
CONTINUOUS
 62
     3
 10
291.20620899999989
 20
168.51221799999999
 30
0.0
 11
291.20620899999989
 21
165.01221799999999
 31
0.0
  0
LINE
  8
OUTLINE
  6
CONTINUOUS
 62
     3
 10
291.20620899999989
 20
165.01221799999999
 30
0.0
 11
321.20620899999989
 21
165.01221799999999
 31
0.0
  0
LINE
  8
OUTLINE
  6
CONTINUOUS
 62
     3
 10
321.20620899999989
 20
165.01221799999999
 30
0.0
 11
321.20620900000011
 21
163.0
 31
0.0
  0
LINE
  8
OUTLINE
  6
CONTINUOUS
 62
     3
 10
321.20620900000011
 20
163.0
 30
0.0
 11
389.0
 21
163.0
 31
0.0
  0
ARC
  8
OUTLINE
  6
CONTINUOUS
 62
     3
 10
389.0
 20
113.0
 30
0.0
 40
49.999999999999993
 50
0.0
 51
90.0
  0
LINE
  8
OUTLINE
  6
CONTINUOUS
 62
     3
 10
439.0
 20
113.0
 30
0.0
 11
439.0
 21
83.0
 31
0.0
  0
ARC
  8
OUTLINE
  6
CONTINUOUS
 62
     3
 10
389.0
 20
83.0
 30
0.0
 40
49.999999999999993
 50
270.0
 51
0.0
  0
LINE
  8
OUTLINE
  6
CONTINUOUS
 62
     3
 10
389.0
 20
33.0
 30
0.0
 11
343.0
 21
33.0
 31
0.0
  0
LINE
  8
OUTLINE
  6
CONTINUOUS
 62
     3
 10
343.0
 20
33.0
 30
0.0
 11
343.0
 21
23.499450000000021
 31
0.0
  0
ARC
  8
OUTLINE
  6
CONTINUOUS
 62
     3
 10
337.50054999999992
 20
23.49945000000011
 30
0.0
 40
5.499450000000103
 50
270.0
 51
0.0
  0
LINE
  8
OUTLINE
  6
CONTINUOUS
 62
     3
 10
337.50054999999998
 20
18.0
 30
0.0
 11
278.49945000000002
 21
18.000000000000021
 31
0.0
  0
ARC
  8
OUTLINE
  6
CONTINUOUS
 62
     3
 10
278.49945000000008
 20
23.49945000000011
 30
0.0
 40
5.499450000000078
 50
180.0
 51
270.0
  0
LINE
  8
OUTLINE
  6
CONTINUOUS
 62
     3
 10
273.0
 20
23.499450000000021
 30
0.0
 11
273.0
 21
29.90707500000002
 31
0.0
  0
ARC
  8
OUTLINE
  6
CONTINUOUS
 62
     3
 10
269.70033000000001
 20
29.907074999999949
 30
0.0
 40
3.299670000000062
 50
0.0
 51
90.0
  0
LINE
  8
OUTLINE
  6
CONTINUOUS
 62
     3
 10
269.70033000000001
 20
33.206745000000012
 30
0.0
 11
219.5
 21
33.206744999999977
 31
0.0
  0
LINE
  8
OUTLINE
  6
CONTINUOUS
 62
     3
 10
219.5
 20
33.206744999999977
 30
0.0
 11
219.5
 21
0.0
 31
0.0
  0
LINE
  8
OUTLINE
  6
CONTINUOUS
 62
     3
 10
219.5
 20
0.0
 30
0.0
 11
237.5
 21
0.0
 31
0.0
  0
LINE
  8
OUTLINE
  6
CONTINUOUS
 62
     3
 10
237.5
 20
0.0
 30
0.0
 11
237.5
 21
-5.0
 31
0.0
  0
ARC
  8
OUTLINE
  6
CONTINUOUS
 62
     3
 10
227.5
 20
-5.000000000000002
 30
0.0
 40
9.999999999999998
 50
270.0
 51
0.0
  0
LINE
  8
OUTLINE
  6
CONTINUOUS
 62
     3
 10
227.5
 20
-15.0
 30
0.0
 11
-227.5
 21
-15.0
 31
0.0
  0
ARC
  8
OUTLINE
  6
CONTINUOUS
 62
     3
 10
-227.5
 20
-5.000000000000002
 30
0.0
 40
9.999999999999998
 50
180.0
 51
270.0
  0
LINE
  8
OUTLINE
  6
CONTINUOUS
 62
     3
 10
-237.5
 20
-5.0
 30
0.0
 11
-237.5
 21
0.0
 31
0.0
  0
LINE
  8
OUTLINE
  6
CONTINUOUS
 62
     3
 10
-237.5
 20
0.0
 30
0.0
 11
-219.5
 21
0.0
 31
0.0
  0
LINE
  8
OUTLINE
  6
CONTINUOUS
 62
     3
 10
-219.5
 20
0.0
 30
0.0
 11
-219.5
 21
10.0
 31
0.0
  0
LINE
  8
OUTLINE
  6
CONTINUOUS
 62
     3
 10
-219.5
 20
10.0
 30
0.0
 11
-192.0
 21
10.0
 31
0.0
  0
LINE
  8
OUTLINE
  6
CONTINUOUS
 62
     3
 10
-192.0
 20
10.0
 30
0.0
 11
-190.98149049132951
 21
45.24042900000002
 31
0.0
  0
LINE
  8
OUTLINE
  6
CONTINUOUS
 62
     3
 10
-190.98149049132951
 20
45.24042900000002
 30
0.0
 11
-303.3075
 21
45.240428999999978
 31
0.0
  0
LINE
  8
OUTLINE
  6
CONTINUOUS
 62
     3
 10
-303.3075
 20
45.240428999999978
 30
0.0
 11
-303.3075
 21
63.512218000000018
 31
0.0
  0
LINE
  8
OUTLINE
  6
CONTINUOUS
 62
     3
 10
-303.3075
 20
63.512218000000018
 30
0.0
 11
-355.0
 21
63.51221799999999
 31
0.0
  0
LINE
  8
OUTLINE
  6
CONTINUOUS
 62
     3
 10
-355.0
 20
63.51221799999999
 30
0.0
 11
-355.0
 21
67.012218000000047
 31
0.0
  0
LINE
  8
OUTLINE
  6
CONTINUOUS
 62
     3
 10
-355.0
 20
67.012218000000047
 30
0.0
 11
-385.0
 21
67.012218000000047
 31
0.0
  0
LINE
  8
OUTLINE
  6
CONTINUOUS
 62
     3
 10
-385.0
 20
67.012218000000047
 30
0.0
 11
-385.0
 21
165.01221799999999
 31
0.0
  0
LINE
  8
OUTLINE
  6
CONTINUOUS
 62
     3
 10
-385.0
 20
165.01221799999999
 30
0.0
 11
-355.0
 21
165.01221799999999
 31
0.0
  0
LINE
  8
OUTLINE
  6
CONTINUOUS
 62
     3
 10
-355.0
 20
165.01221799999999
 30
0.0
 11
-355.0
 21
168.51221799999999
 31
0.0
  0
LINE
  8
OUTLINE
  6
CONTINUOUS
 62
     3
 10
-355.0
 20
168.51221799999999
 30
0.0
 11
-303.3075
 21
168.51221799999999
 31
0.0
  0
LINE
  8
OUTLINE
  6
CONTINUOUS
 62
     3
 10
-303.3075
 20
168.51221799999999
 30
0.0
 11
-303.3075
 21
163.24042900000001
 31
0.0
  0
LINE
  8
OUTLINE
  6
CONTINUOUS
 62
     3
 10
-303.3075
 20
163.24042900000001
 30
0.0
 11
-187.57108586705201
 21
163.24042900000001
 31
0.0
  0
LINE
  8
OUTLINE
  6
CONTINUOUS
 62
     3
 10
-187.57108586705201
 20
163.24042900000001
 30
0.0
 11
-187.0
 21
183.0
 31
0.0
  0
LINE
  8
OUTLINE
  6
CONTINUOUS
 62
     3
 10
-187.0
 20
183.0
 30
0.0
 11
-296.11384900000007
 21
183.0
 31
0.0
  0
LINE
  8
OUTLINE
  6
CONTINUOUS
 62
     3
 10
-296.11384900000007
 20
183.0
 30
0.0
 11
-296.11384900000007
 21
195.0
 31
0.0
  0
LINE
  8
OUTLINE
  6
CONTINUOUS
 62
     3
 10
-296.11384900000007
 20
195.0
 30
0.0
 11
-135.665346
 21
195.0
 31
0.0
  0
LINE
  8
OUTLINE
  6
CONTINUOUS
 62
     3
 10
-135.665346
 20
195.0
 30
0.0
 11
-135.665346
 21
183.0
 31
0.0
  0
LINE
  8
OUTLINE
  6
CONTINUOUS
 62
     3
 10
-135.665346
 20
183.0
 30
0.0
 11
-108.5
 21
183.0
 31
0.0
  0
LINE
  8
OUTLINE
  6
CONTINUOUS
 62
     3
 10
-108.5
 20
183.0
 30
0.0
 11
-108.5
 21
207.0
 31
0.0
  0
ENDSEC
  0
EOF
