  0
SECTION
  2
HEADER
  9
$ACADVER
  1
AC1009
  9
$INSBASE
 10
0.0
 20
0.0
 30
0.0
  9
$EXTMIN
 10
-665.74385900000016
 20
-735.11708399999986
 30
0.0
  9
$EXTMAX
 10
1257.243139624356
 20
941.301649
 30
50.0
  9
$LIMMIN
 10
-2970.0
 20
-2100.0
  9
$LIMMAX
 10
2970.0
 20
2100.0
  9
$ORTHOMODE
 70
     0
  9
$REGENMODE
 70
     1
  9
$FILLMODE
 70
     1
  9
$QTEXTMODE
 70
     0
  9
$MIRRTEXT
 70
     0
  9
$DRAGMODE
 70
     2
  9
$LTSCALE
 40
20.0
  9
$OSMODE
 70
   943
  9
$ATTMODE
 70
     1
  9
$TEXTSIZE
 40
64.0
  9
$TRACEWID
 40
0.05
  9
$TEXTSTYLE
  7
STANDARD
  9
$CLAYER
  8
ETC
  9
$CELTYPE
  6
CONTINUOUS
  9
$CECOLOR
 62
     7
  9
$DIMSCALE
 40
1.0
  9
$DIMASZ
 40
12.0
  9
$DIMEXO
 40
20.0
  9
$DIMDLI
 40
200.0
  9
$DIMRND
 40
0.0
  9
$DIMDLE
 40
0.0
  9
$DIMEXE
 40
20.0
  9
$DIMTP
 40
0.0
  9
$DIMTM
 40
0.0
  9
$DIMTXT
 40
64.0
  9
$DIMCEN
 40
0.09
  9
$DIMTSZ
 40
0.0
  9
$DIMTOL
 70
     0
  9
$DIMLIM
 70
     0
  9
$DIMTIH
 70
     0
  9
$DIMTOH
 70
     0
  9
$DIMSE1
 70
     0
  9
$DIMSE2
 70
     0
  9
$DIMTAD
 70
     1
  9
$DIMZIN
 70
     8
  9
$DIMBLK
  1

  9
$DIMASO
 70
     1
  9
$DIMSHO
 70
     0
  9
$DIMPOST
  1

  9
$DIMAPOST
  1

  9
$DIMALT
 70
     0
  9
$DIMALTD
 70
     2
  9
$DIMALTF
 40
25.399999999999999
  9
$DIMLFAC
 40
1.0
  9
$DIMTOFL
 70
     1
  9
$DIMTVP
 40
0.0
  9
$DIMTIX
 70
     1
  9
$DIMSOXD
 70
     0
  9
$DIMSAH
 70
     0
  9
$DIMBLK1
  1

  9
$DIMBLK2
  1

  9
$DIMSTYLE
  2
STANDARD
  9
$DIMCLRD
 70
     7
  9
$DIMCLRE
 70
     7
  9
$DIMCLRT
 70
     7
  9
$DIMTFAC
 40
1.0
  9
$DIMGAP
 40
25.0
  9
$LUNITS
 70
     2
  9
$LUPREC
 70
     4
  9
$SKETCHINC
 40
0.1
  9
$FILLETRAD
 40
3.0
  9
$AUNITS
 70
     1
  9
$AUPREC
 70
     3
  9
$MENU
  1
ACAD
  9
$ELEVATION
 40
0.0
  9
$PELEVATION
 40
0.0
  9
$THICKNESS
 40
50.0
  9
$LIMCHECK
 70
     0
  9
$BLIPMODE
 70
     0
  9
$CHAMFERA
 40
0.0
  9
$CHAMFERB
 40
0.0
  9
$SKPOLY
 70
     0
  9
$TDCREATE
 40
2453019.6230103709
  9
$TDUPDATE
 40
2456954.6393445488
  9
$TDINDWG
 40
1.8353301389000001
  9
$TDUSRTIMER
 40
1.8353296181000001
  9
$USRTIMER
 70
     1
  9
$ANGBASE
 50
0.0
  9
$ANGDIR
 70
     0
  9
$PDMODE
 70
     3
  9
$PDSIZE
 40
-2.0
  9
$PLINEWID
 40
0.0
  9
$COORDS
 70
     1
  9
$SPLFRAME
 70
     0
  9
$SPLINETYPE
 70
     6
  9
$SPLINESEGS
 70
     8
  9
$ATTDIA
 70
     1
  9
$ATTREQ
 70
     1
  9
$HANDLING
 70
     1
  9
$HANDSEED
  5
5FC
  9
$SURFTAB1
 70
     6
  9
$SURFTAB2
 70
     6
  9
$SURFTYPE
 70
     6
  9
$SURFU
 70
     6
  9
$SURFV
 70
     6
  9
$UCSNAME
  2

  9
$UCSORG
 10
0.0
 20
0.0
 30
0.0
  9
$UCSXDIR
 10
1.0
 20
0.0
 30
0.0
  9
$UCSYDIR
 10
0.0
 20
1.0
 30
0.0
  9
$PUCSNAME
  2

  9
$PUCSORG
 10
0.0
 20
0.0
 30
0.0
  9
$PUCSXDIR
 10
1.0
 20
0.0
 30
0.0
  9
$PUCSYDIR
 10
0.0
 20
1.0
 30
0.0
  9
$USERI1
 70
     0
  9
$USERI2
 70
     0
  9
$USERI3
 70
     0
  9
$USERI4
 70
     0
  9
$USERI5
 70
     0
  9
$USERR1
 40
20.0
  9
$USERR2
 40
0.0
  9
$USERR3
 40
0.0
  9
$USERR4
 40
0.0
  9
$USERR5
 40
0.0
  9
$WORLDVIEW
 70
     1
  9
$SHADEDGE
 70
     3
  9
$SHADEDIF
 70
    70
  9
$TILEMODE
 70
     1
  9
$MAXACTVP
 70
    48
  9
$PLIMCHECK
 70
     0
  9
$PEXTMIN
 10
-1.0000000000000000E+020
 20
-1.0000000000000000E+020
 30
-1.0000000000000000E+020
  9
$PEXTMAX
 10
1.0000000000000000E+020
 20
1.0000000000000000E+020
 30
1.0000000000000000E+020
  9
$PLIMMIN
 10
0.0
 20
0.0
  9
$PLIMMAX
 10
12.0
 20
9.0
  9
$UNITMODE
 70
     0
  9
$VISRETAIN
 70
     0
  9
$PLINEGEN
 70
     0
  9
$PSLTSCALE
 70
     0
  0
ENDSEC
  0
SECTION
  2
TABLES
  0
TABLE
  2
VPORT
 70
     1
  0
VPORT
  2
*ACTIVE
 70
     0
 10
0.0
 20
0.0
 11
1.0
 21
1.0
 12
1040.738951981531
 22
135.8894765905857
 13
0.0
 23
0.0
 14
1.0
 24
1.0
 15
0.0
 25
0.0
 16
0.0
 26
0.0
 36
1.0
 17
0.0
 27
0.0
 37
0.0
 40
4199.8503726067074
 41
1.3299620733249049
 42
50.0
 43
0.0
 44
0.0
 50
0.0
 51
0.0
 71
     0
 72
  1000
 73
     1
 74
     0
 75
     0
 76
     0
 77
     0
 78
     0
  0
ENDTAB
  0
TABLE
  2
LTYPE
 70
     2
  0
LTYPE
  2
CONTINUOUS
 70
     0
  3
Ä└É³
 72
    65
 73
     0
 40
0.0
  0
LTYPE
  2
DASHDOT
 70
     0
  3
____ _ ____ _ ____ _ ____ _ ____ _ ____ _ ____
 72
    65
 73
     4
 40
5.5
 49
4.0
 49
-0.6
 49
0.3
 49
-0.6
  0
ENDTAB
  0
TABLE
  2
LAYER
 70
    12
  0
LAYER
  2
0
 70
     0
 62
     7
  6
CONTINUOUS
  0
LAYER
  2
ETC
 70
     0
 62
    61
  6
CONTINUOUS
  0
LAYER
  2
SIZE
 70
     0
 62
    30
  6
CONTINUOUS
  0
LAYER
  2
BASIS
 70
     0
 62
     6
  6
DASHDOT
  0
LAYER
  2
OUTLINE
 70
     0
 62
     3
  6
CONTINUOUS
  0
LAYER
  2
DETAIL
 70
     0
 62
     5
  6
CONTINUOUS
  0
LAYER
  2
ARRANGE
 70
     0
 62
     1
  6
CONTINUOUS
  0
LAYER
  2
DEFPOINTS
 70
     0
 62
     7
  6
CONTINUOUS
  0
LAYER
  2
FIX
 70
     0
 62
    11
  6
CONTINUOUS
  0
LAYER
  2
NOTE
 70
     0
 62
     4
  6
CONTINUOUS
  0
LAYER
  2
SERVICESPACE
 70
     0
 62
     2
  6
DASHDOT
  0
LAYER
  2
SYMBOLLINE
 70
     0
 62
    15
  6
CONTINUOUS
  0
ENDTAB
  0
TABLE
  2
STYLE
 70
     2
  0
STYLE
  2
STANDARD
 70
     0
 40
64.0
 41
0.9
 50
0.0
 71
     0
 42
64.0
  3
SIMPLEX.shx
  4
BIGFONT.shx
  0
STYLE
  2
ANNOTATIVE
 70
     0
 40
0.0
 41
1.0
 50
0.0
 71
     0
 42
0.2
  3
txt
  4

  0
ENDTAB
  0
TABLE
  2
VIEW
 70
     1
  0
VIEW
  2
ALL
 70
     0
 40
4282.6198079999967
 10
0.0
 20
41.309904000000003
 41
5940.0
 11
0.0
 21
0.0
 31
1.0
 12
0.0
 22
0.0
 32
0.0
 42
50.0
 43
0.0
 44
0.0
 50
0.0
 71
     0
  0
ENDTAB
  0
TABLE
  2
UCS
 70
     0
  0
ENDTAB
  0
TABLE
  2
APPID
 70
    18
  0
APPID
  2
ACAD
 70
     0
  0
APPID
  2
ACADANNOTATIVE
 70
     0
  0
APPID
  2
AUTOCAD_POSTSCRIPT_FIGURE
 70
     0
  0
APPID
  2
ACAD_EXEMPT_FROM_CAD_STANDARDS
 70
     0
  0
APPID
  2
ACAD_PSEXT
 70
     0
  0
APPID
  2
ACAUTHENVIRON
 70
     0
  0
APPID
  2
GENIUS_GENOENT_13
 70
     0
  0
APPID
  2
GENIUS_GENCFG_13
 70
     0
  0
APPID
  2
GENIUS_GENCFG0_13
 70
     0
  0
APPID
  2
GENIUS_GENCFG1_13
 70
     0
  0
APPID
  2
GENIUS_GENCFG2_13
 70
     0
  0
APPID
  2
GENIUS_GENCFG3_13
 70
     0
  0
APPID
  2
GENIUS_GENCFG4_13
 70
     0
  0
APPID
  2
GENIUS_GEVCFG0_13
 70
     0
  0
APPID
  2
CONTENTBLOCKICON
 70
     0
  0
APPID
  2
CONTENTBLOCKDESCRIPTION
 70
     0
  0
APPID
  2
ACAD_NAV_VCDISPLAY
 70
     0
  0
APPID
  2
ACAD_MLEADERVER
 70
     0
  0
ENDTAB
  0
TABLE
  2
DIMSTYLE
 70
     2
  0
DIMSTYLE
  2
STANDARD
 70
     0
  3

  4

  5

  6

  7

 40
1.0
 41
12.0
 42
20.0
 43
200.0
 44
20.0
 45
0.0
 46
0.0
 47
0.0
 48
0.0
140
64.0
141
0.09
142
0.0
143
25.399999999999999
144
1.0
145
0.0
146
1.0
147
25.0
 71
     0
 72
     0
 73
     0
 74
     0
 75
     0
 76
     0
 77
     1
 78
     8
170
     0
171
     2
172
     1
173
     0
174
     1
175
     0
176
     7
177
     7
178
     7
  0
DIMSTYLE
  2
ANNOTATIVE
 70
     0
  3

  4

  5

  6

  7

 40
1.0
 41
0.18
 42
0.0625
 43
0.38
 44
0.18
 45
0.0
 46
0.0
 47
0.0
 48
0.0
140
0.18
141
0.09
142
0.0
143
25.399999999999999
144
1.0
145
0.0
146
1.0
147
0.09
 71
     0
 72
     0
 73
     1
 74
     1
 75
     0
 76
     0
 77
     0
 78
     0
170
     0
171
     2
172
     0
173
     0
174
     0
175
     0
176
     0
177
     0
178
     0
  0
ENDTAB
  0
ENDSEC
  0
SECTION
  2
BLOCKS
  0
BLOCK
  8
0
  2
$MODEL_SPACE
 70
     0
 10
0.0
 20
0.0
 30
0.0
  3
$MODEL_SPACE
  1

  0
ENDBLK
  5
56E
  8
0
  0
BLOCK
 67
     1
  8
0
  2
$PAPER_SPACE
 70
     0
 10
0.0
 20
0.0
 30
0.0
  3
$PAPER_SPACE
  1

  0
ENDBLK
  5
56A
 67
     1
  8
0
  0
BLOCK
  8
0
  2
_ORIGIN
 70
     0
 10
0.0
 20
0.0
 30
0.0
  3
_ORIGIN
  1

  0
CIRCLE
  5
94
  8
0
  6
CONTINUOUS
 62
     7
 10
0.0
 20
0.0
 30
0.0
 40
0.5
  0
LINE
  5
95
  8
0
  6
CONTINUOUS
 62
     7
 10
0.0
 20
0.0
 30
0.0
 11
-1.0
 21
0.0
 31
0.0
  0
ENDBLK
  5
96
  8
0
  0
ENDSEC
  0
SECTION
  2
ENTITIES
  0
TEXT
  5
97
  8
ETC
  6
CONTINUOUS
 62
    61
 10
467.30028248149898
 20
845.05596914412354
 30
0.0
 40
64.0
  1
V-18ZMVC2-HM_1
 41
0.9
  0
TEXT
  5
98
  8
ETC
  6
CONTINUOUS
 62
    61
 10
463.11428848149882
 20
727.10065912929213
 30
0.0
 40
64.0
  1
èÀïCÉ¯
 41
0.9
  0
CIRCLE
  5
99
  8
ARRANGE
  6
CONTINUOUS
 62
     1
 10
0.0
 20
0.0
 30
0.0
 40
40.0
  0
POINT
  5
9A
  8
ARRANGE
  6
CONTINUOUS
 62
     1
 10
0.0
 20
0.0
 30
0.0
 39
50.0
  0
TEXT
  5
9B
  8
ETC
  6
CONTINUOUS
 62
    61
 10
513.81568673005495
 20
618.95188624306684
 30
0.0
 40
40.0
  1
V-18ZMVC2-HM
 41
0.9
  0
LINE
  5
9C
  8
DETAIL
  6
CONTINUOUS
 62
     5
 10
-108.9999998909999
 20
-151.99999984799919
 30
0.0
 11
-108.9999998909998
 21
-184.99999981499951
 31
0.0
  0
LINE
  5
9D
  8
DETAIL
  6
CONTINUOUS
 62
     5
 10
-111.99999988799981
 20
-187.999999812
 30
0.0
 11
-145.99999985400021
 21
-187.999999812
 31
0.0
  0
LINE
  5
9E
  8
DETAIL
  6
CONTINUOUS
 62
     5
 10
-108.9999998909999
 20
-151.99999984799919
 30
0.0
 11
-150.99999984900029
 21
-151.99999984799919
 31
0.0
  0
LINE
  5
9F
  8
DETAIL
  6
CONTINUOUS
 62
     5
 10
-148.9999998509999
 20
-151.99999984799919
 30
0.0
 11
-148.99999985099981
 21
-184.99999981499951
 31
0.0
  0
ARC
  5
A0
  8
DETAIL
  6
CONTINUOUS
 62
     5
 10
-145.99999985400021
 20
-184.99999981499951
 30
0.0
 40
2.9999999970000202
 50
179.99999999999989
 51
270.0
  0
ARC
  5
A1
  8
DETAIL
  6
CONTINUOUS
 62
     5
 10
-111.99999988799981
 20
-184.99999981499951
 30
0.0
 40
2.9999999970000002
 50
270.0
 51
0.0
  0
LINE
  5
A2
  8
DETAIL
  6
CONTINUOUS
 62
     5
 10
-140.49999985950001
 20
-166.99999983299941
 30
0.0
 11
-140.49999985949981
 21
-173.99999982599991
 31
0.0
  0
LINE
  5
A3
  8
DETAIL
  6
CONTINUOUS
 62
     5
 10
-125.4999998745003
 20
-166.99999983299941
 30
0.0
 11
-125.4999998745002
 21
-173.99999982599991
 31
0.0
  0
ARC
  5
A4
  8
DETAIL
  6
CONTINUOUS
 62
     5
 10
-132.99999986700001
 20
-173.99999982599991
 30
0.0
 40
7.4999999924999958
 50
179.99999999999989
 51
0.0
  0
ARC
  5
A5
  8
DETAIL
  6
CONTINUOUS
 62
     5
 10
-132.99999986700021
 20
-166.99999983299941
 30
0.0
 40
7.4999999924999852
 50
0.0
 51
179.99999999999989
  0
LINE
  5
A6
  8
NOTE
  6
CONTINUOUS
 62
     4
 10
-103.6400560680358
 20
-170.4999998295001
 30
0.0
 11
-154.34219867530871
 21
-170.4999998295001
 31
0.0
  0
LINE
  5
A7
  8
DETAIL
  6
CONTINUOUS
 62
     5
 10
-151.9999998479999
 20
-108.9999998909997
 30
0.0
 11
-151.9999998479999
 21
-150.99999984899969
 31
0.0
  0
LINE
  5
A8
  8
NOTE
  6
CONTINUOUS
 62
     4
 10
-132.99999986700021
 20
-144.3455637017808
 30
0.0
 11
-132.9999998670001
 21
-200.0304418228306
 31
0.0
  0
LINE
  5
A9
  8
DETAIL
  6
CONTINUOUS
 62
     5
 10
108.9999998909999
 20
151.99999984799959
 30
0.0
 11
108.9999998909999
 21
184.99999981499909
 31
0.0
  0
LINE
  5
AA
  8
DETAIL
  6
CONTINUOUS
 62
     5
 10
111.999999888
 20
187.9999998119996
 30
0.0
 11
145.9999998539999
 21
187.9999998119996
 31
0.0
  0
LINE
  5
AB
  8
DETAIL
  6
CONTINUOUS
 62
     5
 10
108.9999998909999
 20
151.99999984799959
 30
0.0
 11
150.99999984900029
 21
151.99999984799959
 31
0.0
  0
LINE
  5
AC
  8
DETAIL
  6
CONTINUOUS
 62
     5
 10
148.9999998509999
 20
151.99999984799959
 30
0.0
 11
148.9999998509999
 21
184.99999981499909
 31
0.0
  0
ARC
  5
AD
  8
DETAIL
  6
CONTINUOUS
 62
     5
 10
145.9999998539999
 20
184.99999981499909
 30
0.0
 40
2.999999996999926
 50
0.0
 51
89.999999999999957
  0
ARC
  5
AE
  8
DETAIL
  6
CONTINUOUS
 62
     5
 10
111.999999888
 20
184.99999981499909
 30
0.0
 40
2.9999999969999922
 50
89.999999999999957
 51
179.99999999999989
  0
LINE
  5
AF
  8
DETAIL
  6
CONTINUOUS
 62
     5
 10
140.49999985950001
 20
166.9999998329998
 30
0.0
 11
140.49999985950001
 21
173.99999982599951
 31
0.0
  0
LINE
  5
B0
  8
DETAIL
  6
CONTINUOUS
 62
     5
 10
125.49999987449991
 20
166.99999983299989
 30
0.0
 11
125.49999987449991
 21
173.99999982599951
 31
0.0
  0
ARC
  5
B1
  8
DETAIL
  6
CONTINUOUS
 62
     5
 10
132.9999998669997
 20
173.99999982599951
 30
0.0
 40
7.4999999924999958
 50
0.0
 51
179.99999999999989
  0
ARC
  5
B2
  8
DETAIL
  6
CONTINUOUS
 62
     5
 10
132.9999998669997
 20
166.99999983299989
 30
0.0
 40
7.4999999924999958
 50
179.99999999999989
 51
0.0
  0
LINE
  5
B3
  8
NOTE
  6
CONTINUOUS
 62
     4
 10
96.804892952190286
 20
170.49999982949959
 30
0.0
 11
154.34219867530891
 21
170.49999982949959
 31
0.0
  0
LINE
  5
B4
  8
NOTE
  6
CONTINUOUS
 62
     4
 10
170.4999998295003
 20
106.7849054985312
 30
0.0
 11
170.4999998294999
 21
158.54211347971739
 31
0.0
  0
LINE
  5
B5
  8
NOTE
  6
CONTINUOUS
 62
     4
 10
144.8762137683467
 20
132.9999998669995
 30
0.0
 11
194.76616020187211
 21
132.99999986699939
 31
0.0
  0
ARC
  5
B6
  8
DETAIL
  6
CONTINUOUS
 62
     5
 10
184.9999998149998
 20
111.99999988799971
 30
0.0
 40
2.9999999969999722
 50
270.0
 51
0.0
  0
ARC
  5
B7
  8
DETAIL
  6
CONTINUOUS
 62
     5
 10
184.9999998149998
 20
145.9999998539991
 30
0.0
 40
2.999999997000113
 50
0.0
 51
89.999999999999957
  0
LINE
  5
B8
  8
DETAIL
  6
CONTINUOUS
 62
     5
 10
187.99999981200031
 20
111.99999988799971
 30
0.0
 11
187.9999998119998
 21
145.9999998539991
 31
0.0
  0
LINE
  5
B9
  8
DETAIL
  6
CONTINUOUS
 62
     5
 10
151.9999998479999
 20
148.99999985099959
 30
0.0
 11
184.9999998149998
 21
148.99999985099959
 31
0.0
  0
LINE
  5
BA
  8
DETAIL
  6
CONTINUOUS
 62
     5
 10
151.9999998479999
 20
108.9999998909997
 30
0.0
 11
151.9999998479999
 21
150.99999984899921
 31
0.0
  0
LINE
  5
BB
  8
DETAIL
  6
CONTINUOUS
 62
     5
 10
151.9999998479999
 20
108.9999998909997
 30
0.0
 11
184.9999998149998
 21
108.9999998909997
 31
0.0
  0
LINE
  5
BC
  8
NOTE
  6
CONTINUOUS
 62
     4
 10
132.9999998669997
 20
144.67040458199421
 30
0.0
 11
132.9999998669997
 21
196.78502957052879
 31
0.0
  0
LINE
  5
BD
  8
NOTE
  6
CONTINUOUS
 62
     4
 10
-170.4999998295003
 20
-106.7849054985307
 30
0.0
 11
-170.4999998295003
 21
-158.54211347971739
 31
0.0
  0
LINE
  5
BE
  8
NOTE
  6
CONTINUOUS
 62
     4
 10
-144.8762137683467
 20
-132.9999998669999
 30
0.0
 11
-191.43271829561229
 21
-132.9999998669999
 31
0.0
  0
ARC
  5
BF
  8
DETAIL
  6
CONTINUOUS
 62
     5
 10
-184.99999981500011
 20
-111.99999988799919
 30
0.0
 40
2.9999999969999922
 50
89.999999999999957
 51
179.99999999999989
  0
ARC
  5
C0
  8
DETAIL
  6
CONTINUOUS
 62
     5
 10
-184.99999981500031
 20
-145.99999985399961
 30
0.0
 40
2.9999999970000202
 50
179.99999999999989
 51
270.0
  0
LINE
  5
C1
  8
DETAIL
  6
CONTINUOUS
 62
     5
 10
-187.99999981200031
 20
-111.99999988799919
 30
0.0
 11
-187.99999981200031
 21
-145.99999985399961
 31
0.0
  0
LINE
  5
C2
  8
DETAIL
  6
CONTINUOUS
 62
     5
 10
-151.9999998479999
 20
-148.99999985099959
 30
0.0
 11
-184.99999981500031
 21
-148.99999985099959
 31
0.0
  0
LINE
  5
C3
  8
DETAIL
  6
CONTINUOUS
 62
     5
 10
-151.9999998479999
 20
-108.9999998909997
 30
0.0
 11
-184.99999981500011
 21
-108.9999998909997
 31
0.0
  0
ARC
  5
C4
  8
DETAIL
  6
CONTINUOUS
 62
     5
 10
-170.53509720295611
 20
-132.9999998669999
 30
0.0
 40
12.99999998700001
 50
313.04907980023182
 51
46.950920199768063
  0
ARC
  5
C5
  8
DETAIL
  6
CONTINUOUS
 62
     5
 10
-170.53509720295611
 20
-132.9999998669999
 30
0.0
 40
9.4999999904999672
 50
320.83328928387732
 51
39.166764252205219
  0
LINE
  5
C6
  8
DETAIL
  6
CONTINUOUS
 62
     5
 10
179.40921686873131
 20
142.49999985749909
 30
0.0
 11
161.66097753718091
 21
142.49999985749909
 31
0.0
  0
LINE
  5
C7
  8
DETAIL
  6
CONTINUOUS
 62
     5
 10
177.90055712691861
 20
138.99999986099951
 30
0.0
 11
163.16963727899341
 21
138.99999986099951
 31
0.0
  0
ARC
  5
C8
  8
DETAIL
  6
CONTINUOUS
 62
     5
 10
170.53509720295611
 20
132.9999998669995
 30
0.0
 40
12.99999998700009
 50
313.04907980023182
 51
46.950920199768063
  0
LINE
  5
C9
  8
DETAIL
  6
CONTINUOUS
 62
     5
 10
179.40921686873119
 20
123.4999998764991
 30
0.0
 11
161.66097753718091
 21
123.4999998764991
 31
0.0
  0
ARC
  5
CA
  8
DETAIL
  6
CONTINUOUS
 62
     5
 10
170.53509720295611
 20
132.9999998669995
 30
0.0
 40
9.4999999905001733
 50
320.83321844495862
 51
39.16671071612263
  0
LINE
  5
CB
  8
DETAIL
  6
CONTINUOUS
 62
     5
 10
177.90056045242639
 20
126.99999987299989
 30
0.0
 11
163.16963681450821
 21
126.99999987299989
 31
0.0
  0
ARC
  5
CC
  8
DETAIL
  6
CONTINUOUS
 62
     5
 10
170.53509720295611
 20
132.9999998669995
 30
0.0
 40
12.99999998699999
 50
133.04907980023191
 51
226.95092019976809
  0
ARC
  5
CD
  8
DETAIL
  6
CONTINUOUS
 62
     5
 10
170.53509720295611
 20
132.9999998669995
 30
0.0
 40
9.4999999904996795
 50
140.83328928387709
 51
219.16676425220521
  0
ARC
  5
CE
  8
DETAIL
  6
CONTINUOUS
 62
     5
 10
-170.53509720295611
 20
-132.9999998669999
 30
0.0
 40
12.999999986999949
 50
133.04907980023191
 51
226.95092019976809
  0
LINE
  5
CF
  8
DETAIL
  6
CONTINUOUS
 62
     5
 10
-179.40921686873119
 20
-123.4999998764996
 30
0.0
 11
-161.66097753718131
 21
-123.4999998764996
 31
0.0
  0
LINE
  5
D0
  8
DETAIL
  6
CONTINUOUS
 62
     5
 10
-179.40921686873131
 20
-142.4999998574998
 30
0.0
 11
-161.66097753718131
 21
-142.4999998574998
 31
0.0
  0
LINE
  5
D1
  8
DETAIL
  6
CONTINUOUS
 62
     5
 10
-177.9005571269191
 20
-138.99999986099999
 30
0.0
 11
-163.16963727899341
 21
-138.99999986099999
 31
0.0
  0
ARC
  5
D2
  8
DETAIL
  6
CONTINUOUS
 62
     5
 10
-170.53509720295611
 20
-132.9999998669999
 30
0.0
 40
9.4999999905000614
 50
140.83321844495859
 51
219.16671071612251
  0
LINE
  5
D3
  8
DETAIL
  6
CONTINUOUS
 62
     5
 10
-177.90056045242639
 20
-126.9999998729994
 30
0.0
 11
-163.16963681450841
 21
-126.9999998729994
 31
0.0
  0
LINE
  5
D4
  8
DETAIL
  6
CONTINUOUS
 62
     5
 10
-184.49997540659609
 20
165.99992616260641
 30
0.0
 11
-184.5
 21
52.807945000000018
 31
0.0
  0
ARC
  5
D5
  8
DETAIL
  6
CONTINUOUS
 62
     5
 10
-165.99997542509661
 20
165.99992616260641
 30
0.0
 40
18.49999998149999
 50
89.999999999999957
 51
179.99999999999989
  0
LINE
  5
D6
  8
DETAIL
  6
CONTINUOUS
 62
     5
 10
-52.809098078501712
 20
184.49992614410621
 30
0.0
 11
-165.99997542509661
 21
184.4999261441063
 31
0.0
  0
LINE
  5
D7
  8
DETAIL
  6
CONTINUOUS
 62
     5
 10
52.807940000000137
 20
184.5
 30
0.0
 11
165.9999754250963
 21
184.4999261441061
 31
0.0
  0
ARC
  5
D8
  8
DETAIL
  6
CONTINUOUS
 62
     5
 10
165.9999754250963
 20
165.9999261626061
 30
0.0
 40
18.499999981500039
 50
0.0
 51
89.999999999999957
  0
LINE
  5
D9
  8
DETAIL
  6
CONTINUOUS
 62
     5
 10
184.49997540659629
 20
165.9999261626061
 30
0.0
 11
184.49997540659609
 21
52.807945000000032
 31
0.0
  0
LINE
  5
DA
  8
DETAIL
  6
CONTINUOUS
 62
     5
 10
63.618709060045433
 20
-184.5
 30
0.0
 11
165.99997542509601
 21
-184.49992614410681
 31
0.0
  0
LINE
  5
DB
  8
DETAIL
  6
CONTINUOUS
 62
     5
 10
-63.618709060044537
 20
-184.49992614410661
 30
0.0
 11
-165.99997542509669
 21
-184.49992614410661
 31
0.0
  0
LINE
  5
DC
  8
DETAIL
  6
CONTINUOUS
 62
     5
 10
184.49997540659581
 20
-165.99992616260681
 30
0.0
 11
184.5
 21
-52.80670299999997
 31
0.0
  0
ARC
  5
DD
  8
DETAIL
  6
CONTINUOUS
 62
     5
 10
165.9999754250961
 20
-165.99992616260681
 30
0.0
 40
18.499999981500039
 50
270.0
 51
0.0
  0
LINE
  5
DE
  8
BASIS
  6
DASHDOT
 62
     6
 10
-304.84778536878088
 20
0.0
 30
0.0
 11
281.94378481245798
 21
0.0
 31
0.0
  0
LINE
  5
DF
  8
BASIS
  6
DASHDOT
 62
     6
 10
-0.0000000000001137
 20
-337.05323091687342
 30
0.0
 11
0.0000000000001137
 21
303.36567299612489
 31
0.0
  0
ARC
  5
E0
  8
DETAIL
  6
CONTINUOUS
 62
     5
 10
-165.99997542509669
 20
-165.99992616260661
 30
0.0
 40
18.49999998149994
 50
179.99999999999989
 51
270.0
  0
LINE
  5
E1
  8
DETAIL
  6
CONTINUOUS
 62
     5
 10
-184.49997540659629
 20
-165.99992616260661
 30
0.0
 11
-184.49997540659609
 21
-52.809097354637643
 31
0.0
  0
LINE
  5
E2
  8
DETAIL
  6
CONTINUOUS
 62
     5
 10
49.218171645550392
 20
210.03557833815961
 30
0.0
 11
52.499999947500037
 21
205.53557834265939
 31
0.0
  0
ARC
  5
E3
  8
DETAIL
  6
CONTINUOUS
 62
     5
 10
48.504344346198359
 20
234.5355783136597
 30
0.0
 40
0.4999999994999267
 50
0.5000000000110803
 51
89.999999999999957
  0
LINE
  5
E4
  8
DETAIL
  6
CONTINUOUS
 62
     5
 10
49.218171645550392
 20
210.03557833815961
 30
0.0
 11
49.004325307230097
 21
234.53994158140401
 31
0.0
  0
LINE
  5
E5
  8
DETAIL
  6
CONTINUOUS
 62
     5
 10
49.218171645550392
 20
210.03557833815961
 30
0.0
 11
-49.218171645550967
 21
210.0355783381597
 31
0.0
  0
LINE
  5
E6
  8
DETAIL
  6
CONTINUOUS
 62
     5
 10
-52.49999994750015
 20
205.53557834265939
 30
0.0
 11
52.499999947500037
 21
205.53557834265939
 31
0.0
  0
LINE
  5
E7
  8
DETAIL
  6
CONTINUOUS
 62
     5
 10
-49.218171645550967
 20
210.0355783381597
 30
0.0
 11
-52.49999994750015
 21
205.53557834265939
 31
0.0
  0
LINE
  5
E8
  8
DETAIL
  6
CONTINUOUS
 62
     5
 10
-48.504344346198032
 20
235.03557831315999
 30
0.0
 11
48.504344346198359
 21
235.0355783131599
 31
0.0
  0
ARC
  5
E9
  8
DETAIL
  6
CONTINUOUS
 62
     5
 10
-48.504344346198032
 20
234.5355783136597
 30
0.0
 40
0.4999999995000871
 50
89.999999999999957
 51
179.4999999999888
  0
LINE
  5
EA
  8
DETAIL
  6
CONTINUOUS
 62
     5
 10
-49.218171645550967
 20
210.0355783381597
 30
0.0
 11
-49.004325307230197
 21
234.53994158140401
 31
0.0
  0
LINE
  5
EB
  8
DETAIL
  6
CONTINUOUS
 62
     5
 10
53.242570354506
 20
155.0
 30
0.0
 11
52.499999947502737
 21
205.535578342658
 31
0.0
  0
LINE
  5
EC
  8
DETAIL
  6
CONTINUOUS
 62
     5
 10
-53.242570354506888
 20
155.0
 30
0.0
 11
-52.499999947502431
 21
205.53557834265811
 31
0.0
  0
LINE
  5
ED
  8
DETAIL
  6
CONTINUOUS
 62
     5
 10
155.0
 20
-53.242570354506
 30
0.0
 11
205.535578342658
 21
-52.499999947502737
 31
0.0
  0
LINE
  5
EE
  8
DETAIL
  6
CONTINUOUS
 62
     5
 10
210.03557833815921
 20
-49.218171645550832
 30
0.0
 11
205.53557834265939
 21
-52.499999947500022
 31
0.0
  0
ARC
  5
EF
  8
DETAIL
  6
CONTINUOUS
 62
     5
 10
234.5355783136597
 20
-48.504344346198359
 30
0.0
 40
0.4999999995000199
 50
270.50000000001751
 51
0.0
  0
LINE
  5
F0
  8
DETAIL
  6
CONTINUOUS
 62
     5
 10
210.03557833815921
 20
-49.218171645550832
 30
0.0
 11
234.53994158140401
 21
-49.004325307230538
 31
0.0
  0
LINE
  5
F1
  8
DETAIL
  6
CONTINUOUS
 62
     5
 10
235.0355783131595
 20
48.504344346198032
 30
0.0
 11
235.03557831315939
 21
-48.504344346198359
 31
0.0
  0
ARC
  5
F2
  8
DETAIL
  6
CONTINUOUS
 62
     5
 10
234.5355783136597
 20
48.504344346198032
 30
0.0
 40
0.4999999994997136
 50
0.0
 51
89.499999999982336
  0
LINE
  5
F3
  8
DETAIL
  6
CONTINUOUS
 62
     5
 10
210.03557833815921
 20
-49.218171645550832
 30
0.0
 11
210.03557833815921
 21
49.218171645550079
 31
0.0
  0
LINE
  5
F4
  8
DETAIL
  6
CONTINUOUS
 62
     5
 10
210.03557833815921
 20
49.218171645550079
 30
0.0
 11
234.53994158140401
 21
49.004325307229763
 31
0.0
  0
LINE
  5
F5
  8
DETAIL
  6
CONTINUOUS
 62
     5
 10
205.53557834265939
 20
52.499999947500179
 30
0.0
 11
205.53557834265939
 21
-52.499999947500022
 31
0.0
  0
LINE
  5
F6
  8
DETAIL
  6
CONTINUOUS
 62
     5
 10
210.03557833815921
 20
49.218171645550079
 30
0.0
 11
205.53557834265939
 21
52.499999947500179
 31
0.0
  0
LINE
  5
F7
  8
DETAIL
  6
CONTINUOUS
 62
     5
 10
155.0
 20
53.242570354506249
 30
0.0
 11
205.53557834265811
 21
52.499999947502893
 31
0.0
  0
LINE
  5
F8
  8
DETAIL
  6
CONTINUOUS
 62
     5
 10
-155.0
 20
53.242570354506462
 30
0.0
 11
-205.535578342658
 21
52.499999947503213
 31
0.0
  0
LINE
  5
F9
  8
DETAIL
  6
CONTINUOUS
 62
     5
 10
-210.03557833815961
 20
49.218171645550377
 30
0.0
 11
-205.5355783426603
 21
52.499999947500477
 31
0.0
  0
ARC
  5
FA
  8
DETAIL
  6
CONTINUOUS
 62
     5
 10
-234.5355783136597
 20
48.504344346198359
 30
0.0
 40
0.4999999994999934
 50
90.500000000017593
 51
179.99999999999989
  0
LINE
  5
FB
  8
DETAIL
  6
CONTINUOUS
 62
     5
 10
-210.03557833815961
 20
49.218171645550377
 30
0.0
 11
-234.53994158140441
 21
49.004325307230083
 31
0.0
  0
LINE
  5
FC
  8
DETAIL
  6
CONTINUOUS
 62
     5
 10
-235.03557831315999
 20
-48.504344346198032
 30
0.0
 11
-235.0355783131599
 21
48.504344346198359
 31
0.0
  0
ARC
  5
FD
  8
DETAIL
  6
CONTINUOUS
 62
     5
 10
-234.5355783136597
 20
-48.504344346198032
 30
0.0
 40
0.4999999994999003
 50
179.99999999999989
 51
269.49999999998238
  0
LINE
  5
FE
  8
DETAIL
  6
CONTINUOUS
 62
     5
 10
-210.03557833815961
 20
49.218171645550377
 30
0.0
 11
-210.0355783381597
 21
-49.218171645550527
 31
0.0
  0
LINE
  5
FF
  8
DETAIL
  6
CONTINUOUS
 62
     5
 10
-210.0355783381597
 20
-49.218171645550527
 30
0.0
 11
-234.53994158140441
 21
-49.004325307230218
 31
0.0
  0
LINE
  5
100
  8
DETAIL
  6
CONTINUOUS
 62
     5
 10
-205.5355783426603
 20
-52.499999947499717
 30
0.0
 11
-205.5355783426603
 21
52.499999947500477
 31
0.0
  0
LINE
  5
101
  8
DETAIL
  6
CONTINUOUS
 62
     5
 10
-210.0355783381597
 20
-49.218171645550527
 30
0.0
 11
-205.5355783426603
 21
-52.499999947499717
 31
0.0
  0
LINE
  5
102
  8
DETAIL
  6
CONTINUOUS
 62
     5
 10
-155.0
 20
-53.242570354505823
 30
0.0
 11
-205.53557834265811
 21
-52.499999947502452
 31
0.0
  0
LINE
  5
103
  8
DETAIL
  6
CONTINUOUS
 62
     5
 10
-52.975630459673667
 20
-197.78873520050681
 30
0.0
 11
-52.687789113966247
 21
-230.77208645651581
 31
0.0
  0
LINE
  5
104
  8
DETAIL
  6
CONTINUOUS
 62
     5
 10
-49.000076107771463
 20
-265.00904360605938
 30
0.0
 11
49.000076107771122
 21
-265.00904360605961
 31
0.0
  0
LINE
  5
105
  8
DETAIL
  6
CONTINUOUS
 62
     5
 10
-49.840452184546528
 20
-234.43047359274581
 30
0.0
 11
-52.102078830796607
 21
-232.16884694649571
 31
0.0
  0
LINE
  5
106
  8
DETAIL
  6
CONTINUOUS
 62
     5
 10
-49.254741901376889
 20
-235.82723408272571
 30
0.0
 11
-49.000076107771463
 21
-265.00904360605938
 31
0.0
  0
ARC
  5
107
  8
DETAIL
  6
CONTINUOUS
 62
     5
 10
-51.25466574550515
 20
-235.8446871537048
 30
0.0
 40
1.999999998000024
 50
0.5000000000045664
 51
45.000000000009173
  0
ARC
  5
108
  8
DETAIL
  6
CONTINUOUS
 62
     5
 10
-51.25466574550515
 20
-235.8446871537048
 30
0.0
 40
1.999999998000024
 50
0.5000000000045664
 51
45.000000000009173
  0
ARC
  5
109
  8
DETAIL
  6
CONTINUOUS
 62
     5
 10
-50.687865269837552
 20
-230.7546333855357
 30
0.0
 40
1.9999999980003511
 50
180.50000000000441
 51
225.0
  0
ARC
  5
10A
  8
DETAIL
  6
CONTINUOUS
 62
     5
 10
-50.687865269837552
 20
-230.7546333855357
 30
0.0
 40
1.9999999980003511
 50
180.50000000000441
 51
225.0
  0
ARC
  5
10B
  8
DETAIL
  6
CONTINUOUS
 62
     5
 10
50.687865269837701
 20
-230.75463338553581
 30
0.0
 40
1.999999997999903
 50
314.99999999999068
 51
359.49999999999528
  0
ARC
  5
10C
  8
DETAIL
  6
CONTINUOUS
 62
     5
 10
50.687865269837701
 20
-230.75463338553581
 30
0.0
 40
1.999999997999903
 50
314.99999999999068
 51
359.49999999999528
  0
LINE
  5
10D
  8
DETAIL
  6
CONTINUOUS
 62
     5
 10
49.840452184545782
 20
-234.43047359274581
 30
0.0
 11
52.102078830796323
 21
-232.16884694649571
 31
0.0
  0
LINE
  5
10E
  8
DETAIL
  6
CONTINUOUS
 62
     5
 10
49.840452184545782
 20
-234.43047359274581
 30
0.0
 11
52.102078830796323
 21
-232.16884694649571
 31
0.0
  0
LINE
  5
10F
  8
DETAIL
  6
CONTINUOUS
 62
     5
 10
52.975630459673859
 20
-197.78873520050681
 30
0.0
 11
52.68778911396597
 21
-230.77208645651581
 31
0.0
  0
LINE
  5
110
  8
DETAIL
  6
CONTINUOUS
 62
     5
 10
49.25474190137659
 20
-235.82723408272571
 30
0.0
 11
49.000076107771122
 21
-265.00904360605961
 31
0.0
  0
ARC
  5
111
  8
DETAIL
  6
CONTINUOUS
 62
     5
 10
51.254665745504397
 20
-235.84468715370491
 30
0.0
 40
1.999999997999879
 50
134.99999999999071
 51
179.49999999999531
  0
ARC
  5
112
  8
DETAIL
  6
CONTINUOUS
 62
     5
 10
51.254665745504397
 20
-235.84468715370491
 30
0.0
 40
1.999999997999879
 50
134.99999999999071
 51
179.49999999999531
  0
LINE
  5
113
  8
DETAIL
  6
CONTINUOUS
 62
     5
 10
52.975630459673859
 20
-197.78873520050681
 30
0.0
 11
63.61876821195608
 21
-184.49992614410661
 31
0.0
  0
LINE
  5
114
  8
DETAIL
  6
CONTINUOUS
 62
     5
 10
-52.975630459673667
 20
-197.78873520050681
 30
0.0
 11
-63.618768211955278
 21
-184.49992614410661
 31
0.0
  0
LINE
  5
115
  8
DETAIL
  6
CONTINUOUS
 62
     5
 10
-13.99999998600028
 20
-197.78873520050681
 30
0.0
 11
-52.975630459673667
 21
-197.78873520050681
 31
0.0
  0
LINE
  5
116
  8
DETAIL
  6
CONTINUOUS
 62
     5
 10
-7.2161424015563771
 20
-231.59027690318129
 30
0.0
 11
-52.504923305074641
 21
-231.59027690318129
 31
0.0
  0
LINE
  5
117
  8
DETAIL
  6
CONTINUOUS
 62
     5
 10
-49.437607710268523
 20
-235.0090436360592
 30
0.0
 11
7.809104874851827
 21
-235.0090436360592
 31
0.0
  0
LINE
  5
118
  8
DETAIL
  6
CONTINUOUS
 62
     5
 10
7.809104874851827
 20
-235.0090436360592
 30
0.0
 11
49.437607710268217
 21
-235.00904363605929
 31
0.0
  0
LINE
  5
119
  8
DETAIL
  6
CONTINUOUS
 62
     5
 10
52.50492330507435
 20
-231.59027690318149
 30
0.0
 11
-7.2161424015563771
 21
-231.59027690318129
 31
0.0
  0
LINE
  5
11A
  8
DETAIL
  6
CONTINUOUS
 62
     5
 10
52.975630459673859
 20
-197.78873520050681
 30
0.0
 11
-13.99999998600028
 21
-197.78873520050681
 31
0.0
  0
LINE
  5
11B
  8
BASIS
  6
DASHDOT
 62
     6
 39
50.0
 10
0.0
 20
-280.42350599999997
 30
0.0
 11
0.0
 21
248.107767
 31
0.0
  0
LINE
  5
11C
  8
BASIS
  6
DASHDOT
 62
     6
 39
50.0
 10
248.93972600000001
 20
0.0
 30
0.0
 11
-248.93972600000001
 21
0.0
 31
0.0
  0
ARC
  5
11D
  8
OUTLINE
  6
CONTINUOUS
 62
     3
 10
-166.0
 20
166.0
 30
0.0
 40
18.5
 50
90.0
 51
180.0
  0
ARC
  5
11E
  8
OUTLINE
  6
CONTINUOUS
 62
     3
 10
166.0
 20
166.0
 30
0.0
 40
18.5
 50
0.0
 51
90.0
  0
LINE
  5
11F
  8
NOTE
  6
CONTINUOUS
 62
     4
 10
133.0
 20
144.45807300000001
 30
0.0
 11
133.0
 21
196.54192699999999
 31
0.0
  0
LINE
  5
120
  8
OUTLINE
  6
CONTINUOUS
 62
     3
 10
166.0
 20
184.5
 30
0.0
 11
149.0
 21
184.5
 31
0.0
  0
LINE
  5
121
  8
NOTE
  6
CONTINUOUS
 62
     4
 10
95.117024000000129
 20
-85.0
 30
0.0
 11
156.0
 21
-85.0
 31
0.0
  0
LINE
  5
122
  8
NOTE
  6
CONTINUOUS
 62
     4
 10
107.648927
 20
170.5
 30
0.0
 11
158.35107300000001
 21
170.5
 31
0.0
  0
LINE
  5
123
  8
OUTLINE
  6
CONTINUOUS
 62
     3
 10
184.5
 20
-166.0
 30
0.0
 11
184.5
 21
-52.80670299999997
 31
0.0
  0
LINE
  5
124
  8
NOTE
  6
CONTINUOUS
 62
     4
 10
115.0
 20
-123.0
 30
0.0
 11
115.0
 21
-71.495782999999932
 31
0.0
  0
LINE
  5
125
  8
NOTE
  6
CONTINUOUS
 62
     4
 10
170.5
 20
107.12139500000001
 30
0.0
 11
170.5
 21
158.87860499999999
 31
0.0
  0
LINE
  5
126
  8
NOTE
  6
CONTINUOUS
 62
     4
 10
147.2217499999999
 20
133.0
 30
0.0
 11
193.7782500000001
 21
133.0
 31
0.0
  0
ARC
  5
127
  8
OUTLINE
  6
CONTINUOUS
 62
     3
 10
166.0
 20
-166.0
 30
0.0
 40
18.5
 50
270.0
 51
0.0
  0
LINE
  5
128
  8
OUTLINE
  6
CONTINUOUS
 62
     3
 10
-184.5
 20
166.0
 30
0.0
 11
-184.5
 21
52.807945000000018
 31
0.0
  0
LINE
  5
129
  8
OUTLINE
  6
CONTINUOUS
 62
     3
 10
-166.0
 20
-184.5
 30
0.0
 11
-149.0
 21
-184.5
 31
0.0
  0
LINE
  5
12A
  8
NOTE
  6
CONTINUOUS
 62
     4
 10
-107.6489280000001
 20
-170.5
 30
0.0
 11
-158.35107300000001
 21
-170.5
 31
0.0
  0
ARC
  5
12B
  8
OUTLINE
  6
CONTINUOUS
 62
     3
 10
-166.0
 20
-166.0
 30
0.0
 40
18.5
 50
180.0
 51
270.0
  0
LINE
  5
12C
  8
NOTE
  6
CONTINUOUS
 62
     4
 10
-133.0
 20
-144.34681
 30
0.0
 11
-133.0
 21
-196.65319
 31
0.0
  0
LINE
  5
12D
  8
NOTE
  6
CONTINUOUS
 62
     4
 10
-170.5
 20
-109.04647300000001
 30
0.0
 11
-170.5
 21
-156.95352700000001
 31
0.0
  0
LINE
  5
12E
  8
NOTE
  6
CONTINUOUS
 62
     4
 10
-191.6682350000001
 20
-133.0
 30
0.0
 11
-149.3317649999999
 21
-133.0
 31
0.0
  0
LINE
  5
12F
  8
SIZE
  6
CONTINUOUS
 62
    30
 10
-49.010365999999983
 20
-283.82115199999998
 30
0.0
 11
-49.010365999999983
 21
-624.75251600000001
 31
0.0
  0
LINE
  5
130
  8
SIZE
  6
CONTINUOUS
 62
    30
 10
49.014703000000047
 20
-283.32422500000001
 30
0.0
 11
49.014703000000047
 21
-624.75251600000001
 31
0.0
  0
LINE
  5
131
  8
SIZE
  6
CONTINUOUS
 62
    30
 10
-37.010365999999983
 20
-604.75251600000001
 30
0.0
 11
37.014703000000047
 21
-604.75251600000001
 31
0.0
  0
LINE
  5
132
  8
SIZE
  6
CONTINUOUS
 62
    30
 10
49.014703000000047
 20
-604.75251600000001
 30
0.0
 11
261.87184600000001
 21
-604.75251600000001
 31
0.0
  0
CIRCLE
  5
133
  8
SIZE
  6
CONTINUOUS
 62
    30
 10
-49.010365999999983
 20
-604.75251600000001
 30
0.0
 40
6.0
  0
LINE
  5
134
  8
SIZE
  6
CONTINUOUS
 62
    30
 10
-49.010365999999983
 20
-604.75251600000001
 30
0.0
 11
-37.010365999999983
 21
-604.75251600000001
 31
0.0
  0
CIRCLE
  5
135
  8
SIZE
  6
CONTINUOUS
 62
    30
 10
49.014703000000047
 20
-604.75251600000001
 30
0.0
 40
6.0
  0
LINE
  5
136
  8
SIZE
  6
CONTINUOUS
 62
    30
 10
49.014703000000047
 20
-604.75251600000001
 30
0.0
 11
37.014703000000047
 21
-604.75251600000001
 31
0.0
  0
TEXT
  5
137
  8
SIZE
  6
CONTINUOUS
 62
    30
 10
74.494702571428562
 20
-579.75251600000001
 30
0.0
 40
64.0
  1
âË98
 41
0.9
 72
     1
 11
161.443274
 21
-579.75251600000001
 31
0.0
  0
POINT
  5
138
  8
DEFPOINTS
  6
CONTINUOUS
 62
    30
 10
-49.010365999999983
 20
-263.82115199999998
 30
0.0
  0
POINT
  5
139
  8
DEFPOINTS
  6
CONTINUOUS
 62
    30
 10
49.014703000000047
 20
-263.32422500000001
 30
0.0
  0
POINT
  5
13A
  8
DEFPOINTS
  6
CONTINUOUS
 62
    30
 10
49.014703000000047
 20
-604.75251600000001
 30
0.0
  0
LINE
  5
13B
  8
SIZE
  6
CONTINUOUS
 62
    30
 10
-52.69680100000005
 20
-249.73086499999999
 30
0.0
 11
-52.69680100000005
 21
-735.11708399999986
 31
0.0
  0
LINE
  5
13C
  8
SIZE
  6
CONTINUOUS
 62
    30
 10
52.698028000000022
 20
-249.59030300000001
 30
0.0
 11
52.698028000000022
 21
-735.11708399999986
 31
0.0
  0
LINE
  5
13D
  8
SIZE
  6
CONTINUOUS
 62
    30
 10
-40.69680100000005
 20
-715.11708399999975
 30
0.0
 11
40.698028000000001
 21
-715.11708399999975
 31
0.0
  0
LINE
  5
13E
  8
SIZE
  6
CONTINUOUS
 62
    30
 10
52.698028000000022
 20
-715.11708399999975
 30
0.0
 11
309.44088499999998
 21
-715.11708399999975
 31
0.0
  0
CIRCLE
  5
13F
  8
SIZE
  6
CONTINUOUS
 62
    30
 10
-52.69680100000005
 20
-715.11708399999975
 30
0.0
 40
6.0
  0
LINE
  5
140
  8
SIZE
  6
CONTINUOUS
 62
    30
 10
-52.69680100000005
 20
-715.11708399999975
 30
0.0
 11
-40.69680100000005
 21
-715.11708399999975
 31
0.0
  0
CIRCLE
  5
141
  8
SIZE
  6
CONTINUOUS
 62
    30
 10
52.698028000000022
 20
-715.11708399999975
 30
0.0
 40
6.0
  0
LINE
  5
142
  8
SIZE
  6
CONTINUOUS
 62
    30
 10
52.698028000000022
 20
-715.11708399999975
 30
0.0
 11
40.698028000000001
 21
-715.11708399999975
 31
0.0
  0
TEXT
  5
143
  8
SIZE
  6
CONTINUOUS
 62
    30
 10
78.178027428571312
 20
-690.11708399999975
 30
0.0
 40
64.0
  1
âË105
 41
0.9
 72
     1
 11
187.06945599999989
 21
-690.11708399999975
 31
0.0
  0
POINT
  5
144
  8
DEFPOINTS
  6
CONTINUOUS
 62
    30
 10
-52.69680100000005
 20
-229.73086499999999
 30
0.0
  0
POINT
  5
145
  8
DEFPOINTS
  6
CONTINUOUS
 62
    30
 10
52.698028000000022
 20
-229.59030300000001
 30
0.0
  0
POINT
  5
146
  8
DEFPOINTS
  6
CONTINUOUS
 62
    30
 10
52.698028000000022
 20
-715.11708399999975
 30
0.0
  0
LINE
  5
147
  8
SIZE
  6
CONTINUOUS
 62
    30
 10
-67.154289999999932
 20
-265.00040999999999
 30
0.0
 11
-375.34997199999998
 21
-265.00040999999999
 31
0.0
  0
LINE
  5
148
  8
SIZE
  6
CONTINUOUS
 62
    30
 10
-67.154289999999932
 20
-235.00040999999999
 30
0.0
 11
-375.34997199999998
 21
-235.00040999999999
 31
0.0
  0
LINE
  5
149
  8
SIZE
  6
CONTINUOUS
 62
    30
 10
-355.34997199999998
 20
-223.00040999999999
 30
0.0
 11
-355.34997199999998
 21
-211.00040999999999
 31
0.0
  0
LINE
  5
14A
  8
SIZE
  6
CONTINUOUS
 62
    30
 10
-355.34997199999998
 20
-277.00040999999999
 30
0.0
 11
-355.34997199999998
 21
-432.25755299999992
 31
0.0
  0
LINE
  5
14B
  8
SIZE
  6
CONTINUOUS
 62
    30
 10
-355.34997199999998
 20
-235.00040999999999
 30
0.0
 11
-355.34997199999998
 21
-265.00040999999999
 31
0.0
  0
CIRCLE
  5
14C
  8
SIZE
  6
CONTINUOUS
 62
    30
 10
-355.34997199999998
 20
-235.00040999999999
 30
0.0
 40
6.0
  0
LINE
  5
14D
  8
SIZE
  6
CONTINUOUS
 62
    30
 10
-355.34997199999998
 20
-235.00040999999999
 30
0.0
 11
-355.34997199999998
 21
-223.00040999999999
 31
0.0
  0
CIRCLE
  5
14E
  8
SIZE
  6
CONTINUOUS
 62
    30
 10
-355.34997199999998
 20
-265.00040999999999
 30
0.0
 40
6.0
  0
LINE
  5
14F
  8
SIZE
  6
CONTINUOUS
 62
    30
 10
-355.34997199999998
 20
-265.00040999999999
 30
0.0
 11
-355.34997199999998
 21
-277.00040999999999
 31
0.0
  0
TEXT
  5
150
  8
SIZE
  6
CONTINUOUS
 62
    30
 10
-380.34997199999998
 20
-407.25755242857139
 30
0.0
 40
64.0
  1
30
 50
90.0
 41
0.9
 72
     1
 11
-380.34997199999998
 21
-360.62898100000012
 31
0.0
  0
POINT
  5
151
  8
DEFPOINTS
  6
CONTINUOUS
 62
    30
 10
-47.154289999999953
 20
-265.00040999999999
 30
0.0
  0
POINT
  5
152
  8
DEFPOINTS
  6
CONTINUOUS
 62
    30
 10
-47.154289999999953
 20
-235.00040999999999
 30
0.0
  0
POINT
  5
153
  8
DEFPOINTS
  6
CONTINUOUS
 62
    30
 10
-355.34997199999998
 20
-235.00040999999999
 30
0.0
  0
LINE
  5
154
  8
SIZE
  6
CONTINUOUS
 62
    30
 10
-67.154289999999932
 20
-265.00040999999999
 30
0.0
 11
-483.38702899999998
 21
-265.00040999999999
 31
0.0
  0
LINE
  5
155
  8
SIZE
  6
CONTINUOUS
 62
    30
 10
-67.154289999999932
 20
-194.78010499999999
 30
0.0
 11
-483.38702899999998
 21
-194.78010499999999
 31
0.0
  0
LINE
  5
156
  8
SIZE
  6
CONTINUOUS
 62
    30
 10
-463.38702899999993
 20
-182.78010499999999
 30
0.0
 11
-463.38702899999993
 21
-170.78010499999999
 31
0.0
  0
LINE
  5
157
  8
SIZE
  6
CONTINUOUS
 62
    30
 10
-463.38702899999993
 20
-277.00040999999999
 30
0.0
 11
-463.38702899999993
 21
-432.25755299999992
 31
0.0
  0
LINE
  5
158
  8
SIZE
  6
CONTINUOUS
 62
    30
 10
-463.38702899999993
 20
-194.78010499999999
 30
0.0
 11
-463.38702899999993
 21
-265.00040999999999
 31
0.0
  0
CIRCLE
  5
159
  8
SIZE
  6
CONTINUOUS
 62
    30
 10
-463.38702899999993
 20
-194.78010499999999
 30
0.0
 40
6.0
  0
LINE
  5
15A
  8
SIZE
  6
CONTINUOUS
 62
    30
 10
-463.38702899999993
 20
-194.78010499999999
 30
0.0
 11
-463.38702899999993
 21
-182.78010499999999
 31
0.0
  0
CIRCLE
  5
15B
  8
SIZE
  6
CONTINUOUS
 62
    30
 10
-463.38702899999993
 20
-265.00040999999999
 30
0.0
 40
6.0
  0
LINE
  5
15C
  8
SIZE
  6
CONTINUOUS
 62
    30
 10
-463.38702899999993
 20
-265.00040999999999
 30
0.0
 11
-463.38702899999993
 21
-277.00040999999999
 31
0.0
  0
TEXT
  5
15D
  8
SIZE
  6
CONTINUOUS
 62
    30
 10
-488.38702899999993
 20
-407.25755242857139
 30
0.0
 40
64.0
  1
70
 50
90.0
 41
0.9
 72
     1
 11
-488.38702899999993
 21
-360.62898100000012
 31
0.0
  0
POINT
  5
15E
  8
DEFPOINTS
  6
CONTINUOUS
 62
    30
 10
-47.154289999999953
 20
-265.00040999999999
 30
0.0
  0
POINT
  5
15F
  8
DEFPOINTS
  6
CONTINUOUS
 62
    30
 10
-47.154289999999953
 20
-194.78010499999999
 30
0.0
  0
POINT
  5
160
  8
DEFPOINTS
  6
CONTINUOUS
 62
    30
 10
-463.38702899999993
 20
-194.78010499999999
 30
0.0
  0
LINE
  5
161
  8
SIZE
  6
CONTINUOUS
 62
    30
 10
268.93972600000012
 20
0.0
 30
0.0
 11
807.80224699999962
 21
0.0
 31
0.0
  0
LINE
  5
162
  8
SIZE
  6
CONTINUOUS
 62
    30
 10
67.789939000000004
 20
-265.00040999999999
 30
0.0
 11
807.80224699999962
 21
-265.00040999999999
 31
0.0
  0
LINE
  5
163
  8
SIZE
  6
CONTINUOUS
 62
    30
 10
787.80224699999974
 20
-12.0
 30
0.0
 11
787.80224699999974
 21
-253.00040999999999
 31
0.0
  0
CIRCLE
  5
164
  8
SIZE
  6
CONTINUOUS
 62
    30
 10
787.80224699999974
 20
0.0
 30
0.0
 40
6.0
  0
LINE
  5
165
  8
SIZE
  6
CONTINUOUS
 62
    30
 10
787.80224699999974
 20
0.0
 30
0.0
 11
787.80224699999974
 21
-12.0
 31
0.0
  0
CIRCLE
  5
166
  8
SIZE
  6
CONTINUOUS
 62
    30
 10
787.80224699999974
 20
-265.00040999999999
 30
0.0
 40
6.0
  0
LINE
  5
167
  8
SIZE
  6
CONTINUOUS
 62
    30
 10
787.80224699999974
 20
-265.00040999999999
 30
0.0
 11
787.80224699999974
 21
-253.00040999999999
 31
0.0
  0
TEXT
  5
168
  8
SIZE
  6
CONTINUOUS
 62
    30
 10
762.80224699999974
 20
-206.55734785714299
 30
0.0
 40
64.0
  1
265
 50
90.0
 41
0.9
 72
     1
 11
762.80224699999974
 21
-132.50020500000011
 31
0.0
  0
POINT
  5
169
  8
DEFPOINTS
  6
CONTINUOUS
 62
    30
 10
248.93972600000001
 20
0.0
 30
0.0
  0
POINT
  5
16A
  8
DEFPOINTS
  6
CONTINUOUS
 62
    30
 10
47.789938999999983
 20
-265.00040999999999
 30
0.0
  0
POINT
  5
16B
  8
DEFPOINTS
  6
CONTINUOUS
 62
    30
 10
787.80224699999974
 20
-265.00040999999999
 30
0.0
  0
LINE
  5
16C
  8
SIZE
  6
CONTINUOUS
 62
    30
 10
268.93972600000012
 20
0.0
 30
0.0
 11
807.80224699999962
 21
0.0
 31
0.0
  0
LINE
  5
16D
  8
SIZE
  6
CONTINUOUS
 62
    30
 10
66.985517000000073
 20
234.95704499999999
 30
0.0
 11
807.80224699999962
 21
234.95704499999999
 31
0.0
  0
LINE
  5
16E
  8
SIZE
  6
CONTINUOUS
 62
    30
 10
787.80224699999974
 20
12.0
 30
0.0
 11
787.80224699999974
 21
222.95704499999999
 31
0.0
  0
CIRCLE
  5
16F
  8
SIZE
  6
CONTINUOUS
 62
    30
 10
787.80224699999974
 20
0.0
 30
0.0
 40
6.0
  0
LINE
  5
170
  8
SIZE
  6
CONTINUOUS
 62
    30
 10
787.80224699999974
 20
0.0
 30
0.0
 11
787.80224699999974
 21
12.0
 31
0.0
  0
CIRCLE
  5
171
  8
SIZE
  6
CONTINUOUS
 62
    30
 10
787.80224699999974
 20
234.95704499999999
 30
0.0
 40
6.0
  0
LINE
  5
172
  8
SIZE
  6
CONTINUOUS
 62
    30
 10
787.80224699999974
 20
234.95704499999999
 30
0.0
 11
787.80224699999974
 21
222.95704499999999
 31
0.0
  0
TEXT
  5
173
  8
SIZE
  6
CONTINUOUS
 62
    30
 10
762.80224699999974
 20
43.421380142857153
 30
0.0
 40
64.0
  1
235
 50
90.0
 41
0.9
 72
     1
 11
762.80224699999974
 21
117.478523
 31
0.0
  0
POINT
  5
174
  8
DEFPOINTS
  6
CONTINUOUS
 62
    30
 10
248.93972600000001
 20
0.0
 30
0.0
  0
POINT
  5
175
  8
DEFPOINTS
  6
CONTINUOUS
 62
    30
 10
46.985517000000058
 20
234.95704499999999
 30
0.0
  0
POINT
  5
176
  8
DEFPOINTS
  6
CONTINUOUS
 62
    30
 10
787.80224699999974
 20
234.95704499999999
 30
0.0
  0
LINE
  5
177
  8
SIZE
  6
CONTINUOUS
 62
    30
 10
-234.95704500000011
 20
67.119188000000008
 30
0.0
 11
-234.95704500000011
 21
872.301649
 31
0.0
  0
LINE
  5
178
  8
SIZE
  6
CONTINUOUS
 62
    30
 10
234.95704000000001
 20
67.533010999999973
 30
0.0
 11
234.95704000000001
 21
872.301649
 31
0.0
  0
LINE
  5
179
  8
SIZE
  6
CONTINUOUS
 62
    30
 10
-222.95704500000011
 20
852.30164899999988
 30
0.0
 11
222.95704000000001
 21
852.30164899999988
 31
0.0
  0
CIRCLE
  5
17A
  8
SIZE
  6
CONTINUOUS
 62
    30
 10
-234.95704500000011
 20
852.30164899999988
 30
0.0
 40
6.0
  0
LINE
  5
17B
  8
SIZE
  6
CONTINUOUS
 62
    30
 10
-234.95704500000011
 20
852.30164899999988
 30
0.0
 11
-222.95704500000011
 21
852.30164899999988
 31
0.0
  0
CIRCLE
  5
17C
  8
SIZE
  6
CONTINUOUS
 62
    30
 10
234.95704000000001
 20
852.30164899999988
 30
0.0
 40
6.0
  0
LINE
  5
17D
  8
SIZE
  6
CONTINUOUS
 62
    30
 10
234.95704000000001
 20
852.30164899999988
 30
0.0
 11
222.95704000000001
 21
852.30164899999988
 31
0.0
  0
TEXT
  5
17E
  8
SIZE
  6
CONTINUOUS
 62
    30
 10
-74.057145857142956
 20
877.30164899999988
 30
0.0
 40
64.0
  1
470
 41
0.9
 72
     1
 11
-0.0000030000001061
 21
877.30164899999988
 31
0.0
  0
POINT
  5
17F
  8
DEFPOINTS
  6
CONTINUOUS
 62
    30
 10
-234.95704500000011
 20
47.119188000000008
 30
0.0
  0
POINT
  5
180
  8
DEFPOINTS
  6
CONTINUOUS
 62
    30
 10
234.95704000000001
 20
47.533010999999981
 30
0.0
  0
POINT
  5
181
  8
DEFPOINTS
  6
CONTINUOUS
 62
    30
 10
234.95704000000001
 20
852.30164899999988
 30
0.0
  0
LINE
  5
182
  8
SIZE
  6
CONTINUOUS
 62
    30
 10
-65.60292800000002
 20
234.95704499999999
 30
0.0
 11
-483.38702899999998
 21
234.95704499999999
 31
0.0
  0
LINE
  5
183
  8
SIZE
  6
CONTINUOUS
 62
    30
 10
-65.60292800000002
 20
209.95704499999999
 30
0.0
 11
-483.38702899999998
 21
209.95704499999999
 31
0.0
  0
LINE
  5
184
  8
SIZE
  6
CONTINUOUS
 62
    30
 10
-463.38702899999993
 20
197.95704499999999
 30
0.0
 11
-463.38702899999993
 21
185.95704499999999
 31
0.0
  0
LINE
  5
185
  8
SIZE
  6
CONTINUOUS
 62
    30
 10
-463.38702899999993
 20
246.95704499999999
 30
0.0
 11
-463.38702899999993
 21
402.21418799999992
 31
0.0
  0
LINE
  5
186
  8
SIZE
  6
CONTINUOUS
 62
    30
 10
-463.38702899999993
 20
209.95704499999999
 30
0.0
 11
-463.38702899999993
 21
234.95704499999999
 31
0.0
  0
CIRCLE
  5
187
  8
SIZE
  6
CONTINUOUS
 62
    30
 10
-463.38702899999993
 20
209.95704499999999
 30
0.0
 40
6.0
  0
LINE
  5
188
  8
SIZE
  6
CONTINUOUS
 62
    30
 10
-463.38702899999993
 20
209.95704499999999
 30
0.0
 11
-463.38702899999993
 21
197.95704499999999
 31
0.0
  0
CIRCLE
  5
189
  8
SIZE
  6
CONTINUOUS
 62
    30
 10
-463.38702899999993
 20
234.95704499999999
 30
0.0
 40
6.0
  0
LINE
  5
18A
  8
SIZE
  6
CONTINUOUS
 62
    30
 10
-463.38702899999993
 20
234.95704499999999
 30
0.0
 11
-463.38702899999993
 21
246.95704499999999
 31
0.0
  0
TEXT
  5
18B
  8
SIZE
  6
CONTINUOUS
 62
    30
 10
-488.38702899999993
 20
283.95704457142858
 30
0.0
 40
64.0
  1
25
 50
90.0
 41
0.9
 72
     1
 11
-488.38702899999993
 21
330.58561600000007
 31
0.0
  0
POINT
  5
18C
  8
DEFPOINTS
  6
CONTINUOUS
 62
    30
 10
-45.602928000000013
 20
234.95704499999999
 30
0.0
  0
POINT
  5
18D
  8
DEFPOINTS
  6
CONTINUOUS
 62
    30
 10
-45.602928000000013
 20
209.95704499999999
 30
0.0
  0
POINT
  5
18E
  8
DEFPOINTS
  6
CONTINUOUS
 62
    30
 10
-463.38702899999993
 20
209.95704499999999
 30
0.0
  0
LINE
  5
18F
  8
SIZE
  6
CONTINUOUS
 62
    30
 10
-65.60292800000002
 20
234.95704499999999
 30
0.0
 11
-596.74385900000016
 21
234.95704499999999
 31
0.0
  0
LINE
  5
190
  8
SIZE
  6
CONTINUOUS
 62
    30
 10
-175.0
 20
155.0
 30
0.0
 11
-596.74385900000016
 21
155.0
 31
0.0
  0
LINE
  5
191
  8
SIZE
  6
CONTINUOUS
 62
    30
 10
-576.74385900000016
 20
167.0
 30
0.0
 11
-576.74385900000016
 21
222.95704499999999
 31
0.0
  0
LINE
  5
192
  8
SIZE
  6
CONTINUOUS
 62
    30
 10
-576.74385900000016
 20
234.95704499999999
 30
0.0
 11
-576.74385900000016
 21
390.21418799999992
 31
0.0
  0
CIRCLE
  5
193
  8
SIZE
  6
CONTINUOUS
 62
    30
 10
-576.74385900000016
 20
155.0
 30
0.0
 40
6.0
  0
LINE
  5
194
  8
SIZE
  6
CONTINUOUS
 62
    30
 10
-576.74385900000016
 20
155.0
 30
0.0
 11
-576.74385900000016
 21
167.0
 31
0.0
  0
CIRCLE
  5
195
  8
SIZE
  6
CONTINUOUS
 62
    30
 10
-576.74385900000016
 20
234.95704499999999
 30
0.0
 40
6.0
  0
LINE
  5
196
  8
SIZE
  6
CONTINUOUS
 62
    30
 10
-576.74385900000016
 20
234.95704499999999
 30
0.0
 11
-576.74385900000016
 21
222.95704499999999
 31
0.0
  0
TEXT
  5
197
  8
SIZE
  6
CONTINUOUS
 62
    30
 10
-601.74385900000016
 20
271.95704457142858
 30
0.0
 40
64.0
  1
80
 50
90.0
 41
0.9
 72
     1
 11
-601.74385900000016
 21
318.58561600000007
 31
0.0
  0
POINT
  5
198
  8
DEFPOINTS
  6
CONTINUOUS
 62
    30
 10
-45.602928000000013
 20
234.95704499999999
 30
0.0
  0
POINT
  5
199
  8
DEFPOINTS
  6
CONTINUOUS
 62
    30
 10
-155.0
 20
155.0
 30
0.0
  0
POINT
  5
19A
  8
DEFPOINTS
  6
CONTINUOUS
 62
    30
 10
-576.74385900000016
 20
155.0
 30
0.0
  0
LINE
  5
19B
  8
OUTLINE
  6
CONTINUOUS
 62
     3
 10
-149.0
 20
-184.5
 30
0.0
 11
-64.41270499999996
 21
-184.5
 31
0.0
  0
LINE
  5
19C
  8
OUTLINE
  6
CONTINUOUS
 62
     3
 10
149.0
 20
184.5
 30
0.0
 11
52.807940000000137
 21
184.5
 31
0.0
  0
LINE
  5
19D
  8
OUTLINE
  6
CONTINUOUS
 62
     3
 10
184.5
 20
149.0
 30
0.0
 11
184.5
 21
166.0
 31
0.0
  0
LINE
  5
19E
  8
OUTLINE
  6
CONTINUOUS
 62
     3
 10
-184.5
 20
-149.0
 30
0.0
 11
-184.5
 21
-166.0
 31
0.0
  0
LINE
  5
19F
  8
SIZE
  6
CONTINUOUS
 62
    30
 10
-133.0
 20
-133.0
 30
0.0
 11
-133.0
 21
536.15964699999995
 31
0.0
  0
LINE
  5
1A0
  8
SIZE
  6
CONTINUOUS
 62
    30
 10
133.0
 20
164.45807300000001
 30
0.0
 11
133.0
 21
536.15964699999995
 31
0.0
  0
LINE
  5
1A1
  8
SIZE
  6
CONTINUOUS
 62
    30
 10
-121.0
 20
516.15964699999995
 30
0.0
 11
121.0
 21
516.15964699999995
 31
0.0
  0
CIRCLE
  5
1A2
  8
SIZE
  6
CONTINUOUS
 62
    30
 10
-133.0
 20
516.15964699999995
 30
0.0
 40
6.0
  0
LINE
  5
1A3
  8
SIZE
  6
CONTINUOUS
 62
    30
 10
-133.0
 20
516.15964699999995
 30
0.0
 11
-121.0
 21
516.15964699999995
 31
0.0
  0
CIRCLE
  5
1A4
  8
SIZE
  6
CONTINUOUS
 62
    30
 10
133.0
 20
516.15964699999995
 30
0.0
 40
6.0
  0
LINE
  5
1A5
  8
SIZE
  6
CONTINUOUS
 62
    30
 10
133.0
 20
516.15964699999995
 30
0.0
 11
121.0
 21
516.15964699999995
 31
0.0
  0
TEXT
  5
1A6
  8
SIZE
  6
CONTINUOUS
 62
    30
 10
-72.685714285714283
 20
541.15964699999995
 30
0.0
 40
64.0
  1
266
 41
0.9
 72
     1
 11
0.0
 21
541.15964699999995
 31
0.0
  0
POINT
  5
1A7
  8
DEFPOINTS
  6
CONTINUOUS
 62
    30
 10
-133.0
 20
-196.65319
 30
0.0
  0
POINT
  5
1A8
  8
DEFPOINTS
  6
CONTINUOUS
 62
    30
 10
133.0
 20
144.45807300000001
 30
0.0
  0
POINT
  5
1A9
  8
DEFPOINTS
  6
CONTINUOUS
 62
    30
 10
133.0
 20
516.15964699999995
 30
0.0
  0
LINE
  5
1AA
  8
SIZE
  6
CONTINUOUS
 62
    30
 10
170.5
 20
178.87860499999999
 30
0.0
 11
170.5
 21
646.85348500000009
 31
0.0
  0
LINE
  5
1AB
  8
SIZE
  6
CONTINUOUS
 62
    30
 10
-170.5
 20
-89.046472999999963
 30
0.0
 11
-170.5
 21
646.85348500000009
 31
0.0
  0
LINE
  5
1AC
  8
SIZE
  6
CONTINUOUS
 62
    30
 10
158.5
 20
626.85348500000009
 30
0.0
 11
-158.5
 21
626.85348500000009
 31
0.0
  0
CIRCLE
  5
1AD
  8
SIZE
  6
CONTINUOUS
 62
    30
 10
170.5
 20
626.85348500000009
 30
0.0
 40
6.0
  0
LINE
  5
1AE
  8
SIZE
  6
CONTINUOUS
 62
    30
 10
170.5
 20
626.85348500000009
 30
0.0
 11
158.5
 21
626.85348500000009
 31
0.0
  0
CIRCLE
  5
1AF
  8
SIZE
  6
CONTINUOUS
 62
    30
 10
-170.5
 20
626.85348500000009
 30
0.0
 40
6.0
  0
LINE
  5
1B0
  8
SIZE
  6
CONTINUOUS
 62
    30
 10
-170.5
 20
626.85348500000009
 30
0.0
 11
-158.5
 21
626.85348500000009
 31
0.0
  0
TEXT
  5
1B1
  8
SIZE
  6
CONTINUOUS
 62
    30
 10
-61.714285714285701
 20
651.85348500000009
 30
0.0
 40
64.0
  1
341
 41
0.9
 72
     1
 11
0.0
 21
651.85348500000009
 31
0.0
  0
POINT
  5
1B2
  8
DEFPOINTS
  6
CONTINUOUS
 62
    30
 10
170.5
 20
158.87860499999999
 30
0.0
  0
POINT
  5
1B3
  8
DEFPOINTS
  6
CONTINUOUS
 62
    30
 10
-170.5
 20
-109.04647300000001
 30
0.0
  0
POINT
  5
1B4
  8
DEFPOINTS
  6
CONTINUOUS
 62
    30
 10
-170.5
 20
626.85348500000009
 30
0.0
  0
LINE
  5
1B5
  8
SIZE
  6
CONTINUOUS
 62
    30
 10
-49.024699999999932
 20
252.12673699999999
 30
0.0
 11
-49.024699999999932
 21
342.84030299999989
 31
0.0
  0
LINE
  5
1B6
  8
SIZE
  6
CONTINUOUS
 62
    30
 10
49.017233000000033
 20
252.9823309999999
 30
0.0
 11
49.017233000000033
 21
342.84030299999989
 31
0.0
  0
LINE
  5
1B7
  8
SIZE
  6
CONTINUOUS
 62
    30
 10
-37.024699999999939
 20
322.84030299999989
 30
0.0
 11
37.017233000000033
 21
322.84030299999989
 31
0.0
  0
LINE
  5
1B8
  8
SIZE
  6
CONTINUOUS
 62
    30
 10
49.017233000000033
 20
322.84030299999989
 30
0.0
 11
428.26978200000002
 21
322.84030299999989
 31
0.0
  0
CIRCLE
  5
1B9
  8
SIZE
  6
CONTINUOUS
 62
    30
 10
-49.024699999999932
 20
322.84030299999989
 30
0.0
 40
6.0
  0
LINE
  5
1BA
  8
SIZE
  6
CONTINUOUS
 62
    30
 10
-49.024699999999932
 20
322.84030299999989
 30
0.0
 11
-37.024699999999939
 21
322.84030299999989
 31
0.0
  0
CIRCLE
  5
1BB
  8
SIZE
  6
CONTINUOUS
 62
    30
 10
49.017233000000033
 20
322.84030299999989
 30
0.0
 40
6.0
  0
LINE
  5
1BC
  8
SIZE
  6
CONTINUOUS
 62
    30
 10
49.017233000000033
 20
322.84030299999989
 30
0.0
 11
37.017233000000033
 21
322.84030299999989
 31
0.0
  0
TEXT
  5
1BD
  8
SIZE
  6
CONTINUOUS
 62
    30
 10
240.8926395714285
 20
347.84030299999989
 30
0.0
 40
64.0
  1
âË98
 41
0.9
 72
     1
 11
327.84121099999987
 21
347.84030299999989
 31
0.0
  0
POINT
  5
1BE
  8
DEFPOINTS
  6
CONTINUOUS
 62
    30
 10
-49.024699999999932
 20
232.12673699999999
 30
0.0
  0
POINT
  5
1BF
  8
DEFPOINTS
  6
CONTINUOUS
 62
    30
 10
49.017233000000033
 20
232.9823309999999
 30
0.0
  0
POINT
  5
1C0
  8
DEFPOINTS
  6
CONTINUOUS
 62
    30
 10
49.017233000000033
 20
322.84030299999989
 30
0.0
  0
LINE
  5
1C1
  8
SIZE
  6
CONTINUOUS
 62
    30
 10
-52.529763999999894
 20
223.43148799999989
 30
0.0
 11
-52.529763999999894
 21
461.18430399999988
 31
0.0
  0
LINE
  5
1C2
  8
SIZE
  6
CONTINUOUS
 62
    30
 10
52.545494999999853
 20
222.36085
 30
0.0
 11
52.545494999999853
 21
461.18430399999988
 31
0.0
  0
LINE
  5
1C3
  8
SIZE
  6
CONTINUOUS
 62
    30
 10
-40.529763999999894
 20
441.18430399999988
 30
0.0
 11
40.545494999999853
 21
441.18430399999988
 31
0.0
  0
LINE
  5
1C4
  8
SIZE
  6
CONTINUOUS
 62
    30
 10
52.545494999999853
 20
441.18430399999988
 30
0.0
 11
461.42446299999989
 21
441.18430399999988
 31
0.0
  0
CIRCLE
  5
1C5
  8
SIZE
  6
CONTINUOUS
 62
    30
 10
-52.529763999999894
 20
441.18430399999988
 30
0.0
 40
6.0
  0
LINE
  5
1C6
  8
SIZE
  6
CONTINUOUS
 62
    30
 10
-52.529763999999894
 20
441.18430399999988
 30
0.0
 11
-40.529763999999894
 21
441.18430399999988
 31
0.0
  0
CIRCLE
  5
1C7
  8
SIZE
  6
CONTINUOUS
 62
    30
 10
52.545494999999853
 20
441.18430399999988
 30
0.0
 40
6.0
  0
LINE
  5
1C8
  8
SIZE
  6
CONTINUOUS
 62
    30
 10
52.545494999999853
 20
441.18430399999988
 30
0.0
 11
40.545494999999853
 21
441.18430399999988
 31
0.0
  0
TEXT
  5
1C9
  8
SIZE
  6
CONTINUOUS
 62
    30
 10
230.16160542857151
 20
466.18430399999988
 30
0.0
 40
64.0
  1
âË105
 41
0.9
 72
     1
 11
339.05303400000008
 21
466.18430399999988
 31
0.0
  0
POINT
  5
1CA
  8
DEFPOINTS
  6
CONTINUOUS
 62
    30
 10
-52.529763999999894
 20
203.43148799999989
 30
0.0
  0
POINT
  5
1CB
  8
DEFPOINTS
  6
CONTINUOUS
 62
    30
 10
52.545494999999853
 20
202.36085
 30
0.0
  0
POINT
  5
1CC
  8
DEFPOINTS
  6
CONTINUOUS
 62
    30
 10
52.545494999999853
 20
441.18430399999988
 30
0.0
  0
LINE
  5
1CD
  8
SIZE
  6
CONTINUOUS
 62
    30
 10
213.7782500000001
 20
133.0
 30
0.0
 11
536.0592089999999
 21
133.0
 31
0.0
  0
LINE
  5
1CE
  8
SIZE
  6
CONTINUOUS
 62
    30
 10
-129.3317649999999
 20
-133.0
 30
0.0
 11
536.0592089999999
 21
-133.0
 31
0.0
  0
LINE
  5
1CF
  8
SIZE
  6
CONTINUOUS
 62
    30
 10
516.05920900000001
 20
121.0
 30
0.0
 11
516.05920900000001
 21
-121.0
 31
0.0
  0
LINE
  5
1D0
  8
SIZE
  6
CONTINUOUS
 62
    30
 10
516.05920900000001
 20
-133.0
 30
0.0
 11
516.05920900000001
 21
-450.37568399999998
 31
0.0
  0
CIRCLE
  5
1D1
  8
SIZE
  6
CONTINUOUS
 62
    30
 10
516.05920900000001
 20
133.0
 30
0.0
 40
6.0
  0
LINE
  5
1D2
  8
SIZE
  6
CONTINUOUS
 62
    30
 10
516.05920900000001
 20
133.0
 30
0.0
 11
516.05920900000001
 21
121.0
 31
0.0
  0
CIRCLE
  5
1D3
  8
SIZE
  6
CONTINUOUS
 62
    30
 10
516.05920900000001
 20
-133.0
 30
0.0
 40
6.0
  0
LINE
  5
1D4
  8
SIZE
  6
CONTINUOUS
 62
    30
 10
516.05920900000001
 20
-133.0
 30
0.0
 11
516.05920900000001
 21
-121.0
 31
0.0
  0
TEXT
  5
1D5
  8
SIZE
  6
CONTINUOUS
 62
    30
 10
491.05920900000001
 20
-425.37568428571433
 30
0.0
 40
64.0
  1
266
 50
90.0
 41
0.9
 72
     1
 11
491.05920900000001
 21
-352.68997000000002
 31
0.0
  0
POINT
  5
1D6
  8
DEFPOINTS
  6
CONTINUOUS
 62
    30
 10
193.7782500000001
 20
133.0
 30
0.0
  0
POINT
  5
1D7
  8
DEFPOINTS
  6
CONTINUOUS
 62
    30
 10
-149.3317649999999
 20
-133.0
 30
0.0
  0
POINT
  5
1D8
  8
DEFPOINTS
  6
CONTINUOUS
 62
    30
 10
516.05920900000001
 20
-133.0
 30
0.0
  0
LINE
  5
1D9
  8
SIZE
  6
CONTINUOUS
 62
    30
 10
178.35107300000001
 20
170.5
 30
0.0
 11
663.14239499999985
 21
170.5
 31
0.0
  0
LINE
  5
1DA
  8
SIZE
  6
CONTINUOUS
 62
    30
 10
-87.648928000000083
 20
-170.5
 30
0.0
 11
663.14239499999985
 21
-170.5
 31
0.0
  0
LINE
  5
1DB
  8
SIZE
  6
CONTINUOUS
 62
    30
 10
643.14239499999985
 20
158.5
 30
0.0
 11
643.14239499999985
 21
-158.5
 31
0.0
  0
LINE
  5
1DC
  8
SIZE
  6
CONTINUOUS
 62
    30
 10
643.14239499999985
 20
-170.5
 30
0.0
 11
643.14239499999985
 21
-426.14703899999989
 31
0.0
  0
CIRCLE
  5
1DD
  8
SIZE
  6
CONTINUOUS
 62
    30
 10
643.14239499999985
 20
170.5
 30
0.0
 40
6.0
  0
LINE
  5
1DE
  8
SIZE
  6
CONTINUOUS
 62
    30
 10
643.14239499999985
 20
170.5
 30
0.0
 11
643.14239499999985
 21
158.5
 31
0.0
  0
CIRCLE
  5
1DF
  8
SIZE
  6
CONTINUOUS
 62
    30
 10
643.14239499999985
 20
-170.5
 30
0.0
 40
6.0
  0
LINE
  5
1E0
  8
SIZE
  6
CONTINUOUS
 62
    30
 10
643.14239499999985
 20
-170.5
 30
0.0
 11
643.14239499999985
 21
-158.5
 31
0.0
  0
TEXT
  5
1E1
  8
SIZE
  6
CONTINUOUS
 62
    30
 10
618.14239499999985
 20
-401.14703871428571
 30
0.0
 40
64.0
  1
341
 50
90.0
 41
0.9
 72
     1
 11
618.14239499999985
 21
-339.43275299999999
 31
0.0
  0
POINT
  5
1E2
  8
DEFPOINTS
  6
CONTINUOUS
 62
    30
 10
158.35107300000001
 20
170.5
 30
0.0
  0
POINT
  5
1E3
  8
DEFPOINTS
  6
CONTINUOUS
 62
    30
 10
-107.6489280000001
 20
-170.5
 30
0.0
  0
POINT
  5
1E4
  8
DEFPOINTS
  6
CONTINUOUS
 62
    30
 10
643.14239499999985
 20
-170.5
 30
0.0
  0
LINE
  5
1E5
  8
SIZE
  6
CONTINUOUS
 62
    30
 10
-175.0
 20
155.0
 30
0.0
 11
-596.74385900000016
 21
155.0
 31
0.0
  0
LINE
  5
1E6
  8
SIZE
  6
CONTINUOUS
 62
    30
 10
-129.0
 20
-155.0
 30
0.0
 11
-596.74385900000016
 21
-155.0
 31
0.0
  0
LINE
  5
1E7
  8
SIZE
  6
CONTINUOUS
 62
    30
 10
-576.74385900000016
 20
143.0
 30
0.0
 11
-576.74385900000016
 21
-143.0
 31
0.0
  0
CIRCLE
  5
1E8
  8
SIZE
  6
CONTINUOUS
 62
    30
 10
-576.74385900000016
 20
155.0
 30
0.0
 40
6.0
  0
LINE
  5
1E9
  8
SIZE
  6
CONTINUOUS
 62
    30
 10
-576.74385900000016
 20
155.0
 30
0.0
 11
-576.74385900000016
 21
143.0
 31
0.0
  0
CIRCLE
  5
1EA
  8
SIZE
  6
CONTINUOUS
 62
    30
 10
-576.74385900000016
 20
-155.0
 30
0.0
 40
6.0
  0
LINE
  5
1EB
  8
SIZE
  6
CONTINUOUS
 62
    30
 10
-576.74385900000016
 20
-155.0
 30
0.0
 11
-576.74385900000016
 21
-143.0
 31
0.0
  0
TEXT
  5
1EC
  8
SIZE
  6
CONTINUOUS
 62
    30
 10
-601.74385900000016
 20
-91.051428571428559
 30
0.0
 40
64.0
  1
üá310
 50
90.0
 41
0.9
 72
     1
 11
-601.74385900000016
 21
14.0
 31
0.0
  0
POINT
  5
1ED
  8
DEFPOINTS
  6
CONTINUOUS
 62
    30
 10
-155.0
 20
155.0
 30
0.0
  0
POINT
  5
1EE
  8
DEFPOINTS
  6
CONTINUOUS
 62
    30
 10
-109.0
 20
-155.0
 30
0.0
  0
POINT
  5
1EF
  8
DEFPOINTS
  6
CONTINUOUS
 62
    30
 10
-576.74385900000016
 20
-155.0
 30
0.0
  0
LINE
  5
1F0
  8
SIZE
  6
CONTINUOUS
 62
    30
 10
-67.154289999999932
 20
-265.00040999999999
 30
0.0
 11
-596.74385900000016
 21
-265.00040999999999
 31
0.0
  0
LINE
  5
1F1
  8
SIZE
  6
CONTINUOUS
 62
    30
 10
-129.0
 20
-155.0
 30
0.0
 11
-596.74385900000016
 21
-155.0
 31
0.0
  0
LINE
  5
1F2
  8
SIZE
  6
CONTINUOUS
 62
    30
 10
-576.74385900000016
 20
-167.0
 30
0.0
 11
-576.74385900000016
 21
-253.00040999999999
 31
0.0
  0
LINE
  5
1F3
  8
SIZE
  6
CONTINUOUS
 62
    30
 10
-576.74385900000016
 20
-265.00040999999999
 30
0.0
 11
-576.74385900000016
 21
-453.17183899999992
 31
0.0
  0
CIRCLE
  5
1F4
  8
SIZE
  6
CONTINUOUS
 62
    30
 10
-576.74385900000016
 20
-155.0
 30
0.0
 40
6.0
  0
LINE
  5
1F5
  8
SIZE
  6
CONTINUOUS
 62
    30
 10
-576.74385900000016
 20
-155.0
 30
0.0
 11
-576.74385900000016
 21
-167.0
 31
0.0
  0
CIRCLE
  5
1F6
  8
SIZE
  6
CONTINUOUS
 62
    30
 10
-576.74385900000016
 20
-265.00040999999999
 30
0.0
 40
6.0
  0
LINE
  5
1F7
  8
SIZE
  6
CONTINUOUS
 62
    30
 10
-576.74385900000016
 20
-265.00040999999999
 30
0.0
 11
-576.74385900000016
 21
-253.00040999999999
 31
0.0
  0
TEXT
  5
1F8
  8
SIZE
  6
CONTINUOUS
 62
    30
 10
-601.74385900000016
 20
-428.17183828571422
 30
0.0
 40
64.0
  1
110
 50
90.0
 41
0.9
 72
     1
 11
-601.74385900000016
 21
-365.08612399999993
 31
0.0
  0
POINT
  5
1F9
  8
DEFPOINTS
  6
CONTINUOUS
 62
    30
 10
-47.154289999999953
 20
-265.00040999999999
 30
0.0
  0
POINT
  5
1FA
  8
DEFPOINTS
  6
CONTINUOUS
 62
    30
 10
-109.0
 20
-155.0
 30
0.0
  0
POINT
  5
1FB
  8
DEFPOINTS
  6
CONTINUOUS
 62
    30
 10
-576.74385900000016
 20
-155.0
 30
0.0
  0
LINE
  5
1FC
  8
SIZE
  6
CONTINUOUS
 62
    30
 10
-446.00459799999999
 20
348.67111699999992
 30
0.0
 11
-23.973258999999871
 21
44.020944999999983
 31
0.0
  0
LINE
  5
1FD
  8
SIZE
  6
CONTINUOUS
 62
    30
 10
61.973258999999842
 20
-18.02094499999998
 30
0.0
 11
71.703054000000066
 21
-25.044554999999949
 31
0.0
  0
TEXT
  5
1FE
  8
SIZE
  6
CONTINUOUS
 62
    30
 10
-422.66622074166747
 20
362.6570857207775
 30
0.0
 40
64.0
  1
âË82
 50
324.17573969722258
 41
0.9
 72
     1
 11
-352.16692243790197
 21
311.76599600807782
 31
0.0
  0
LINE
  5
1FF
  8
SIZE
  6
CONTINUOUS
 62
    30
 10
52.243465000000008
 20
-10.997335000000019
 30
0.0
 11
-14.243465000000009
 21
36.997335000000021
 31
0.0
  0
CIRCLE
  5
200
  8
SIZE
  6
CONTINUOUS
 62
    30
 10
52.243465000000008
 20
-10.997335000000019
 30
0.0
 40
6.0
  0
LINE
  5
201
  8
SIZE
  6
CONTINUOUS
 62
    30
 10
52.243465000000008
 20
-10.997335000000019
 30
0.0
 11
61.9732595002788
 21
-18.020945110359431
 31
0.0
  0
CIRCLE
  5
202
  8
SIZE
  6
CONTINUOUS
 62
    30
 10
-14.243465000000009
 20
36.997335000000021
 30
0.0
 40
6.0
  0
LINE
  5
203
  8
SIZE
  6
CONTINUOUS
 62
    30
 10
-14.243465000000009
 20
36.997335000000021
 30
0.0
 11
-23.9732595002788
 21
44.020945110359428
 31
0.0
  0
POINT
  5
204
  8
DEFPOINTS
  6
CONTINUOUS
 62
    30
 10
-14.243465000000009
 20
36.997335000000021
 30
0.0
  0
POINT
  5
205
  8
DEFPOINTS
  6
CONTINUOUS
 62
    30
 10
52.243465000000008
 20
-10.997335000000019
 30
0.0
  0
TEXT
  5
206
  8
NOTE
  6
CONTINUOUS
 62
     4
 10
-47.400227000000093
 20
-355.50344000000001
 30
0.0
 40
64.0
  1
EA
 41
0.9
  0
TEXT
  5
207
  8
NOTE
  6
CONTINUOUS
 62
     4
 10
-47.400227000000093
 20
269.48722500000008
 30
0.0
 40
64.0
  1
RA1
 41
0.9
  0
TEXT
  5
208
  8
NOTE
  6
CONTINUOUS
 62
     4
 10
279.96481499999999
 20
-33.19792400000005
 30
0.0
 40
64.0
  1
RA2
 41
0.9
  0
TEXT
  5
209
  8
NOTE
  6
CONTINUOUS
 62
     4
 10
-400.74912399999988
 20
-33.19792400000005
 30
0.0
 40
64.0
  1
RA3
 41
0.9
  0
TEXT
  5
20A
  8
NOTE
  6
CONTINUOUS
 62
     4
 10
368.30204499999991
 20
-502.96638200000001
 30
0.0
 40
64.0
  1
EL
 41
0.9
  0
LINE
  5
20B
  8
NOTE
  6
CONTINUOUS
 62
     4
 39
50.0
 10
350.59918999999991
 20
-519.22358999999994
 30
0.0
 11
115.0
 21
-85.0
 31
0.0
  0
LINE
  5
20C
  8
NOTE
  6
CONTINUOUS
 62
     4
 39
50.0
 10
115.0
 20
-85.0
 30
0.0
 11
129.464381
 21
-100.50564
 31
0.0
  0
LINE
  5
20D
  8
NOTE
  6
CONTINUOUS
 62
     4
 39
50.0
 10
115.0
 20
-85.0
 30
0.0
 11
121.69533800000001
 21
-108.443951
 31
0.0
  0
CIRCLE
  5
20E
  8
FIX
  6
CONTINUOUS
 62
    11
 39
50.0
 10
133.0
 20
170.5
 30
0.0
 40
7.5
  0
CIRCLE
  5
20F
  8
FIX
  6
CONTINUOUS
 62
    11
 39
50.0
 10
170.5
 20
133.0
 30
0.0
 40
6.0
  0
CIRCLE
  5
210
  8
FIX
  6
CONTINUOUS
 62
    11
 39
50.0
 10
-133.0
 20
-170.5
 30
0.0
 40
7.5
  0
CIRCLE
  5
211
  8
FIX
  6
CONTINUOUS
 62
    11
 39
50.0
 10
-170.5
 20
-133.0
 30
0.0
 40
6.0
  0
LINE
  5
212
  8
SIZE
  6
CONTINUOUS
 62
    30
 10
176.0
 20
-85.0
 30
0.0
 11
406.46089000000001
 21
-85.0
 31
0.0
  0
LINE
  5
213
  8
SIZE
  6
CONTINUOUS
 62
    30
 10
268.93972600000012
 20
0.0
 30
0.0
 11
406.46089000000001
 21
0.0
 31
0.0
  0
LINE
  5
214
  8
SIZE
  6
CONTINUOUS
 62
    30
 10
386.46089000000012
 20
-12.0
 30
0.0
 11
386.46089000000012
 21
-73.0
 31
0.0
  0
LINE
  5
215
  8
SIZE
  6
CONTINUOUS
 62
    30
 10
386.46089000000012
 20
-85.0
 30
0.0
 11
386.46089000000012
 21
-413.95866899999987
 31
0.0
  0
CIRCLE
  5
216
  8
SIZE
  6
CONTINUOUS
 62
    30
 10
386.46089000000012
 20
0.0
 30
0.0
 40
6.0
  0
LINE
  5
217
  8
SIZE
  6
CONTINUOUS
 62
    30
 10
386.46089000000012
 20
0.0
 30
0.0
 11
386.46089000000012
 21
-12.0
 31
0.0
  0
CIRCLE
  5
218
  8
SIZE
  6
CONTINUOUS
 62
    30
 10
386.46089000000012
 20
-85.0
 30
0.0
 40
6.0
  0
LINE
  5
219
  8
SIZE
  6
CONTINUOUS
 62
    30
 10
386.46089000000012
 20
-85.0
 30
0.0
 11
386.46089000000012
 21
-73.0
 31
0.0
  0
TEXT
  5
21A
  8
SIZE
  6
CONTINUOUS
 62
    30
 10
361.46089000000012
 20
-388.95866842857151
 30
0.0
 40
64.0
  1
85
 50
90.0
 41
0.9
 72
     1
 11
361.46089000000012
 21
-342.33009700000002
 31
0.0
  0
POINT
  5
21B
  8
DEFPOINTS
  6
CONTINUOUS
 62
    30
 10
156.0
 20
-85.0
 30
0.0
  0
POINT
  5
21C
  8
DEFPOINTS
  6
CONTINUOUS
 62
    30
 10
248.93972600000001
 20
0.0
 30
0.0
  0
POINT
  5
21D
  8
DEFPOINTS
  6
CONTINUOUS
 62
    30
 10
386.46089000000012
 20
0.0
 30
0.0
  0
LINE
  5
21E
  8
SIZE
  6
CONTINUOUS
 62
    30
 10
0.0
 20
-300.42350599999997
 30
0.0
 11
0.0
 21
-511.93540100000001
 31
0.0
  0
LINE
  5
21F
  8
SIZE
  6
CONTINUOUS
 62
    30
 10
115.0
 20
-143.0
 30
0.0
 11
115.0
 21
-511.93540100000001
 31
0.0
  0
LINE
  5
220
  8
SIZE
  6
CONTINUOUS
 62
    30
 10
12.0
 20
-491.93540100000001
 30
0.0
 11
103.0
 21
-491.93540100000001
 31
0.0
  0
LINE
  5
221
  8
SIZE
  6
CONTINUOUS
 62
    30
 10
115.0
 20
-491.93540100000001
 30
0.0
 11
306.17142899999999
 21
-491.93540100000001
 31
0.0
  0
CIRCLE
  5
222
  8
SIZE
  6
CONTINUOUS
 62
    30
 10
0.0
 20
-491.93540100000001
 30
0.0
 40
6.0
  0
LINE
  5
223
  8
SIZE
  6
CONTINUOUS
 62
    30
 10
0.0
 20
-491.93540100000001
 30
0.0
 11
12.0
 21
-491.93540100000001
 31
0.0
  0
CIRCLE
  5
224
  8
SIZE
  6
CONTINUOUS
 62
    30
 10
115.0
 20
-491.93540100000001
 30
0.0
 40
6.0
  0
LINE
  5
225
  8
SIZE
  6
CONTINUOUS
 62
    30
 10
115.0
 20
-491.93540100000001
 30
0.0
 11
103.0
 21
-491.93540100000001
 31
0.0
  0
TEXT
  5
226
  8
SIZE
  6
CONTINUOUS
 62
    30
 10
154.99999971428579
 20
-466.93540100000001
 30
0.0
 40
64.0
  1
115
 41
0.9
 72
     1
 11
218.08571400000011
 21
-466.93540100000001
 31
0.0
  0
POINT
  5
227
  8
DEFPOINTS
  6
CONTINUOUS
 62
    30
 10
0.0
 20
-280.42350599999997
 30
0.0
  0
POINT
  5
228
  8
DEFPOINTS
  6
CONTINUOUS
 62
    30
 10
115.0
 20
-123.0
 30
0.0
  0
POINT
  5
229
  8
DEFPOINTS
  6
CONTINUOUS
 62
    30
 10
115.0
 20
-491.93540100000001
 30
0.0
  0
TEXT
  5
22A
  8
NOTE
  6
CONTINUOUS
 62
     4
 10
-492.99055499999992
 20
-531.91077900000005
 30
0.0
 40
64.0
  1
AH 4
 41
0.9
  0
LINE
  5
22B
  8
NOTE
  6
CONTINUOUS
 62
     4
 39
50.0
 10
-508.64937299999991
 20
-549.70802400000002
 30
0.0
 11
-254.98543500000011
 21
-549.70802400000002
 31
0.0
  0
LINE
  5
22C
  8
NOTE
  6
CONTINUOUS
 62
     4
 39
50.0
 10
-254.98543500000011
 20
-549.70802400000002
 30
0.0
 11
-133.0
 21
-170.5
 31
0.0
  0
LINE
  5
22D
  8
NOTE
  6
CONTINUOUS
 62
     4
 39
50.0
 10
-133.0
 20
-170.5
 30
0.0
 11
-155.2359779999999
 21
-200.34534500000001
 31
0.0
  0
LINE
  5
22E
  8
NOTE
  6
CONTINUOUS
 62
     4
 39
50.0
 10
-133.0
 20
-170.5
 30
0.0
 11
-137.1953060000001
 21
-207.48084299999999
 31
0.0
  0
LINE
  5
22F
  8
NOTE
  6
CONTINUOUS
 62
     4
 39
50.0
 10
350.59918999999991
 20
-519.22358999999994
 30
0.0
 11
466.83425899999992
 21
-519.22358999999994
 31
0.0
  0
CIRCLE
  5
230
  8
DETAIL
  6
CONTINUOUS
 62
     5
 10
115.0
 20
-85.0
 30
0.0
 40
9.5
  0
LINE
  5
231
  8
DETAIL
  6
CONTINUOUS
 62
     5
 10
109.0
 20
152.0
 30
0.0
 11
151.0
 21
152.0
 31
0.0
  0
LINE
  5
232
  8
DETAIL
  6
CONTINUOUS
 62
     5
 10
152.0
 20
109.0
 30
0.0
 11
152.0
 21
151.0
 31
0.0
  0
ARC
  5
233
  8
DETAIL
  6
CONTINUOUS
 62
     5
 10
151.0
 20
151.0
 30
0.0
 40
1.0
 50
0.0
 51
90.0
  0
LINE
  5
234
  8
DETAIL
  6
CONTINUOUS
 62
     5
 10
-152.0
 20
-109.0
 30
0.0
 11
-152.0
 21
-151.0
 31
0.0
  0
LINE
  5
235
  8
DETAIL
  6
CONTINUOUS
 62
     5
 10
-109.0
 20
-152.0
 30
0.0
 11
-151.0
 21
-152.0
 31
0.0
  0
ARC
  5
236
  8
DETAIL
  6
CONTINUOUS
 62
     5
 10
-151.0
 20
-151.0
 30
0.0
 40
1.0
 50
180.0
 51
270.0
  0
LINE
  5
237
  8
DETAIL
  6
CONTINUOUS
 62
     5
 39
50.0
 10
109.0
 20
155.0
 30
0.0
 11
-155.0
 21
155.0
 31
0.0
  0
LINE
  5
238
  8
DETAIL
  6
CONTINUOUS
 62
     5
 39
50.0
 10
155.0
 20
-155.0
 30
0.0
 11
-109.0
 21
-155.0
 31
0.0
  0
LINE
  5
239
  8
DETAIL
  6
CONTINUOUS
 62
     5
 39
50.0
 10
155.0
 20
-155.0
 30
0.0
 11
155.0
 21
109.0
 31
0.0
  0
LINE
  5
23A
  8
DETAIL
  6
CONTINUOUS
 62
     5
 39
50.0
 10
-155.0
 20
-109.0
 30
0.0
 11
-155.0
 21
155.0
 31
0.0
  0
CIRCLE
  5
23B
  8
DETAIL
  6
CONTINUOUS
 62
     5
 39
50.0
 10
19.0
 20
13.0
 30
0.0
 40
41.0
  0
LINE
  5
23C
  8
OUTLINE
  6
CONTINUOUS
 62
     3
 10
-52.807945000000018
 20
184.5
 30
0.0
 11
-166.0
 21
184.5
 31
0.0
  0
LINE
  5
23D
  8
OUTLINE
  6
CONTINUOUS
 62
     3
 10
52.807940000000137
 20
184.5
 30
0.0
 11
-52.807945000000018
 21
184.5
 31
0.0
  0
LINE
  5
23E
  8
OUTLINE
  6
CONTINUOUS
 62
     3
 10
184.5
 20
52.807945000000018
 30
0.0
 11
184.5
 21
149.0
 31
0.0
  0
LINE
  5
23F
  8
OUTLINE
  6
CONTINUOUS
 62
     3
 10
184.5
 20
-52.807940000000031
 30
0.0
 11
184.5
 21
52.807945000000018
 31
0.0
  0
LINE
  5
240
  8
OUTLINE
  6
CONTINUOUS
 62
     3
 10
-184.5
 20
52.807945000000018
 30
0.0
 11
-184.5
 21
-52.807940000000031
 31
0.0
  0
LINE
  5
241
  8
OUTLINE
  6
CONTINUOUS
 62
     3
 10
-184.5
 20
-52.807940000000031
 30
0.0
 11
-184.5
 21
-149.0
 31
0.0
  0
LINE
  5
242
  8
OUTLINE
  6
CONTINUOUS
 62
     3
 10
64.41270499999996
 20
-184.5
 30
0.0
 11
166.0
 21
-184.5
 31
0.0
  0
LINE
  5
243
  8
OUTLINE
  6
CONTINUOUS
 62
     3
 10
-64.41270499999996
 20
-184.5
 30
0.0
 11
64.41270499999996
 21
-184.5
 31
0.0
  0
LINE
  5
244
  8
SIZE
  6
CONTINUOUS
 62
    30
 10
-184.5
 20
186.0
 30
0.0
 11
-184.5
 21
755.48286800000005
 31
0.0
  0
LINE
  5
245
  8
SIZE
  6
CONTINUOUS
 62
    30
 10
184.5
 20
186.0
 30
0.0
 11
184.5
 21
755.48286800000005
 31
0.0
  0
LINE
  5
246
  8
SIZE
  6
CONTINUOUS
 62
    30
 10
-172.5
 20
735.48286800000005
 30
0.0
 11
172.5
 21
735.48286800000005
 31
0.0
  0
CIRCLE
  5
247
  8
SIZE
  6
CONTINUOUS
 62
    30
 10
-184.5
 20
735.48286800000005
 30
0.0
 40
6.0
  0
LINE
  5
248
  8
SIZE
  6
CONTINUOUS
 62
    30
 10
-184.5
 20
735.48286800000005
 30
0.0
 11
-172.5
 21
735.48286800000005
 31
0.0
  0
CIRCLE
  5
249
  8
SIZE
  6
CONTINUOUS
 62
    30
 10
184.5
 20
735.48286800000005
 30
0.0
 40
6.0
  0
LINE
  5
24A
  8
SIZE
  6
CONTINUOUS
 62
    30
 10
184.5
 20
735.48286800000005
 30
0.0
 11
172.5
 21
735.48286800000005
 31
0.0
  0
TEXT
  5
24B
  8
SIZE
  6
CONTINUOUS
 62
    30
 10
-109.1657142857143
 20
760.48286800000005
 30
0.0
 40
64.0
  1
üá369
 41
0.9
 72
     1
 11
0.0
 21
760.48286800000005
 31
0.0
  0
POINT
  5
24C
  8
DEFPOINTS
  6
CONTINUOUS
 62
    30
 10
-184.5
 20
166.0
 30
0.0
  0
POINT
  5
24D
  8
DEFPOINTS
  6
CONTINUOUS
 62
    30
 10
184.5
 20
166.0
 30
0.0
  0
POINT
  5
24E
  8
DEFPOINTS
  6
CONTINUOUS
 62
    30
 10
184.5
 20
735.48286800000005
 30
0.0
  0
LINE
  5
24F
  8
DETAIL
  6
CONTINUOUS
 62
     5
 39
50.0
 10
-63.618709060044537
 20
-184.5
 30
0.0
 11
-63.618709060044552
 21
-155.0
 31
0.0
  0
LINE
  5
250
  8
DETAIL
  6
CONTINUOUS
 62
     5
 39
50.0
 10
64.41270499999996
 20
-184.5
 30
0.0
 11
64.41270499999996
 21
-155.0
 31
0.0
  0
ENDSEC
  0
EOF
