  0
SECTION
  2
HEADER
  9
$ACADVER
  1
AC1009
  9
$INSBASE
 10
0.0
 20
0.0
 30
0.0
  9
$EXTMIN
 10
-892.72070399999984
 20
-654.75402299999996
 30
0.0
  9
$EXTMAX
 10
1502.571331912736
 20
669.11911242857138
 30
0.0
  9
$LIMMIN
 10
-2970.0
 20
-2100.0
  9
$LIMMAX
 10
2970.0
 20
2100.0
  9
$ORTHOMODE
 70
     1
  9
$REGENMODE
 70
     1
  9
$FILLMODE
 70
     1
  9
$QTEXTMODE
 70
     0
  9
$MIRRTEXT
 70
     0
  9
$DRAGMODE
 70
     2
  9
$LTSCALE
 40
20.0
  9
$OSMODE
 70
   166
  9
$ATTMODE
 70
     1
  9
$TEXTSIZE
 40
64.0
  9
$TRACEWID
 40
0.05
  9
$TEXTSTYLE
  7
STANDARD
  9
$CLAYER
  8
BASIS
  9
$CELTYPE
  6
DASHDOT
  9
$CECOLOR
 62
     6
  9
$DIMSCALE
 40
1.0
  9
$DIMASZ
 40
2.0
  9
$DIMEXO
 40
20.0
  9
$DIMDLI
 40
200.0
  9
$DIMRND
 40
0.0
  9
$DIMDLE
 40
0.0
  9
$DIMEXE
 40
30.0
  9
$DIMTP
 40
0.0
  9
$DIMTM
 40
0.0
  9
$DIMTXT
 40
64.0
  9
$DIMCEN
 40
0.09
  9
$DIMTSZ
 40
0.0
  9
$DIMTOL
 70
     0
  9
$DIMLIM
 70
     0
  9
$DIMTIH
 70
     0
  9
$DIMTOH
 70
     0
  9
$DIMSE1
 70
     0
  9
$DIMSE2
 70
     0
  9
$DIMTAD
 70
     1
  9
$DIMZIN
 70
     8
  9
$DIMBLK
  1
DOT1
  9
$DIMASO
 70
     1
  9
$DIMSHO
 70
     0
  9
$DIMPOST
  1

  9
$DIMAPOST
  1

  9
$DIMALT
 70
     0
  9
$DIMALTD
 70
     2
  9
$DIMALTF
 40
25.399999999999999
  9
$DIMLFAC
 40
1.0
  9
$DIMTOFL
 70
     1
  9
$DIMTVP
 40
0.0
  9
$DIMTIX
 70
     1
  9
$DIMSOXD
 70
     0
  9
$DIMSAH
 70
     0
  9
$DIMBLK1
  1

  9
$DIMBLK2
  1

  9
$DIMSTYLE
  2
STANDARD
  9
$DIMCLRD
 70
     7
  9
$DIMCLRE
 70
     7
  9
$DIMCLRT
 70
     7
  9
$DIMTFAC
 40
1.0
  9
$DIMGAP
 40
0.09
  9
$LUNITS
 70
     2
  9
$LUPREC
 70
     4
  9
$SKETCHINC
 40
0.1
  9
$FILLETRAD
 40
5.0
  9
$AUNITS
 70
     1
  9
$AUPREC
 70
     3
  9
$MENU
  1
ACAD
  9
$ELEVATION
 40
0.0
  9
$PELEVATION
 40
0.0
  9
$THICKNESS
 40
0.0
  9
$LIMCHECK
 70
     0
  9
$BLIPMODE
 70
     0
  9
$CHAMFERA
 40
0.0
  9
$CHAMFERB
 40
0.0
  9
$SKPOLY
 70
     0
  9
$TDCREATE
 40
2450990.3840046292
  9
$TDUPDATE
 40
2454203.7696874999
  9
$TDINDWG
 40
0.0463269907
  9
$TDUSRTIMER
 40
0.0463264468
  9
$USRTIMER
 70
     1
  9
$ANGBASE
 50
0.0
  9
$ANGDIR
 70
     0
  9
$PDMODE
 70
     3
  9
$PDSIZE
 40
-2.0
  9
$PLINEWID
 40
0.0
  9
$COORDS
 70
     2
  9
$SPLFRAME
 70
     0
  9
$SPLINETYPE
 70
     6
  9
$SPLINESEGS
 70
     8
  9
$ATTDIA
 70
     0
  9
$ATTREQ
 70
     1
  9
$HANDLING
 70
 22529
  9
$HANDSEED
  5
53A
  9
$SURFTAB1
 70
     6
  9
$SURFTAB2
 70
     6
  9
$SURFTYPE
 70
     6
  9
$SURFU
 70
     6
  9
$SURFV
 70
     6
  9
$UCSNAME
  2

  9
$UCSORG
 10
0.0
 20
0.0
 30
0.0
  9
$UCSXDIR
 10
1.0
 20
0.0
 30
0.0
  9
$UCSYDIR
 10
0.0
 20
1.0
 30
0.0
  9
$PUCSNAME
  2

  9
$PUCSORG
 10
0.0
 20
0.0
 30
0.0
  9
$PUCSXDIR
 10
1.0
 20
0.0
 30
0.0
  9
$PUCSYDIR
 10
0.0
 20
1.0
 30
0.0
  9
$USERI1
 70
     0
  9
$USERI2
 70
     0
  9
$USERI3
 70
     0
  9
$USERI4
 70
     0
  9
$USERI5
 70
     0
  9
$USERR1
 40
20.0
  9
$USERR2
 40
0.0
  9
$USERR3
 40
0.0
  9
$USERR4
 40
0.0
  9
$USERR5
 40
0.0
  9
$WORLDVIEW
 70
     1
  9
$SHADEDGE
 70
     3
  9
$SHADEDIF
 70
    70
  9
$TILEMODE
 70
     1
  9
$MAXACTVP
 70
    48
  9
$PLIMCHECK
 70
     0
  9
$PEXTMIN
 10
-1.0000000000000000E+020
 20
-1.0000000000000000E+020
 30
-1.0000000000000000E+020
  9
$PEXTMAX
 10
1.0000000000000000E+020
 20
1.0000000000000000E+020
 30
1.0000000000000000E+020
  9
$PLIMMIN
 10
0.0
 20
0.0
  9
$PLIMMAX
 10
12.0
 20
9.0
  9
$UNITMODE
 70
     0
  9
$VISRETAIN
 70
     0
  9
$PLINEGEN
 70
     0
  9
$PSLTSCALE
 70
     0
  0
ENDSEC
  0
SECTION
  2
TABLES
  0
TABLE
  2
VPORT
 70
     3
  0
VPORT
  2
*ACTIVE
 70
     0
 10
0.0
 20
0.0
 11
1.0
 21
1.0
 12
304.46178917258038
 22
3.2835833430053749
 13
0.0
 23
0.0
 14
50.0
 24
50.0
 15
400.0
 25
400.0
 16
0.0
 26
0.0
 36
1.0
 17
0.0
 27
0.0
 37
0.0
 40
1467.262869982904
 41
1.672794117647058
 42
50.0
 43
0.0
 44
0.0
 50
0.0
 51
0.0
 71
     0
 72
  1000
 73
     1
 74
     0
 75
     0
 76
     0
 77
     0
 78
     0
  0
ENDTAB
  0
TABLE
  2
LTYPE
 70
     2
  0
LTYPE
  2
CONTINUOUS
 70
     0
  3
実線
 72
    65
 73
     0
 40
0.0
  0
LTYPE
  2
DASHDOT
 70
     0
  3
____ _ ____ _ ____ _ ____ _ ____ _ ____ _ ____
 72
    65
 73
     4
 40
5.5
 49
4.0
 49
-0.6
 49
0.3
 49
-0.6
  0
ENDTAB
  0
TABLE
  2
LAYER
 70
    12
  0
LAYER
  2
0
 70
     0
 62
     7
  6
CONTINUOUS
  0
LAYER
  2
BASIS
 70
     0
 62
     6
  6
DASHDOT
  0
LAYER
  2
OUTLINE
 70
     0
 62
     3
  6
CONTINUOUS
  0
LAYER
  2
DETAIL
 70
     0
 62
     5
  6
CONTINUOUS
  0
LAYER
  2
SIZE
 70
     0
 62
    30
  6
CONTINUOUS
  0
LAYER
  2
NOTE
 70
     0
 62
     4
  6
CONTINUOUS
  0
LAYER
  2
DEFPOINTS
 70
     0
 62
     7
  6
CONTINUOUS
  0
LAYER
  2
FIX
 70
     0
 62
    11
  6
CONTINUOUS
  0
LAYER
  2
ARRANGE
 70
     0
 62
     1
  6
CONTINUOUS
  0
LAYER
  2
ETC
 70
     0
 62
    61
  6
CONTINUOUS
  0
LAYER
  2
SERVICESPACE
 70
     0
 62
     2
  6
DASHDOT
  0
LAYER
  2
SYMBOLLINE
 70
     0
 62
    15
  6
CONTINUOUS
  0
ENDTAB
  0
TABLE
  2
STYLE
 70
     1
  0
STYLE
  2
STANDARD
 70
     0
 40
0.0
 41
0.9
 50
0.0
 71
     0
 42
64.0
  3
SIMPLEX
  4
BIGFONT
  0
ENDTAB
  0
TABLE
  2
VIEW
 70
     1
  0
VIEW
  2
ALL
 70
     0
 40
4282.6198079999967
 10
0.0
 20
41.309903999999989
 41
5940.0
 11
0.0
 21
0.0
 31
1.0
 12
0.0
 22
0.0
 32
0.0
 42
50.0
 43
0.0
 44
0.0
 50
0.0
 71
     0
  0
ENDTAB
  0
TABLE
  2
UCS
 70
     0
  0
ENDTAB
  0
TABLE
  2
APPID
 70
     1
  0
APPID
  2
ACAD
 70
     0
  0
ENDTAB
  0
TABLE
  2
DIMSTYLE
 70
     1
  0
DIMSTYLE
  2
STANDARD
 70
     0
  3

  4

  5

  6

  7

 40
1.0
 41
0.18
 42
0.0625
 43
0.38
 44
0.18
 45
0.0
 46
0.0
 47
0.0
 48
0.0
140
0.18
141
0.09
142
0.0
143
25.399999999999999
144
1.0
145
0.0
146
1.0
147
0.09
 71
     0
 72
     0
 73
     1
 74
     1
 75
     0
 76
     0
 77
     0
 78
     0
170
     0
171
     2
172
     0
173
     0
174
     0
175
     0
176
     7
177
     7
178
     7
  0
ENDTAB
  0
ENDSEC
  0
SECTION
  2
BLOCKS
  0
BLOCK
  8
0
  2
$MODEL_SPACE
 70
     0
 10
0.0
 20
0.0
 30
0.0
  3
$MODEL_SPACE
  1

  0
ENDBLK
  5
42C
  8
0
  0
BLOCK
 67
     1
  8
0
  2
$PAPER_SPACE
 70
     0
 10
0.0
 20
0.0
 30
0.0
  3
$PAPER_SPACE
  1

  0
ENDBLK
  5
428
 67
     1
  8
0
  0
BLOCK
  8
OUTLINE
  2
DOT1
 70
     0
 10
0.0
 20
0.0
 30
0.0
  3
DOT1
  1

  0
CIRCLE
  5
447
  8
SIZE
  6
CONTINUOUS
 62
     7
 10
0.0
 20
0.0
 30
0.0
 40
3.0
  0
ENDBLK
  5
448
  8
OUTLINE
  0
ENDSEC
  0
SECTION
  2
ENTITIES
  0
POINT
  5
449
  8
ARRANGE
  6
CONTINUOUS
 62
     1
 10
0.0
 20
0.0
 30
0.0
  0
CIRCLE
  5
44A
  8
ARRANGE
  6
CONTINUOUS
 62
     1
 10
0.0
 20
0.0
 30
0.0
 40
40.0
  0
LINE
  5
44B
  8
DETAIL
  6
CONTINUOUS
 62
     5
 10
155.0
 20
-8.0
 30
0.0
 11
155.0
 21
0.0
 31
0.0
  0
LINE
  5
44C
  8
DETAIL
  6
CONTINUOUS
 62
     5
 10
-155.0
 20
-8.0
 30
0.0
 11
-155.0
 21
0.0
 31
0.0
  0
LINE
  5
44D
  8
DETAIL
  6
CONTINUOUS
 62
     5
 10
-155.0
 20
0.0
 30
0.0
 11
155.0
 21
0.0
 31
0.0
  0
LINE
  5
44E
  8
NOTE
  6
CONTINUOUS
 62
     4
 10
-145.0
 20
-20.0
 30
0.0
 11
-145.0
 21
20.0
 31
0.0
  0
LINE
  5
44F
  8
NOTE
  6
CONTINUOUS
 62
     4
 10
-165.0
 20
0.0
 30
0.0
 11
-125.0
 21
0.0
 31
0.0
  0
LINE
  5
450
  8
NOTE
  6
CONTINUOUS
 62
     4
 10
75.0
 20
-20.0
 30
0.0
 11
75.0
 21
20.0
 31
0.0
  0
LINE
  5
451
  8
NOTE
  6
CONTINUOUS
 62
     4
 10
55.0
 20
0.0
 30
0.0
 11
95.0
 21
0.0
 31
0.0
  0
LINE
  5
452
  8
NOTE
  6
CONTINUOUS
 62
     4
 10
-75.0
 20
-20.0
 30
0.0
 11
-75.0
 21
20.0
 31
0.0
  0
LINE
  5
453
  8
NOTE
  6
CONTINUOUS
 62
     4
 10
-95.0
 20
0.0
 30
0.0
 11
-55.0
 21
0.0
 31
0.0
  0
LINE
  5
454
  8
NOTE
  6
CONTINUOUS
 62
     4
 10
-110.4999999999999
 20
-20.0
 30
0.0
 11
-110.4999999999999
 21
20.0
 31
0.0
  0
LINE
  5
455
  8
NOTE
  6
CONTINUOUS
 62
     4
 10
-130.4999999999996
 20
0.0
 30
0.0
 11
-90.5
 21
0.0
 31
0.0
  0
LINE
  5
456
  8
NOTE
  6
CONTINUOUS
 62
     4
 10
145.0
 20
0.0
 30
0.0
 11
292.607843
 21
-309.51577900000001
 31
0.0
  0
LINE
  5
457
  8
NOTE
  6
CONTINUOUS
 62
     4
 10
292.607843
 20
-309.51577900000001
 30
0.0
 11
819.91515299999958
 21
-309.51577900000001
 31
0.0
  0
TEXT
  5
458
  8
NOTE
  6
CONTINUOUS
 62
     4
 10
318.043587
 20
-276.05052000000001
 30
0.0
 40
64.0
  1
12×φ5取付穴
 41
0.9
  0
LINE
  5
459
  8
NOTE
  6
CONTINUOUS
 62
     4
 10
153.08186499999999
 20
-39.175035999999992
 30
0.0
 11
145.0
 21
0.0
 31
0.0
  0
LINE
  5
45A
  8
NOTE
  6
CONTINUOUS
 62
     4
 10
145.0
 20
0.0
 30
0.0
 11
171.58661899999981
 21
-29.885643999999989
 31
0.0
  0
LINE
  5
45B
  8
NOTE
  6
CONTINUOUS
 62
     4
 10
90.0
 20
-20.0
 30
0.0
 11
90.0
 21
20.0
 31
0.0
  0
LINE
  5
45C
  8
NOTE
  6
CONTINUOUS
 62
     4
 10
70.0
 20
0.0
 30
0.0
 11
110.0
 21
0.0
 31
0.0
  0
LINE
  5
45D
  8
NOTE
  6
CONTINUOUS
 62
     4
 10
90.0
 20
0.0
 30
0.0
 11
254.36646400000001
 21
-437.27771899999988
 31
0.0
  0
LINE
  5
45E
  8
NOTE
  6
CONTINUOUS
 62
     4
 10
371.14376099999993
 20
-437.27771899999988
 30
0.0
 11
254.36646400000001
 21
-437.27771899999988
 31
0.0
  0
LINE
  5
45F
  8
NOTE
  6
CONTINUOUS
 62
     4
 10
113.615983
 20
-32.284444000000001
 30
0.0
 11
90.0
 21
0.0
 31
0.0
  0
LINE
  5
460
  8
NOTE
  6
CONTINUOUS
 62
     4
 10
90.0
 20
0.0
 30
0.0
 11
94.309819000000005
 21
-39.767140999999981
 31
0.0
  0
TEXT
  5
461
  8
NOTE
  6
CONTINUOUS
 62
     4
 10
275.68241999999998
 20
-417.95371199999988
 30
0.0
 40
64.0
  1
EL
 41
0.9
  0
ARC
  5
462
  8
DETAIL
  6
CONTINUOUS
 62
     5
 10
-150.0
 20
-8.0
 30
0.0
 40
5.0
 50
180.0
 51
249.12243499999991
  0
ARC
  5
463
  8
DETAIL
  6
CONTINUOUS
 62
     5
 10
150.0
 20
-8.0
 30
0.0
 40
5.0
 50
290.877567
 51
0.0
  0
ARC
  5
464
  8
DETAIL
  6
CONTINUOUS
 62
     5
 10
0.000097
 20
2146.5027420000001
 30
0.0
 40
2164.5027420000001
 50
265.97893399999992
 51
269.99999699999989
  0
ARC
  5
465
  8
DETAIL
  6
CONTINUOUS
 62
     5
 10
-0.000097
 20
2146.5027420000001
 30
0.0
 40
2164.5027420000001
 50
270.00000299999982
 51
274.02106600000002
  0
LINE
  5
466
  8
DETAIL
  6
CONTINUOUS
 62
     5
 10
-135.0
 20
0.0
 30
0.0
 11
-133.4999999999996
 21
100.0
 31
0.0
  0
LINE
  5
467
  8
DETAIL
  6
CONTINUOUS
 62
     5
 10
-133.4999999999996
 20
100.0
 30
0.0
 11
133.4999999999996
 21
100.0
 31
0.0
  0
LINE
  5
468
  8
DETAIL
  6
CONTINUOUS
 62
     5
 10
133.4999999999996
 20
100.0
 30
0.0
 11
135.0
 21
0.0
 31
0.0
  0
LINE
  5
469
  8
NOTE
  6
CONTINUOUS
 62
     4
 10
110.4999999999999
 20
-20.0
 30
0.0
 11
110.4999999999999
 21
20.0
 31
0.0
  0
LINE
  5
46A
  8
NOTE
  6
CONTINUOUS
 62
     4
 10
90.5
 20
0.0
 30
0.0
 11
130.4999999999996
 21
0.0
 31
0.0
  0
LINE
  5
46B
  8
NOTE
  6
CONTINUOUS
 62
     4
 10
145.0
 20
-20.0
 30
0.0
 11
145.0
 21
20.0
 31
0.0
  0
LINE
  5
46C
  8
NOTE
  6
CONTINUOUS
 62
     4
 10
125.0
 20
0.0
 30
0.0
 11
165.0
 21
0.0
 31
0.0
  0
LINE
  5
46D
  8
SIZE
  6
CONTINUOUS
 62
    30
 10
-133.4999999999996
 20
120.0
 30
0.0
 11
-133.4999999999996
 21
429.29782999999992
 31
0.0
  0
LINE
  5
46E
  8
SIZE
  6
CONTINUOUS
 62
    30
 10
133.4999999999996
 20
120.0
 30
0.0
 11
133.4999999999996
 21
429.29782999999992
 31
0.0
  0
LINE
  5
46F
  8
SIZE
  6
CONTINUOUS
 62
    30
 10
-131.4999999999996
 20
399.29782999999992
 30
0.0
 11
131.4999999999996
 21
399.29782999999992
 31
0.0
  0
TEXT
  5
470
  8
SIZE
  6
CONTINUOUS
 62
    30
 10
-114.9980798571428
 20
430.75676600000003
 30
0.0
 40
64.0
  1
□267
 41
0.9
 72
     1
 11
-4.4609370000000004
 21
430.75676600000003
 31
0.0
  0
CIRCLE
  5
471
  8
SIZE
  6
CONTINUOUS
 62
    30
 10
-133.4999999999996
 20
399.29782999999992
 30
0.0
 40
6.0
  0
CIRCLE
  5
472
  8
SIZE
  6
CONTINUOUS
 62
    30
 10
133.4999999999996
 20
399.29782999999992
 30
0.0
 40
6.0
  0
LINE
  5
473
  8
SIZE
  6
CONTINUOUS
 62
    30
 10
-155.0
 20
20.0
 30
0.0
 11
-155.0
 21
576.06685199999981
 31
0.0
  0
LINE
  5
474
  8
SIZE
  6
CONTINUOUS
 62
    30
 10
155.0
 20
20.0
 30
0.0
 11
155.0
 21
576.06685199999981
 31
0.0
  0
LINE
  5
475
  8
SIZE
  6
CONTINUOUS
 62
    30
 10
-153.0
 20
546.06685199999993
 30
0.0
 11
153.0
 21
546.06685199999993
 31
0.0
  0
TEXT
  5
476
  8
SIZE
  6
CONTINUOUS
 62
    30
 10
-105.3593375714285
 20
578.85039100000006
 30
0.0
 40
64.0
  1
□310
 41
0.9
 72
     1
 11
-0.307909
 21
578.85039100000006
 31
0.0
  0
CIRCLE
  5
477
  8
SIZE
  6
CONTINUOUS
 62
    30
 10
-155.0
 20
546.06685199999993
 30
0.0
 40
6.0
  0
CIRCLE
  5
478
  8
SIZE
  6
CONTINUOUS
 62
    30
 10
155.0
 20
546.06685199999993
 30
0.0
 40
6.0
  0
LINE
  5
479
  8
SIZE
  6
CONTINUOUS
 62
    30
 10
-75.0
 20
-40.0
 30
0.0
 11
-75.0
 21
-235.0243999999999
 31
0.0
  0
LINE
  5
47A
  8
SIZE
  6
CONTINUOUS
 62
    30
 10
75.0
 20
-40.0
 30
0.0
 11
75.0
 21
-235.0243999999999
 31
0.0
  0
LINE
  5
47B
  8
SIZE
  6
CONTINUOUS
 62
    30
 10
-73.0
 20
-205.02440000000001
 30
0.0
 11
73.0
 21
-205.02440000000001
 31
0.0
  0
TEXT
  5
47C
  8
SIZE
  6
CONTINUOUS
 62
    30
 10
-68.879337571428565
 20
-178.465271
 30
0.0
 40
64.0
  1
150
 41
0.9
 72
     1
 11
-0.307909
 21
-178.465271
 31
0.0
  0
CIRCLE
  5
47D
  8
SIZE
  6
CONTINUOUS
 62
    30
 10
-75.0
 20
-205.02440000000001
 30
0.0
 40
6.0
  0
CIRCLE
  5
47E
  8
SIZE
  6
CONTINUOUS
 62
    30
 10
75.0
 20
-205.02440000000001
 30
0.0
 40
6.0
  0
LINE
  5
47F
  8
SIZE
  6
CONTINUOUS
 62
    30
 10
-110.4999999999999
 20
-40.0
 30
0.0
 11
-110.4999999999999
 21
-370.77395999999999
 31
0.0
  0
LINE
  5
480
  8
SIZE
  6
CONTINUOUS
 62
    30
 10
110.4999999999999
 20
-40.0
 30
0.0
 11
110.4999999999999
 21
-370.77395999999999
 31
0.0
  0
LINE
  5
481
  8
SIZE
  6
CONTINUOUS
 62
    30
 10
-108.4999999999999
 20
-340.77395999999982
 30
0.0
 11
108.4999999999999
 21
-340.77395999999982
 31
0.0
  0
TEXT
  5
482
  8
SIZE
  6
CONTINUOUS
 62
    30
 10
-61.714285714285701
 20
-319.60793899999982
 30
0.0
 40
64.0
  1
221
 41
0.9
 72
     1
 11
0.0
 21
-319.60793899999982
 31
0.0
  0
CIRCLE
  5
483
  8
SIZE
  6
CONTINUOUS
 62
    30
 10
-110.4999999999999
 20
-340.77395999999982
 30
0.0
 40
6.0
  0
CIRCLE
  5
484
  8
SIZE
  6
CONTINUOUS
 62
    30
 10
110.4999999999999
 20
-340.77395999999982
 30
0.0
 40
6.0
  0
LINE
  5
485
  8
SIZE
  6
CONTINUOUS
 62
    30
 10
-145.0
 20
-40.0
 30
0.0
 11
-145.0
 21
-654.75402299999996
 31
0.0
  0
LINE
  5
486
  8
SIZE
  6
CONTINUOUS
 62
    30
 10
145.0
 20
-40.0
 30
0.0
 11
145.0
 21
-654.75402299999996
 31
0.0
  0
LINE
  5
487
  8
SIZE
  6
CONTINUOUS
 62
    30
 10
-143.0
 20
-624.75402300000019
 30
0.0
 11
143.0
 21
-624.75402300000019
 31
0.0
  0
TEXT
  5
488
  8
SIZE
  6
CONTINUOUS
 62
    30
 10
-74.05714285714285
 20
-589.86536899999965
 30
0.0
 40
64.0
  1
290
 41
0.9
 72
     1
 11
0.0
 21
-589.86536899999965
 31
0.0
  0
CIRCLE
  5
489
  8
SIZE
  6
CONTINUOUS
 62
    30
 10
-145.0
 20
-624.75402300000019
 30
0.0
 40
6.0
  0
CIRCLE
  5
48A
  8
SIZE
  6
CONTINUOUS
 62
    30
 10
145.0
 20
-624.75402300000019
 30
0.0
 40
6.0
  0
LINE
  5
48B
  8
OUTLINE
  6
CONTINUOUS
 62
     3
 10
133.4999999999996
 20
100.0
 30
0.0
 11
135.0
 21
0.0
 31
0.0
  0
LINE
  5
48C
  8
OUTLINE
  6
CONTINUOUS
 62
     3
 10
-135.0
 20
0.0
 30
0.0
 11
-133.4999999999996
 21
100.0
 31
0.0
  0
LINE
  5
48D
  8
OUTLINE
  6
CONTINUOUS
 62
     3
 10
-155.0
 20
0.0
 30
0.0
 11
155.0
 21
0.0
 31
0.0
  0
LINE
  5
48E
  8
OUTLINE
  6
CONTINUOUS
 62
     3
 10
-133.4999999999996
 20
100.0
 30
0.0
 11
133.4999999999996
 21
100.0
 31
0.0
  0
LINE
  5
48F
  8
NOTE
  6
CONTINUOUS
 62
     4
 10
-127.5
 20
-20.0
 30
0.0
 11
-127.5
 21
20.0
 31
0.0
  0
LINE
  5
490
  8
NOTE
  6
CONTINUOUS
 62
     4
 10
-147.5
 20
0.0
 30
0.0
 11
-107.4999999999999
 21
0.0
 31
0.0
  0
LINE
  5
491
  8
NOTE
  6
CONTINUOUS
 62
     4
 10
127.5
 20
-20.0
 30
0.0
 11
127.5
 21
20.0
 31
0.0
  0
LINE
  5
492
  8
NOTE
  6
CONTINUOUS
 62
     4
 10
107.4999999999999
 20
0.0
 30
0.0
 11
147.5
 21
0.0
 31
0.0
  0
LINE
  5
493
  8
SIZE
  6
CONTINUOUS
 62
    30
 10
127.5
 20
-40.0
 30
0.0
 11
127.5
 21
-519.06562399999996
 31
0.0
  0
LINE
  5
494
  8
SIZE
  6
CONTINUOUS
 62
    30
 10
-127.5
 20
-40.0
 30
0.0
 11
-127.5
 21
-519.06562399999996
 31
0.0
  0
LINE
  5
495
  8
SIZE
  6
CONTINUOUS
 62
    30
 10
125.5
 20
-489.06562400000001
 30
0.0
 11
-125.5
 21
-489.06562400000001
 31
0.0
  0
TEXT
  5
496
  8
SIZE
  6
CONTINUOUS
 62
    30
 10
-74.05714285714285
 20
-464.90185999999989
 30
0.0
 40
64.0
  1
255
 41
0.9
 72
     1
 11
0.0
 21
-464.90185999999989
 31
0.0
  0
CIRCLE
  5
497
  8
SIZE
  6
CONTINUOUS
 62
    30
 10
127.5
 20
-489.06562400000001
 30
0.0
 40
6.0
  0
CIRCLE
  5
498
  8
SIZE
  6
CONTINUOUS
 62
    30
 10
-127.5
 20
-489.06562400000001
 30
0.0
 40
6.0
  0
LINE
  5
499
  8
NOTE
  6
CONTINUOUS
 62
     4
 10
-127.5
 20
0.0
 30
0.0
 11
-208.21086299999999
 21
82.944981999999968
 31
0.0
  0
LINE
  5
49A
  8
NOTE
  6
CONTINUOUS
 62
     4
 10
-208.21086299999999
 20
82.944981999999968
 30
0.0
 11
-892.72070399999984
 21
82.944981999999968
 31
0.0
  0
LINE
  5
49B
  8
NOTE
  6
CONTINUOUS
 62
     4
 10
-161.6557
 20
20.817976000000002
 30
0.0
 11
-127.5
 21
0.0
 31
0.0
  0
LINE
  5
49C
  8
NOTE
  6
CONTINUOUS
 62
     4
 10
-127.5
 20
0.0
 30
0.0
 11
-146.670716
 21
35.106746999999999
 31
0.0
  0
TEXT
  5
49D
  8
NOTE
  6
CONTINUOUS
 62
     4
 10
-887.65628699999979
 20
106.42913299999969
 30
0.0
 40
64.0
  1
4ヶ所×5×10取付穴
 41
0.9
  0
CIRCLE
  5
49E
  8
FIX
  6
CONTINUOUS
 62
    11
 10
145.0
 20
0.0
 30
0.0
 40
2.5
  0
CIRCLE
  5
49F
  8
FIX
  6
CONTINUOUS
 62
    11
 10
-145.0
 20
0.0
 30
0.0
 40
2.5
  0
CIRCLE
  5
4A0
  8
FIX
  6
CONTINUOUS
 62
    11
 10
-127.5
 20
0.0
 30
0.0
 40
2.5
  0
CIRCLE
  5
4A1
  8
FIX
  6
CONTINUOUS
 62
    11
 10
127.5
 20
0.0
 30
0.0
 40
2.5
  0
CIRCLE
  5
4A2
  8
FIX
  6
CONTINUOUS
 62
    11
 10
-110.4999999999999
 20
0.0
 30
0.0
 40
2.5
  0
CIRCLE
  5
4A3
  8
FIX
  6
CONTINUOUS
 62
    11
 10
-75.0
 20
0.0
 30
0.0
 40
2.5
  0
CIRCLE
  5
4A4
  8
FIX
  6
CONTINUOUS
 62
    11
 10
75.0
 20
0.0
 30
0.0
 40
2.5
  0
CIRCLE
  5
4A5
  8
FIX
  6
CONTINUOUS
 62
    11
 10
110.4999999999999
 20
0.0
 30
0.0
 40
2.5
  0
LINE
  5
4A6
  8
DETAIL
  6
CONTINUOUS
 62
     5
 10
0.0
 20
100.0
 30
0.0
 11
-100.0
 21
100.0
 31
0.0
  0
LINE
  5
4A7
  8
DETAIL
  6
CONTINUOUS
 62
     5
 10
-100.0
 20
100.0
 30
0.0
 11
-100.0
 21
128.0
 31
0.0
  0
LINE
  5
4A8
  8
DETAIL
  6
CONTINUOUS
 62
     5
 10
-100.0
 20
128.0
 30
0.0
 11
-105.0
 21
128.0
 31
0.0
  0
LINE
  5
4A9
  8
DETAIL
  6
CONTINUOUS
 62
     5
 10
-105.0
 20
128.0
 30
0.0
 11
-105.0
 21
100.0
 31
0.0
  0
LINE
  5
4AA
  8
DETAIL
  6
CONTINUOUS
 62
     5
 10
0.0
 20
100.0
 30
0.0
 11
100.0
 21
100.0
 31
0.0
  0
LINE
  5
4AB
  8
DETAIL
  6
CONTINUOUS
 62
     5
 10
100.0
 20
100.0
 30
0.0
 11
100.0
 21
128.0
 31
0.0
  0
LINE
  5
4AC
  8
DETAIL
  6
CONTINUOUS
 62
     5
 10
100.0
 20
128.0
 30
0.0
 11
105.0
 21
128.0
 31
0.0
  0
LINE
  5
4AD
  8
DETAIL
  6
CONTINUOUS
 62
     5
 10
105.0
 20
128.0
 30
0.0
 11
105.0
 21
100.0
 31
0.0
  0
LINE
  5
4AE
  8
DETAIL
  6
CONTINUOUS
 62
     5
 10
0.0
 20
100.0
 30
0.0
 11
0.0
 21
128.0
 31
0.0
  0
LINE
  5
4AF
  8
DETAIL
  6
CONTINUOUS
 62
     5
 10
0.0
 20
128.0
 30
0.0
 11
120.0
 21
128.0
 31
0.0
  0
LINE
  5
4B0
  8
DETAIL
  6
CONTINUOUS
 62
     5
 10
0.0
 20
128.0
 30
0.0
 11
-120.0
 21
128.0
 31
0.0
  0
LINE
  5
4B1
  8
DETAIL
  6
CONTINUOUS
 62
     5
 10
120.0
 20
128.0
 30
0.0
 11
120.0
 21
180.0
 31
0.0
  0
LINE
  5
4B2
  8
DETAIL
  6
CONTINUOUS
 62
     5
 10
120.0
 20
180.0
 30
0.0
 11
-120.0
 21
180.0
 31
0.0
  0
LINE
  5
4B3
  8
DETAIL
  6
CONTINUOUS
 62
     5
 10
-120.0
 20
180.0
 30
0.0
 11
-120.0
 21
128.0
 31
0.0
  0
LINE
  5
4B4
  8
DETAIL
  6
CONTINUOUS
 62
     5
 10
0.0
 20
180.0
 30
0.0
 11
105.0
 21
180.0
 31
0.0
  0
LINE
  5
4B5
  8
DETAIL
  6
CONTINUOUS
 62
     5
 10
105.0
 20
180.0
 30
0.0
 11
105.0
 21
215.0
 31
0.0
  0
LINE
  5
4B6
  8
DETAIL
  6
CONTINUOUS
 62
     5
 10
105.0
 20
215.0
 30
0.0
 11
-105.0
 21
215.0
 31
0.0
  0
LINE
  5
4B7
  8
DETAIL
  6
CONTINUOUS
 62
     5
 10
-105.0
 20
215.0
 30
0.0
 11
-105.0
 21
180.0
 31
0.0
  0
LINE
  5
4B8
  8
DETAIL
  6
CONTINUOUS
 62
     5
 10
0.0
 20
128.0
 30
0.0
 11
41.0
 21
128.0
 31
0.0
  0
LINE
  5
4B9
  8
DETAIL
  6
CONTINUOUS
 62
     5
 10
41.0
 20
128.0
 30
0.0
 11
41.0
 21
100.0
 31
0.0
  0
LINE
  5
4BA
  8
DETAIL
  6
CONTINUOUS
 62
     5
 10
0.0
 20
128.0
 30
0.0
 11
-41.0
 21
128.0
 31
0.0
  0
LINE
  5
4BB
  8
DETAIL
  6
CONTINUOUS
 62
     5
 10
-41.0
 20
128.0
 30
0.0
 11
-41.0
 21
100.0
 31
0.0
  0
LINE
  5
4BC
  8
OUTLINE
  6
CONTINUOUS
 62
     3
 10
-105.0
 20
100.0
 30
0.0
 11
-105.0
 21
128.0
 31
0.0
  0
LINE
  5
4BD
  8
OUTLINE
  6
CONTINUOUS
 62
     3
 10
-105.0
 20
128.0
 30
0.0
 11
-120.0
 21
128.0
 31
0.0
  0
LINE
  5
4BE
  8
OUTLINE
  6
CONTINUOUS
 62
     3
 10
-120.0
 20
128.0
 30
0.0
 11
-120.0
 21
180.0
 31
0.0
  0
LINE
  5
4BF
  8
OUTLINE
  6
CONTINUOUS
 62
     3
 10
-120.0
 20
180.0
 30
0.0
 11
-105.0
 21
180.0
 31
0.0
  0
LINE
  5
4C0
  8
OUTLINE
  6
CONTINUOUS
 62
     3
 10
-105.0
 20
180.0
 30
0.0
 11
-105.0
 21
215.0
 31
0.0
  0
LINE
  5
4C1
  8
OUTLINE
  6
CONTINUOUS
 62
     3
 10
-105.0
 20
215.0
 30
0.0
 11
105.0
 21
215.0
 31
0.0
  0
LINE
  5
4C2
  8
OUTLINE
  6
CONTINUOUS
 62
     3
 10
105.0
 20
215.0
 30
0.0
 11
105.0
 21
180.0
 31
0.0
  0
LINE
  5
4C3
  8
OUTLINE
  6
CONTINUOUS
 62
     3
 10
105.0
 20
180.0
 30
0.0
 11
120.0
 21
180.0
 31
0.0
  0
LINE
  5
4C4
  8
OUTLINE
  6
CONTINUOUS
 62
     3
 10
120.0
 20
180.0
 30
0.0
 11
120.0
 21
128.0
 31
0.0
  0
LINE
  5
4C5
  8
OUTLINE
  6
CONTINUOUS
 62
     3
 10
120.0
 20
128.0
 30
0.0
 11
105.0
 21
128.0
 31
0.0
  0
LINE
  5
4C6
  8
OUTLINE
  6
CONTINUOUS
 62
     3
 10
105.0
 20
128.0
 30
0.0
 11
105.0
 21
100.0
 31
0.0
  0
LINE
  5
4C7
  8
OUTLINE
  6
CONTINUOUS
 62
     3
 10
105.0
 20
128.0
 30
0.0
 11
100.0
 21
128.0
 31
0.0
  0
LINE
  5
4C8
  8
OUTLINE
  6
CONTINUOUS
 62
     3
 10
100.0
 20
128.0
 30
0.0
 11
100.0
 21
100.0
 31
0.0
  0
LINE
  5
4C9
  8
OUTLINE
  6
CONTINUOUS
 62
     3
 10
100.0
 20
100.0
 30
0.0
 11
-100.0
 21
100.0
 31
0.0
  0
LINE
  5
4CA
  8
OUTLINE
  6
CONTINUOUS
 62
     3
 10
-100.0
 20
100.0
 30
0.0
 11
-100.0
 21
128.0
 31
0.0
  0
LINE
  5
4CB
  8
OUTLINE
  6
CONTINUOUS
 62
     3
 10
-100.0
 20
128.0
 30
0.0
 11
-102.4999999999999
 21
128.0
 31
0.0
  0
LINE
  5
4CC
  8
OUTLINE
  6
CONTINUOUS
 62
     3
 10
-105.0
 20
128.0
 30
0.0
 11
-100.0
 21
128.0
 31
0.0
  0
LINE
  5
4CD
  8
OUTLINE
  6
CONTINUOUS
 62
     3
 10
-100.0
 20
128.0
 30
0.0
 11
100.0
 21
128.0
 31
0.0
  0
LINE
  5
4CE
  8
OUTLINE
  6
CONTINUOUS
 62
     3
 10
41.0
 20
128.0
 30
0.0
 11
41.0
 21
100.0
 31
0.0
  0
LINE
  5
4CF
  8
OUTLINE
  6
CONTINUOUS
 62
     3
 10
-41.0
 20
128.0
 30
0.0
 11
-41.0
 21
100.0
 31
0.0
  0
LINE
  5
4D0
  8
OUTLINE
  6
CONTINUOUS
 62
     3
 10
-105.0
 20
180.0
 30
0.0
 11
105.0
 21
180.0
 31
0.0
  0
LINE
  5
4D1
  8
SIZE
  6
CONTINUOUS
 62
    30
 10
-135.0
 20
20.0
 30
0.0
 11
-135.0
 21
287.27068700000001
 31
0.0
  0
LINE
  5
4D2
  8
SIZE
  6
CONTINUOUS
 62
    30
 10
135.0
 20
20.0
 30
0.0
 11
135.0
 21
287.27068700000001
 31
0.0
  0
LINE
  5
4D3
  8
SIZE
  6
CONTINUOUS
 62
    30
 10
-133.0
 20
257.27068700000001
 30
0.0
 11
133.0
 21
257.27068700000001
 31
0.0
  0
TEXT
  5
4D4
  8
SIZE
  6
CONTINUOUS
 62
    30
 10
-110.5371428571428
 20
288.729623
 30
0.0
 40
64.0
  1
□270
 41
0.9
 72
     1
 11
0.0
 21
288.729623
 31
0.0
  0
CIRCLE
  5
4D5
  8
SIZE
  6
CONTINUOUS
 62
    30
 10
-135.0
 20
257.27068700000001
 30
0.0
 40
6.0
  0
CIRCLE
  5
4D6
  8
SIZE
  6
CONTINUOUS
 62
    30
 10
135.0
 20
257.27068700000001
 30
0.0
 40
6.0
  0
LINE
  5
4D7
  8
SIZE
  6
CONTINUOUS
 62
    30
 10
153.5
 20
100.0
 30
0.0
 11
401.62915199999998
 21
100.0
 31
0.0
  0
LINE
  5
4D8
  8
SIZE
  6
CONTINUOUS
 62
    30
 10
155.0
 20
0.0
 30
0.0
 11
401.62915199999998
 21
0.0
 31
0.0
  0
LINE
  5
4D9
  8
SIZE
  6
CONTINUOUS
 62
    30
 10
371.62915199999992
 20
98.0
 30
0.0
 11
371.62915199999992
 21
2.0
 31
0.0
  0
TEXT
  5
4DA
  8
SIZE
  6
CONTINUOUS
 62
    30
 10
363.26519500000001
 20
-190.3281585714285
 30
0.0
 40
64.0
  1
100
 50
90.0
 41
0.9
 72
     1
 11
363.26519500000001
 21
-121.75673
 31
0.0
  0
CIRCLE
  5
4DB
  8
SIZE
  6
CONTINUOUS
 62
    30
 10
371.62915199999992
 20
100.0
 30
0.0
 40
6.0
  0
CIRCLE
  5
4DC
  8
SIZE
  6
CONTINUOUS
 62
    30
 10
371.62915199999992
 20
0.0
 30
0.0
 40
6.0
  0
LINE
  5
4DD
  8
SIZE
  6
CONTINUOUS
 62
    30
 10
140.0
 20
128.0
 30
0.0
 11
401.62915199999998
 21
128.0
 31
0.0
  0
LINE
  5
4DE
  8
SIZE
  6
CONTINUOUS
 62
    30
 10
153.5
 20
100.0
 30
0.0
 11
401.62915199999998
 21
100.0
 31
0.0
  0
LINE
  5
4DF
  8
SIZE
  6
CONTINUOUS
 62
    30
 10
371.62915199999992
 20
126.0
 30
0.0
 11
371.62915199999992
 21
102.0
 31
0.0
  0
TEXT
  5
4E0
  8
SIZE
  6
CONTINUOUS
 62
    30
 10
359.47116399999982
 20
243.7231525714283
 30
0.0
 40
64.0
  1
28
 50
90.0
 41
0.9
 72
     1
 11
359.47116399999982
 21
290.35172399999982
 31
0.0
  0
CIRCLE
  5
4E1
  8
SIZE
  6
CONTINUOUS
 62
    30
 10
371.62915199999992
 20
128.0
 30
0.0
 40
6.0
  0
CIRCLE
  5
4E2
  8
SIZE
  6
CONTINUOUS
 62
    30
 10
371.62915199999992
 20
100.0
 30
0.0
 40
6.0
  0
LINE
  5
4E3
  8
SIZE
  6
CONTINUOUS
 62
    30
 10
175.0
 20
0.0
 30
0.0
 11
593.92860499999995
 21
0.0
 31
0.0
  0
LINE
  5
4E4
  8
SIZE
  6
CONTINUOUS
 62
    30
 10
20.0
 20
-18.0
 30
0.0
 11
593.92860499999995
 21
-18.0
 31
0.0
  0
LINE
  5
4E5
  8
SIZE
  6
CONTINUOUS
 62
    30
 10
563.92860499999995
 20
-2.0
 30
0.0
 11
563.92860499999995
 21
-16.0
 31
0.0
  0
TEXT
  5
4E6
  8
SIZE
  6
CONTINUOUS
 62
    30
 10
554.23131999999976
 20
-114.8624031428571
 30
0.0
 40
64.0
  1
18
 50
90.0
 41
0.9
 72
     1
 11
554.23131999999976
 21
-73.71954599999998
 31
0.0
  0
CIRCLE
  5
4E7
  8
SIZE
  6
CONTINUOUS
 62
    30
 10
563.92860499999995
 20
0.0
 30
0.0
 40
6.0
  0
CIRCLE
  5
4E8
  8
SIZE
  6
CONTINUOUS
 62
    30
 10
563.92860499999995
 20
-18.0
 30
0.0
 40
6.0
  0
LINE
  5
4E9
  8
SIZE
  6
CONTINUOUS
 62
    30
 10
125.0
 20
215.0
 30
0.0
 11
593.92860499999995
 21
215.0
 31
0.0
  0
LINE
  5
4EA
  8
SIZE
  6
CONTINUOUS
 62
    30
 10
175.0
 20
0.0
 30
0.0
 11
593.92860499999995
 21
0.0
 31
0.0
  0
LINE
  5
4EB
  8
SIZE
  6
CONTINUOUS
 62
    30
 10
563.92860499999995
 20
213.0
 30
0.0
 11
563.92860499999995
 21
2.0
 31
0.0
  0
TEXT
  5
4EC
  8
SIZE
  6
CONTINUOUS
 62
    30
 10
545.37858700000004
 20
38.928571428571331
 30
0.0
 40
64.0
  1
215
 50
90.0
 41
0.9
 72
     1
 11
545.37858700000004
 21
107.4999999999999
 31
0.0
  0
CIRCLE
  5
4ED
  8
SIZE
  6
CONTINUOUS
 62
    30
 10
563.92860499999995
 20
215.0
 30
0.0
 40
6.0
  0
CIRCLE
  5
4EE
  8
SIZE
  6
CONTINUOUS
 62
    30
 10
563.92860499999995
 20
0.0
 30
0.0
 40
6.0
  0
LINE
  5
4EF
  8
SIZE
  6
CONTINUOUS
 62
    30
 10
371.62915199999992
 20
6.0
 30
0.0
 11
371.62915199999992
 21
-186.2276819999999
 31
0.0
  0
LINE
  5
4F0
  8
SIZE
  6
CONTINUOUS
 62
    30
 10
371.62915199999992
 20
114.0
 30
0.0
 11
371.62915199999992
 21
345.97372399999972
 31
0.0
  0
TEXT
  5
4F1
  8
NOTE
  6
CONTINUOUS
 62
     4
 10
475.46096599999981
 20
238.49054100000001
 30
0.0
 40
64.0
  1
(吹出口,全周)
 50
90.0
 41
0.9
  0
TEXT
  5
4F2
  8
NOTE
  6
CONTINUOUS
 62
     4
 10
673.98193000000003
 20
0.8122430000000001
 30
0.0
 40
64.0
  1
(シャッター開時)
 50
90.0
 41
0.9
  0
LINE
  5
4F3
  8
SIZE
  6
CONTINUOUS
 62
    30
 10
563.92860499999995
 20
-16.0
 30
0.0
 11
563.92860499999995
 21
-121.820269
 31
0.0
  0
TEXT
  5
4F4
  8
ETC
  6
CONTINUOUS
 62
    61
 10
906.87369094428243
 20
424.06515876859521
 30
0.0
 40
50.0
  1
V-20MCX2-SW
 41
0.9
  0
TEXT
  5
4F5
  8
ETC
  6
CONTINUOUS
 62
    61
 10
737.31418905559201
 20
584.08651032583509
 30
0.0
 40
64.0
  1
V-20MCX2-SW_2
 41
0.9
  0
TEXT
  5
4F6
  8
ETC
  6
CONTINUOUS
 62
    61
 10
748.59762606574282
 20
494.66281246214999
 30
0.0
 40
64.0
  1
換気扇
 41
0.9
  0
LINE
  5
4F7
  8
BASIS
  6
DASHDOT
 62
     6
 10
0.0
 20
242.891646787404
 30
0.0
 11
0.0
 21
-72.098729346688742
 31
0.0
  0
ENDSEC
  0
EOF
