  0
SECTION
  2
HEADER
  9
$ACADVER
  1
AC1012
  9
$DWGCODEPAGE
  3
dos932
  9
$INSBASE
 10
0.0
 20
0.0
 30
0.0
  9
$EXTMIN
 10
-695.624382
 20
-548.861457
 30
0.0
  9
$EXTMAX
 10
1508.051913427742
 20
713.3613432334035
 30
0.0
  9
$LIMMIN
 10
-2970.0
 20
-2100.0
  9
$LIMMAX
 10
2970.0
 20
2100.0
  9
$ORTHOMODE
 70
     1
  9
$REGENMODE
 70
     1
  9
$FILLMODE
 70
     1
  9
$QTEXTMODE
 70
     0
  9
$MIRRTEXT
 70
     0
  9
$DRAGMODE
 70
     2
  9
$LTSCALE
 40
20.0
  9
$OSMODE
 70
   166
  9
$ATTMODE
 70
     1
  9
$TEXTSIZE
 40
64.0
  9
$TRACEWID
 40
0.05
  9
$TEXTSTYLE
  7
STANDARD
  9
$CLAYER
  8
OUTLINE
  9
$CELTYPE
  6
CONTINUOUS
  9
$CECOLOR
 62
     3
  9
$CELTSCALE
 40
1.0
  9
$DELOBJ
 70
     1
  9
$DISPSILH
 70
     0
  9
$DIMSCALE
 40
1.0
  9
$DIMASZ
 40
2.0
  9
$DIMEXO
 40
20.0
  9
$DIMDLI
 40
200.0
  9
$DIMRND
 40
0.0
  9
$DIMDLE
 40
0.0
  9
$DIMEXE
 40
30.0
  9
$DIMTP
 40
0.0
  9
$DIMTM
 40
0.0
  9
$DIMTXT
 40
64.0
  9
$DIMCEN
 40
0.09
  9
$DIMTSZ
 40
0.0
  9
$DIMTOL
 70
     0
  9
$DIMLIM
 70
     0
  9
$DIMTIH
 70
     0
  9
$DIMTOH
 70
     0
  9
$DIMSE1
 70
     0
  9
$DIMSE2
 70
     0
  9
$DIMTAD
 70
     1
  9
$DIMZIN
 70
     8
  9
$DIMBLK
  1
DOT1
  9
$DIMASO
 70
     1
  9
$DIMSHO
 70
     0
  9
$DIMPOST
  1

  9
$DIMAPOST
  1

  9
$DIMALT
 70
     0
  9
$DIMALTD
 70
     2
  9
$DIMALTF
 40
25.4
  9
$DIMLFAC
 40
1.0
  9
$DIMTOFL
 70
     1
  9
$DIMTVP
 40
0.0
  9
$DIMTIX
 70
     1
  9
$DIMSOXD
 70
     0
  9
$DIMSAH
 70
     0
  9
$DIMBLK1
  1

  9
$DIMBLK2
  1

  9
$DIMSTYLE
  2
STANDARD
  9
$DIMCLRD
 70
     7
  9
$DIMCLRE
 70
     7
  9
$DIMCLRT
 70
     7
  9
$DIMTFAC
 40
1.0
  9
$DIMGAP
 40
0.09
  9
$DIMJUST
 70
     0
  9
$DIMSD1
 70
     0
  9
$DIMSD2
 70
     0
  9
$DIMTOLJ
 70
     1
  9
$DIMTZIN
 70
     0
  9
$DIMALTZ
 70
     0
  9
$DIMALTTZ
 70
     0
  9
$DIMFIT
 70
     3
  9
$DIMUPT
 70
     0
  9
$DIMUNIT
 70
     2
  9
$DIMDEC
 70
     4
  9
$DIMTDEC
 70
     4
  9
$DIMALTU
 70
     2
  9
$DIMALTTD
 70
     2
  9
$DIMTXSTY
  7
STANDARD
  9
$DIMAUNIT
 70
     0
  9
$LUNITS
 70
     2
  9
$LUPREC
 70
     4
  9
$SKETCHINC
 40
0.1
  9
$FILLETRAD
 40
0.0
  9
$AUNITS
 70
     1
  9
$AUPREC
 70
     3
  9
$MENU
  1
ACAD
  9
$ELEVATION
 40
0.0
  9
$PELEVATION
 40
0.0
  9
$THICKNESS
 40
0.0
  9
$LIMCHECK
 70
     0
  9
$BLIPMODE
 70
     0
  9
$CHAMFERA
 40
0.0
  9
$CHAMFERB
 40
0.0
  9
$CHAMFERC
 40
0.0
  9
$CHAMFERD
 40
0.0
  9
$SKPOLY
 70
     0
  9
$TDCREATE
 40
2450690.619085648
  9
$TDUPDATE
 40
2454203.754431238
  9
$TDINDWG
 40
0.1058423611
  9
$TDUSRTIMER
 40
0.1058421759
  9
$USRTIMER
 70
     1
  9
$ANGBASE
 50
0.0
  9
$ANGDIR
 70
     0
  9
$PDMODE
 70
     3
  9
$PDSIZE
 40
-2.0
  9
$PLINEWID
 40
0.0
  9
$COORDS
 70
     2
  9
$SPLFRAME
 70
     0
  9
$SPLINETYPE
 70
     6
  9
$SPLINESEGS
 70
     8
  9
$ATTDIA
 70
     0
  9
$ATTREQ
 70
     1
  9
$HANDLING
 70
 22529
  9
$HANDSEED
  5
47E
  9
$SURFTAB1
 70
     6
  9
$SURFTAB2
 70
     6
  9
$SURFTYPE
 70
     6
  9
$SURFU
 70
     6
  9
$SURFV
 70
     6
  9
$UCSNAME
  2

  9
$UCSORG
 10
0.0
 20
0.0
 30
0.0
  9
$UCSXDIR
 10
1.0
 20
0.0
 30
0.0
  9
$UCSYDIR
 10
0.0
 20
1.0
 30
0.0
  9
$PUCSNAME
  2

  9
$PUCSORG
 10
0.0
 20
0.0
 30
0.0
  9
$PUCSXDIR
 10
1.0
 20
0.0
 30
0.0
  9
$PUCSYDIR
 10
0.0
 20
1.0
 30
0.0
  9
$USERI1
 70
     0
  9
$USERI2
 70
     0
  9
$USERI3
 70
     0
  9
$USERI4
 70
     0
  9
$USERI5
 70
     0
  9
$USERR1
 40
20.0
  9
$USERR2
 40
0.0
  9
$USERR3
 40
0.0
  9
$USERR4
 40
0.0
  9
$USERR5
 40
0.0
  9
$WORLDVIEW
 70
     1
  9
$SHADEDGE
 70
     3
  9
$SHADEDIF
 70
    70
  9
$TILEMODE
 70
     1
  9
$MAXACTVP
 70
    48
  9
$PINSBASE
 10
0.0
 20
0.0
 30
0.0
  9
$PLIMCHECK
 70
     0
  9
$PEXTMIN
 10
-1.000000000000000E+20
 20
-1.000000000000000E+20
 30
-1.000000000000000E+20
  9
$PEXTMAX
 10
1.000000000000000E+20
 20
1.000000000000000E+20
 30
1.000000000000000E+20
  9
$PLIMMIN
 10
0.0
 20
0.0
  9
$PLIMMAX
 10
12.0
 20
9.0
  9
$UNITMODE
 70
     0
  9
$VISRETAIN
 70
     0
  9
$PLINEGEN
 70
     0
  9
$PSLTSCALE
 70
     0
  9
$TREEDEPTH
 70
  3020
  9
$PICKSTYLE
 70
     0
  9
$CMLSTYLE
  2
STANDARD
  9
$CMLJUST
 70
     0
  9
$CMLSCALE
 40
1.0
  9
$SAVEIMAGES
 70
     1
  0
ENDSEC
  0
SECTION
  2
CLASSES
  0
CLASS
  1
ACDBDICTIONARYWDFLT
  2
AcDbDictionaryWithDefault
  3
AutoCAD 2000
 90
    32768
280
     0
281
     0
  0
CLASS
  1
ACDBPLACEHOLDER
  2
AcDbPlaceHolder
  3
AutoCAD 2000
 90
    32768
280
     0
281
     0
  0
CLASS
  1
LAYOUT
  2
AcDbLayout
  3
AutoCAD 2000
 90
    32768
280
     0
281
     0
  0
CLASS
  1
DICTIONARYVAR
  2
AcDbDictionaryVar
  3
AutoCAD 2000
 90
    32768
280
     0
281
     0
  0
CLASS
  1
LONG_TRANSACTION
  2
AcDbLongTransaction
  3
AutoCAD 2000
 90
    32768
280
     0
281
     0
  0
CLASS
  1
LWPOLYLINE
  2
AcDbPolyline
  3
AutoCAD 2000
 90
    32768
280
     0
281
     1
  0
CLASS
  1
HATCH
  2
AcDbHatch
  3
AutoCAD 2000
 90
    32768
280
     0
281
     1
  0
CLASS
  1
XRECORD
  2
AcDbXrecord
  3
AutoCAD 2000
 90
    32768
280
     0
281
     0
  0
ENDSEC
  0
SECTION
  2
TABLES
  0
TABLE
  2
VPORT
  5
36B
330
0
100
AcDbSymbolTable
 70
     3
  0
VPORT
  5
479
330
36B
100
AcDbSymbolTableRecord
100
AcDbViewportTableRecord
  2
*ACTIVE
 70
     0
 10
0.0
 20
0.0
 11
1.0
 21
1.0
 12
405.7606351935921
 22
83.77280525852677
 13
0.0
 23
0.0
 14
50.0
 24
50.0
 15
400.0
 25
400.0
 16
0.0
 26
0.0
 36
1.0
 17
0.0
 27
0.0
 37
0.0
 40
1381.671834272021
 41
1.672794117647058
 42
50.0
 43
0.0
 44
0.0
 50
0.0
 51
0.0
 71
     0
 72
  1000
 73
     1
 74
     0
 75
     0
 76
     0
 77
     0
 78
     0
  0
ENDTAB
  0
TABLE
  2
LTYPE
  5
368
330
0
100
AcDbSymbolTable
 70
     2
  0
LTYPE
  5
376
330
368
100
AcDbSymbolTableRecord
100
AcDbLinetypeTableRecord
  2
BYBLOCK
 70
     0
  3

 72
    65
 73
     0
 40
0.0
  0
LTYPE
  5
377
330
368
100
AcDbSymbolTableRecord
100
AcDbLinetypeTableRecord
  2
BYLAYER
 70
     0
  3

 72
    65
 73
     0
 40
0.0
  0
LTYPE
  5
378
330
368
100
AcDbSymbolTableRecord
100
AcDbLinetypeTableRecord
  2
CONTINUOUS
 70
     0
  3
実線
 72
    65
 73
     0
 40
0.0
  0
LTYPE
  5
387
330
368
100
AcDbSymbolTableRecord
100
AcDbLinetypeTableRecord
  2
DASHDOT
 70
     0
  3
____ _ ____ _ ____ _ ____ _ ____ _ ____ _ ____
 72
    65
 73
     4
 40
5.5
 49
4.0
 74
     0
 49
-0.6
 74
     0
 49
0.3
 74
     0
 49
-0.6
 74
     0
  0
ENDTAB
  0
TABLE
  2
LAYER
  5
365
330
0
100
AcDbSymbolTable
 70
    12
  0
LAYER
  5
373
330
365
100
AcDbSymbolTableRecord
100
AcDbLayerTableRecord
  2
0
 70
     0
 62
     7
  6
CONTINUOUS
  0
LAYER
  5
385
330
365
100
AcDbSymbolTableRecord
100
AcDbLayerTableRecord
  2
OUTLINE
 70
     0
 62
     3
  6
CONTINUOUS
  0
LAYER
  5
388
330
365
100
AcDbSymbolTableRecord
100
AcDbLayerTableRecord
  2
DETAIL
 70
     0
 62
     5
  6
CONTINUOUS
  0
LAYER
  5
389
330
365
100
AcDbSymbolTableRecord
100
AcDbLayerTableRecord
  2
BASIS
 70
     0
 62
     6
  6
DASHDOT
  0
LAYER
  5
38A
330
365
100
AcDbSymbolTableRecord
100
AcDbLayerTableRecord
  2
SIZE
 70
     0
 62
    30
  6
CONTINUOUS
  0
LAYER
  5
38B
330
365
100
AcDbSymbolTableRecord
100
AcDbLayerTableRecord
  2
NOTE
 70
     0
 62
     4
  6
CONTINUOUS
  0
LAYER
  5
38C
330
365
100
AcDbSymbolTableRecord
100
AcDbLayerTableRecord
  2
DEFPOINTS
 70
     0
 62
     7
  6
CONTINUOUS
  0
LAYER
  5
38D
330
365
100
AcDbSymbolTableRecord
100
AcDbLayerTableRecord
  2
FIX
 70
     0
 62
    11
  6
CONTINUOUS
  0
LAYER
  5
38E
330
365
100
AcDbSymbolTableRecord
100
AcDbLayerTableRecord
  2
ARRANGE
 70
     0
 62
     1
  6
CONTINUOUS
  0
LAYER
  5
38F
330
365
100
AcDbSymbolTableRecord
100
AcDbLayerTableRecord
  2
ETC
 70
     0
 62
    61
  6
CONTINUOUS
  0
LAYER
  5
390
330
365
100
AcDbSymbolTableRecord
100
AcDbLayerTableRecord
  2
SERVICESPACE
 70
     0
 62
     2
  6
DASHDOT
  0
LAYER
  5
391
330
365
100
AcDbSymbolTableRecord
100
AcDbLayerTableRecord
  2
SYMBOLLINE
 70
     0
 62
    15
  6
CONTINUOUS
  0
ENDTAB
  0
TABLE
  2
STYLE
  5
366
330
0
100
AcDbSymbolTable
 70
     1
  0
STYLE
  5
374
330
366
100
AcDbSymbolTableRecord
100
AcDbTextStyleTableRecord
  2
STANDARD
 70
     0
 40
0.0
 41
0.9
 50
0.0
 71
     0
 42
64.0
  3
SIMPLEX
  4
BIGFONT
  0
ENDTAB
  0
TABLE
  2
VIEW
  5
369
330
0
100
AcDbSymbolTable
 70
     1
  0
VIEW
  5
392
330
369
100
AcDbSymbolTableRecord
100
AcDbViewTableRecord
  2
ALL
 70
     0
 40
4282.619807999997
 10
0.0
 20
41.30990399999999
 41
5940.0
 11
0.0
 21
0.0
 31
1.0
 12
0.0
 22
0.0
 32
0.0
 42
50.0
 43
0.0
 44
0.0
 50
0.0
 71
     0
  0
ENDTAB
  0
TABLE
  2
UCS
  5
36A
330
0
100
AcDbSymbolTable
 70
     0
  0
ENDTAB
  0
TABLE
  2
APPID
  5
36C
330
0
100
AcDbSymbolTable
 70
     1
  0
APPID
  5
375
330
36C
100
AcDbSymbolTableRecord
100
AcDbRegAppTableRecord
  2
ACAD
 70
     0
  0
ENDTAB
  0
TABLE
  2
DIMSTYLE
  5
36D
330
0
100
AcDbSymbolTable
 70
     1
  0
DIMSTYLE
105
393
330
36D
100
AcDbSymbolTableRecord
100
AcDbDimStyleTableRecord
  2
STANDARD
 70
     0
  3

  4

  5

  6

  7

 40
1.0
 41
0.18
 42
0.0625
 43
0.38
 44
0.18
 45
0.0
 46
0.0
 47
0.0
 48
0.0
140
0.18
141
0.09
142
0.0
143
25.4
144
1.0
145
0.0
146
1.0
147
0.09
 71
     0
 72
     0
 73
     1
 74
     1
 75
     0
 76
     0
 77
     0
 78
     0
170
     0
171
     2
172
     0
173
     0
174
     0
175
     0
176
     7
177
     7
178
     7
270
     2
271
     4
272
     4
273
     2
274
     2
340
374
275
     1
280
     0
281
     0
282
     0
283
     1
284
     8
285
     8
286
     8
287
     5
288
     0
  0
ENDTAB
  0
TABLE
  2
BLOCK_RECORD
  5
364
330
0
100
AcDbSymbolTable
 70
     4
  0
BLOCK_RECORD
  5
381
102
{ACAD_XDICTIONARY
360
47C
102
}
330
364
100
AcDbSymbolTableRecord
100
AcDbBlockTableRecord
  2
*MODEL_SPACE
  0
BLOCK_RECORD
  5
37D
102
{ACAD_XDICTIONARY
360
47A
102
}
330
364
100
AcDbSymbolTableRecord
100
AcDbBlockTableRecord
  2
*PAPER_SPACE
  0
BLOCK_RECORD
  5
396
330
364
100
AcDbSymbolTableRecord
100
AcDbBlockTableRecord
  2
$MODEL_SPACE
  0
BLOCK_RECORD
  5
399
330
364
100
AcDbSymbolTableRecord
100
AcDbBlockTableRecord
  2
$PAPER_SPACE
  0
BLOCK_RECORD
  5
39C
330
364
100
AcDbSymbolTableRecord
100
AcDbBlockTableRecord
  2
DOT1
  0
ENDTAB
  0
ENDSEC
  0
SECTION
  2
BLOCKS
  0
BLOCK
  5
382
330
381
100
AcDbEntity
  8
0
100
AcDbBlockBegin
  2
*MODEL_SPACE
 70
     0
 10
0.0
 20
0.0
 30
0.0
  3
*MODEL_SPACE
  1

  0
ENDBLK
  5
383
330
381
100
AcDbEntity
  8
0
100
AcDbBlockEnd
  0
BLOCK
  5
37E
330
37D
100
AcDbEntity
 67
     1
  8
0
100
AcDbBlockBegin
  2
*PAPER_SPACE
 70
     0
 10
0.0
 20
0.0
 30
0.0
  3
*PAPER_SPACE
  1

  0
ENDBLK
  5
37F
330
37D
100
AcDbEntity
 67
     1
  8
0
100
AcDbBlockEnd
  0
BLOCK
  5
397
330
396
100
AcDbEntity
  8
0
100
AcDbBlockBegin
  2
$MODEL_SPACE
 70
     0
 10
0.0
 20
0.0
 30
0.0
  3
$MODEL_SPACE
  1

  0
ENDBLK
  5
398
330
396
100
AcDbEntity
  8
0
100
AcDbBlockEnd
  0
BLOCK
  5
39A
330
399
100
AcDbEntity
  8
0
100
AcDbBlockBegin
  2
$PAPER_SPACE
 70
     0
 10
0.0
 20
0.0
 30
0.0
  3
$PAPER_SPACE
  1

  0
ENDBLK
  5
39B
330
399
100
AcDbEntity
  8
0
100
AcDbBlockEnd
  0
BLOCK
  5
39D
330
39C
100
AcDbEntity
  8
OUTLINE
100
AcDbBlockBegin
  2
DOT1
 70
     0
 10
0.0
 20
0.0
 30
0.0
  3
DOT1
  1

  0
CIRCLE
  5
39E
330
39C
100
AcDbEntity
  8
SIZE
  6
CONTINUOUS
 62
     7
100
AcDbCircle
 10
0.0
 20
0.0
 30
0.0
 40
3.0
  0
ENDBLK
  5
39F
330
39C
100
AcDbEntity
  8
OUTLINE
100
AcDbBlockEnd
  0
ENDSEC
  0
SECTION
  2
ENTITIES
  0
LINE
  5
3A0
330
381
100
AcDbEntity
  8
BASIS
  6
DASHDOT
 62
     6
100
AcDbLine
 10
0.0
 20
-125.538653
 30
0.0
 11
0.0
 21
258.832148
 31
0.0
  0
POINT
  5
3A1
330
381
100
AcDbEntity
  8
ARRANGE
  6
CONTINUOUS
 62
     1
100
AcDbPoint
 10
0.0
 20
0.0
 30
0.0
  0
CIRCLE
  5
3A2
330
381
100
AcDbEntity
  8
ARRANGE
  6
CONTINUOUS
 62
     1
100
AcDbCircle
 10
0.0
 20
0.0
 30
0.0
 40
40.0
  0
LINE
  5
3A5
330
381
100
AcDbEntity
  8
DETAIL
  6
CONTINUOUS
 62
     5
100
AcDbLine
 10
127.0
 20
0.0
 30
0.0
 11
125.5
 21
100.0
 31
0.0
  0
LINE
  5
3A8
330
381
100
AcDbEntity
  8
DETAIL
  6
CONTINUOUS
 62
     5
100
AcDbLine
 10
-127.0
 20
0.0
 30
0.0
 11
-125.5
 21
100.0
 31
0.0
  0
LINE
  5
3A9
330
381
100
AcDbEntity
  8
DETAIL
  6
CONTINUOUS
 62
     5
100
AcDbLine
 10
115.5
 20
128.0
 30
0.0
 11
115.5
 21
173.0
 31
0.0
  0
LINE
  5
3AA
330
381
100
AcDbEntity
  8
DETAIL
  6
CONTINUOUS
 62
     5
100
AcDbLine
 10
101.5
 20
173.0
 30
0.0
 11
101.5
 21
215.0
 31
0.0
  0
LINE
  5
3AB
330
381
100
AcDbEntity
  8
DETAIL
  6
CONTINUOUS
 62
     5
100
AcDbLine
 10
-101.5
 20
215.0
 30
0.0
 11
-101.5
 21
173.0
 31
0.0
  0
LINE
  5
3AC
330
381
100
AcDbEntity
  8
DETAIL
  6
CONTINUOUS
 62
     5
100
AcDbLine
 10
115.5
 20
173.0
 30
0.0
 11
-115.5
 21
173.0
 31
0.0
  0
LINE
  5
3AD
330
381
100
AcDbEntity
  8
DETAIL
  6
CONTINUOUS
 62
     5
100
AcDbLine
 10
-115.5
 20
173.0
 30
0.0
 11
-115.5
 21
128.0
 31
0.0
  0
LINE
  5
3AE
330
381
100
AcDbEntity
  8
DETAIL
  6
CONTINUOUS
 62
     5
100
AcDbLine
 10
125.5
 20
100.0
 30
0.0
 11
-125.5
 21
100.0
 31
0.0
  0
LINE
  5
3AF
330
381
100
AcDbEntity
  8
SIZE
  6
CONTINUOUS
 62
    30
100
AcDbLine
 10
155.0
 20
-38.0
 30
0.0
 11
155.0
 21
-548.861457
 31
0.0
  0
LINE
  5
3B0
330
381
100
AcDbEntity
  8
SIZE
  6
CONTINUOUS
 62
    30
100
AcDbLine
 10
-155.0
 20
-38.0
 30
0.0
 11
-155.0
 21
-548.861457
 31
0.0
  0
LINE
  5
3B1
330
381
100
AcDbEntity
  8
SIZE
  6
CONTINUOUS
 62
    30
100
AcDbLine
 10
153.0
 20
-518.8614569999999
 30
0.0
 11
-153.0
 21
-518.8614569999999
 31
0.0
  0
TEXT
  5
3B2
330
381
100
AcDbEntity
  8
SIZE
  6
CONTINUOUS
 62
    30
100
AcDbText
 10
-105.0514285714285
 20
-486.861457
 30
0.0
 40
64.0
  1
□310
 41
0.9
 72
     1
 11
0.0
 21
-486.861457
 31
0.0
100
AcDbText
  0
CIRCLE
  5
3B3
330
381
100
AcDbEntity
  8
SIZE
  6
CONTINUOUS
 62
    30
100
AcDbCircle
 10
155.0
 20
-518.8614569999999
 30
0.0
 40
6.0
  0
CIRCLE
  5
3B4
330
381
100
AcDbEntity
  8
SIZE
  6
CONTINUOUS
 62
    30
100
AcDbCircle
 10
-155.0
 20
-518.8614569999999
 30
0.0
 40
6.0
  0
LINE
  5
3B5
330
381
100
AcDbEntity
  8
SIZE
  6
CONTINUOUS
 62
    30
100
AcDbLine
 10
127.0
 20
20.0
 30
0.0
 11
127.0
 21
332.478649
 31
0.0
  0
LINE
  5
3B6
330
381
100
AcDbEntity
  8
SIZE
  6
CONTINUOUS
 62
    30
100
AcDbLine
 10
-127.0
 20
20.0
 30
0.0
 11
-127.0
 21
332.478649
 31
0.0
  0
LINE
  5
3B7
330
381
100
AcDbEntity
  8
SIZE
  6
CONTINUOUS
 62
    30
100
AcDbLine
 10
125.0
 20
302.478649
 30
0.0
 11
-125.0
 21
302.478649
 31
0.0
  0
TEXT
  5
3B8
330
381
100
AcDbEntity
  8
SIZE
  6
CONTINUOUS
 62
    30
100
AcDbText
 10
-111.9085714285714
 20
322.2771059999999
 30
0.0
 40
64.0
  1
□254
 41
0.9
 72
     1
 11
0.0
 21
322.2771059999999
 31
0.0
100
AcDbText
  0
CIRCLE
  5
3B9
330
381
100
AcDbEntity
  8
SIZE
  6
CONTINUOUS
 62
    30
100
AcDbCircle
 10
127.0
 20
302.478649
 30
0.0
 40
6.0
  0
CIRCLE
  5
3BA
330
381
100
AcDbEntity
  8
SIZE
  6
CONTINUOUS
 62
    30
100
AcDbCircle
 10
-127.0
 20
302.478649
 30
0.0
 40
6.0
  0
LINE
  5
3BB
330
381
100
AcDbEntity
  8
SIZE
  6
CONTINUOUS
 62
    30
100
AcDbLine
 10
125.5
 20
120.0
 30
0.0
 11
125.5
 21
457.7863459999999
 31
0.0
  0
LINE
  5
3BC
330
381
100
AcDbEntity
  8
SIZE
  6
CONTINUOUS
 62
    30
100
AcDbLine
 10
-125.5
 20
120.0
 30
0.0
 11
-125.5
 21
457.7863459999999
 31
0.0
  0
LINE
  5
3BD
330
381
100
AcDbEntity
  8
SIZE
  6
CONTINUOUS
 62
    30
100
AcDbLine
 10
123.5
 20
427.7863459999998
 30
0.0
 11
-123.5
 21
427.7863459999998
 31
0.0
  0
TEXT
  5
3BE
330
381
100
AcDbEntity
  8
SIZE
  6
CONTINUOUS
 62
    30
100
AcDbText
 10
-98.19428571428574
 20
452.245825
 30
0.0
 40
64.0
  1
□251
 41
0.9
 72
     1
 11
0.0
 21
452.245825
 31
0.0
100
AcDbText
  0
CIRCLE
  5
3BF
330
381
100
AcDbEntity
  8
SIZE
  6
CONTINUOUS
 62
    30
100
AcDbCircle
 10
125.5
 20
427.7863459999998
 30
0.0
 40
6.0
  0
CIRCLE
  5
3C0
330
381
100
AcDbEntity
  8
SIZE
  6
CONTINUOUS
 62
    30
100
AcDbCircle
 10
-125.5
 20
427.7863459999998
 30
0.0
 40
6.0
  0
LINE
  5
3C1
330
381
100
AcDbEntity
  8
SIZE
  6
CONTINUOUS
 62
    30
100
AcDbLine
 10
175.0
 20
-18.0
 30
0.0
 11
607.393421
 21
-18.0
 31
0.0
  0
LINE
  5
3C2
330
381
100
AcDbEntity
  8
SIZE
  6
CONTINUOUS
 62
    30
100
AcDbLine
 10
175.0
 20
0.0
 30
0.0
 11
607.393421
 21
0.0
 31
0.0
  0
LINE
  5
3C3
330
381
100
AcDbEntity
  8
SIZE
  6
CONTINUOUS
 62
    30
100
AcDbLine
 10
577.393421
 20
-16.0
 30
0.0
 11
577.393421
 21
-2.0
 31
0.0
  0
TEXT
  5
3C4
330
381
100
AcDbEntity
  8
SIZE
  6
CONTINUOUS
 62
    30
100
AcDbText
 10
552.2620719999999
 20
-128.2805861428571
 30
0.0
 40
64.0
  1
18
 50
90.0
 41
0.9
 72
     1
 11
552.2620719999999
 21
-87.13772899999998
 31
0.0
100
AcDbText
  0
CIRCLE
  5
3C5
330
381
100
AcDbEntity
  8
SIZE
  6
CONTINUOUS
 62
    30
100
AcDbCircle
 10
577.393421
 20
-18.0
 30
0.0
 40
6.0
  0
CIRCLE
  5
3C6
330
381
100
AcDbEntity
  8
SIZE
  6
CONTINUOUS
 62
    30
100
AcDbCircle
 10
577.393421
 20
0.0
 30
0.0
 40
6.0
  0
LINE
  5
3C7
330
381
100
AcDbEntity
  8
SIZE
  6
CONTINUOUS
 62
    30
100
AcDbLine
 10
175.0
 20
0.0
 30
0.0
 11
391.3011369999999
 21
0.0
 31
0.0
  0
LINE
  5
3C8
330
381
100
AcDbEntity
  8
SIZE
  6
CONTINUOUS
 62
    30
100
AcDbLine
 10
145.5
 20
100.0
 30
0.0
 11
391.3011369999999
 21
100.0
 31
0.0
  0
LINE
  5
3C9
330
381
100
AcDbEntity
  8
SIZE
  6
CONTINUOUS
 62
    30
100
AcDbLine
 10
361.3011369999999
 20
2.0
 30
0.0
 11
361.3011369999999
 21
98.0
 31
0.0
  0
TEXT
  5
3CA
330
381
100
AcDbEntity
  8
SIZE
  6
CONTINUOUS
 62
    30
100
AcDbText
 10
339.8654119999998
 20
-196.2242735714285
 30
0.0
 40
64.0
  1
100
 50
90.0
 41
0.9
 72
     1
 11
339.8654119999998
 21
-127.652845
 31
0.0
100
AcDbText
  0
CIRCLE
  5
3CB
330
381
100
AcDbEntity
  8
SIZE
  6
CONTINUOUS
 62
    30
100
AcDbCircle
 10
361.3011369999999
 20
0.0
 30
0.0
 40
6.0
  0
CIRCLE
  5
3CC
330
381
100
AcDbEntity
  8
SIZE
  6
CONTINUOUS
 62
    30
100
AcDbCircle
 10
361.3011369999999
 20
100.0
 30
0.0
 40
6.0
  0
LINE
  5
3CD
330
381
100
AcDbEntity
  8
NOTE
  6
CONTINUOUS
 62
     4
100
AcDbLine
 10
-141.5
 20
-20.0
 30
0.0
 11
-141.5
 21
20.0
 31
0.0
  0
LINE
  5
3CE
330
381
100
AcDbEntity
  8
NOTE
  6
CONTINUOUS
 62
     4
100
AcDbLine
 10
-161.5
 20
0.0
 30
0.0
 11
-121.5
 21
0.0
 31
0.0
  0
LINE
  5
3CF
330
381
100
AcDbEntity
  8
NOTE
  6
CONTINUOUS
 62
     4
100
AcDbLine
 10
-85.0
 20
-20.0
 30
0.0
 11
-85.0
 21
20.0
 31
0.0
  0
LINE
  5
3D0
330
381
100
AcDbEntity
  8
NOTE
  6
CONTINUOUS
 62
     4
100
AcDbLine
 10
-105.0
 20
0.0
 30
0.0
 11
-65.0
 21
0.0
 31
0.0
  0
LINE
  5
3D1
330
381
100
AcDbEntity
  8
NOTE
  6
CONTINUOUS
 62
     4
100
AcDbLine
 10
85.0
 20
-20.0
 30
0.0
 11
85.0
 21
20.0
 31
0.0
  0
LINE
  5
3D2
330
381
100
AcDbEntity
  8
NOTE
  6
CONTINUOUS
 62
     4
100
AcDbLine
 10
65.0
 20
0.0
 30
0.0
 11
105.0
 21
0.0
 31
0.0
  0
LINE
  5
3D3
330
381
100
AcDbEntity
  8
NOTE
  6
CONTINUOUS
 62
     4
100
AcDbLine
 10
141.5
 20
-20.0
 30
0.0
 11
141.5
 21
20.0
 31
0.0
  0
LINE
  5
3D4
330
381
100
AcDbEntity
  8
NOTE
  6
CONTINUOUS
 62
     4
100
AcDbLine
 10
121.5
 20
0.0
 30
0.0
 11
161.5
 21
0.0
 31
0.0
  0
LINE
  5
3D5
330
381
100
AcDbEntity
  8
SIZE
  6
CONTINUOUS
 62
    30
100
AcDbLine
 10
85.0
 20
-40.0
 30
0.0
 11
85.0
 21
-301.2255139999999
 31
0.0
  0
LINE
  5
3D6
330
381
100
AcDbEntity
  8
SIZE
  6
CONTINUOUS
 62
    30
100
AcDbLine
 10
-85.0
 20
-40.0
 30
0.0
 11
-85.0
 21
-301.2255139999999
 31
0.0
  0
LINE
  5
3D7
330
381
100
AcDbEntity
  8
SIZE
  6
CONTINUOUS
 62
    30
100
AcDbLine
 10
83.0
 20
-271.2255139999999
 30
0.0
 11
-83.0
 21
-271.2255139999999
 31
0.0
  0
TEXT
  5
3D8
330
381
100
AcDbEntity
  8
SIZE
  6
CONTINUOUS
 62
    30
100
AcDbText
 10
-68.57142857142857
 20
-239.225514
 30
0.0
 40
64.0
  1
170
 41
0.9
 72
     1
 11
0.0
 21
-239.225514
 31
0.0
100
AcDbText
  0
CIRCLE
  5
3D9
330
381
100
AcDbEntity
  8
SIZE
  6
CONTINUOUS
 62
    30
100
AcDbCircle
 10
85.0
 20
-271.2255139999999
 30
0.0
 40
6.0
  0
CIRCLE
  5
3DA
330
381
100
AcDbEntity
  8
SIZE
  6
CONTINUOUS
 62
    30
100
AcDbCircle
 10
-85.0
 20
-271.2255139999999
 30
0.0
 40
6.0
  0
LINE
  5
3DB
330
381
100
AcDbEntity
  8
SIZE
  6
CONTINUOUS
 62
    30
100
AcDbLine
 10
141.5
 20
-40.0
 30
0.0
 11
141.5
 21
-433.2927169999999
 31
0.0
  0
LINE
  5
3DC
330
381
100
AcDbEntity
  8
SIZE
  6
CONTINUOUS
 62
    30
100
AcDbLine
 10
-141.5
 20
-40.0
 30
0.0
 11
-141.5
 21
-433.2927169999999
 31
0.0
  0
LINE
  5
3DD
330
381
100
AcDbEntity
  8
SIZE
  6
CONTINUOUS
 62
    30
100
AcDbLine
 10
139.5
 20
-403.2927169999998
 30
0.0
 11
-139.5
 21
-403.2927169999998
 31
0.0
  0
TEXT
  5
3DE
330
381
100
AcDbEntity
  8
SIZE
  6
CONTINUOUS
 62
    30
100
AcDbText
 10
-74.05714285714283
 20
-371.2927169999999
 30
0.0
 40
64.0
  1
283
 41
0.9
 72
     1
 11
0.0
 21
-371.2927169999999
 31
0.0
100
AcDbText
  0
CIRCLE
  5
3DF
330
381
100
AcDbEntity
  8
SIZE
  6
CONTINUOUS
 62
    30
100
AcDbCircle
 10
141.5
 20
-403.2927169999998
 30
0.0
 40
6.0
  0
CIRCLE
  5
3E0
330
381
100
AcDbEntity
  8
SIZE
  6
CONTINUOUS
 62
    30
100
AcDbCircle
 10
-141.5
 20
-403.2927169999998
 30
0.0
 40
6.0
  0
LINE
  5
3E1
330
381
100
AcDbEntity
  8
NOTE
  6
CONTINUOUS
 62
     4
100
AcDbLine
 10
-141.5
 20
0.0
 30
0.0
 11
-229.8847499999999
 21
-185.332121
 31
0.0
  0
LINE
  5
3E2
330
381
100
AcDbEntity
  8
NOTE
  6
CONTINUOUS
 62
     4
100
AcDbLine
 10
-229.8847499999999
 20
-185.332121
 30
0.0
 11
-695.624382
 21
-185.332121
 31
0.0
  0
TEXT
  5
3E3
330
381
100
AcDbEntity
  8
NOTE
  6
CONTINUOUS
 62
     4
100
AcDbText
 10
-685.790924
 20
-143.6988199999998
 30
0.0
 40
64.0
  1
8×φ5取付穴
 41
0.9
100
AcDbText
  0
LINE
  5
3E4
330
381
100
AcDbEntity
  8
NOTE
  6
CONTINUOUS
 62
     4
100
AcDbLine
 10
-149.5818649999999
 20
-39.17503599999999
 30
0.0
 11
-141.5
 21
0.0
 31
0.0
  0
LINE
  5
3E5
330
381
100
AcDbEntity
  8
NOTE
  6
CONTINUOUS
 62
     4
100
AcDbLine
 10
-141.5
 20
0.0
 30
0.0
 11
-168.0866189999998
 21
-29.88564399999999
 31
0.0
  0
LINE
  5
3E6
330
381
100
AcDbEntity
  8
SIZE
  6
CONTINUOUS
 62
    30
100
AcDbLine
 10
361.3011369999999
 20
94.0
 30
0.0
 11
361.3011369999999
 21
-197.045332
 31
0.0
  0
CIRCLE
  5
3E7
330
381
100
AcDbEntity
  8
FIX
  6
CONTINUOUS
 62
    11
100
AcDbCircle
 10
-141.5
 20
0.0
 30
0.0
 40
2.5
  0
CIRCLE
  5
3E8
330
381
100
AcDbEntity
  8
FIX
  6
CONTINUOUS
 62
    11
100
AcDbCircle
 10
-85.0
 20
0.0
 30
0.0
 40
2.5
  0
CIRCLE
  5
3E9
330
381
100
AcDbEntity
  8
FIX
  6
CONTINUOUS
 62
    11
100
AcDbCircle
 10
85.0
 20
0.0
 30
0.0
 40
2.5
  0
CIRCLE
  5
3EA
330
381
100
AcDbEntity
  8
FIX
  6
CONTINUOUS
 62
    11
100
AcDbCircle
 10
141.5
 20
0.0
 30
0.0
 40
2.5
  0
LINE
  5
3EB
330
381
100
AcDbEntity
  8
DETAIL
  6
CONTINUOUS
 62
     5
100
AcDbLine
 10
-115.5
 20
128.0
 30
0.0
 11
115.5
 21
128.0
 31
0.0
  0
LINE
  5
3EC
330
381
100
AcDbEntity
  8
DETAIL
  6
CONTINUOUS
 62
     5
100
AcDbLine
 10
101.5
 20
212.0
 30
0.0
 11
101.5
 21
215.0
 31
0.0
  0
LINE
  5
3ED
330
381
100
AcDbEntity
  8
DETAIL
  6
CONTINUOUS
 62
     5
100
AcDbLine
 10
-101.5
 20
212.0
 30
0.0
 11
-101.5
 21
215.0
 31
0.0
  0
LINE
  5
3EE
330
381
100
AcDbEntity
  8
DETAIL
  6
CONTINUOUS
 62
     5
100
AcDbLine
 10
-101.5
 20
215.0
 30
0.0
 11
101.5
 21
215.0
 31
0.0
  0
LINE
  5
3EF
330
381
100
AcDbEntity
  8
DETAIL
  6
CONTINUOUS
 62
     5
100
AcDbLine
 10
-86.72134099999999
 20
128.0
 30
0.0
 11
-86.72134099999999
 21
100.0
 31
0.0
  0
LINE
  5
3F0
330
381
100
AcDbEntity
  8
DETAIL
  6
CONTINUOUS
 62
     5
100
AcDbLine
 10
-93.74920999999996
 20
128.0
 30
0.0
 11
-93.74920999999996
 21
100.0
 31
0.0
  0
LINE
  5
3F1
330
381
100
AcDbEntity
  8
DETAIL
  6
CONTINUOUS
 62
     5
100
AcDbLine
 10
93.68350599999999
 20
128.0
 30
0.0
 11
93.68350599999999
 21
100.0
 31
0.0
  0
LINE
  5
3F2
330
381
100
AcDbEntity
  8
DETAIL
  6
CONTINUOUS
 62
     5
100
AcDbLine
 10
85.789342
 20
128.0
 30
0.0
 11
85.789342
 21
100.0
 31
0.0
  0
LINE
  5
3F3
330
381
100
AcDbEntity
  8
SIZE
  6
CONTINUOUS
 62
    30
100
AcDbLine
 10
121.5
 20
215.0
 30
0.0
 11
607.393421
 21
215.0
 31
0.0
  0
LINE
  5
3F4
330
381
100
AcDbEntity
  8
SIZE
  6
CONTINUOUS
 62
    30
100
AcDbLine
 10
175.0
 20
0.0
 30
0.0
 11
607.393421
 21
0.0
 31
0.0
  0
LINE
  5
3F5
330
381
100
AcDbEntity
  8
SIZE
  6
CONTINUOUS
 62
    30
100
AcDbLine
 10
577.393421
 20
213.0
 30
0.0
 11
577.393421
 21
2.0
 31
0.0
  0
TEXT
  5
3F6
330
381
100
AcDbEntity
  8
SIZE
  6
CONTINUOUS
 62
    30
100
AcDbText
 10
539.2218810000001
 20
39.26336142857113
 30
0.0
 40
64.0
  1
215
 50
90.0
 41
0.9
 72
     1
 11
539.2218810000001
 21
107.8347899999996
 31
0.0
100
AcDbText
  0
CIRCLE
  5
3F7
330
381
100
AcDbEntity
  8
SIZE
  6
CONTINUOUS
 62
    30
100
AcDbCircle
 10
577.393421
 20
215.0
 30
0.0
 40
6.0
  0
CIRCLE
  5
3F8
330
381
100
AcDbEntity
  8
SIZE
  6
CONTINUOUS
 62
    30
100
AcDbCircle
 10
577.393421
 20
0.0
 30
0.0
 40
6.0
  0
LINE
  5
3F9
330
381
100
AcDbEntity
  8
SIZE
  6
CONTINUOUS
 62
    30
100
AcDbLine
 10
135.4999999999996
 20
128.0
 30
0.0
 11
391.3011369999999
 21
128.0
 31
0.0
  0
LINE
  5
3FA
330
381
100
AcDbEntity
  8
SIZE
  6
CONTINUOUS
 62
    30
100
AcDbLine
 10
145.5
 20
100.0
 30
0.0
 11
391.3011369999999
 21
100.0
 31
0.0
  0
LINE
  5
3FB
330
381
100
AcDbEntity
  8
SIZE
  6
CONTINUOUS
 62
    30
100
AcDbLine
 10
361.3011369999999
 20
126.0
 30
0.0
 11
361.3011369999999
 21
102.0
 31
0.0
  0
TEXT
  5
3FC
330
381
100
AcDbEntity
  8
SIZE
  6
CONTINUOUS
 62
    30
100
AcDbText
 10
347.259898
 20
235.3929765714283
 30
0.0
 40
64.0
  1
28
 50
90.0
 41
0.9
 72
     1
 11
347.259898
 21
282.0215479999998
 31
0.0
100
AcDbText
  0
CIRCLE
  5
3FD
330
381
100
AcDbEntity
  8
SIZE
  6
CONTINUOUS
 62
    30
100
AcDbCircle
 10
361.3011369999999
 20
128.0
 30
0.0
 40
6.0
  0
CIRCLE
  5
3FE
330
381
100
AcDbEntity
  8
SIZE
  6
CONTINUOUS
 62
    30
100
AcDbCircle
 10
361.3011369999999
 20
100.0
 30
0.0
 40
6.0
  0
LINE
  5
3FF
330
381
100
AcDbEntity
  8
SIZE
  6
CONTINUOUS
 62
    30
100
AcDbLine
 10
361.3011369999999
 20
114.0
 30
0.0
 11
361.3011369999999
 21
331.6915489999999
 31
0.0
  0
LINE
  5
400
330
381
100
AcDbEntity
  8
DETAIL
  6
CONTINUOUS
 62
     5
100
AcDbLine
 10
0.0
 20
128.0
 30
0.0
 11
82.0
 21
128.0
 31
0.0
  0
LINE
  5
401
330
381
100
AcDbEntity
  8
DETAIL
  6
CONTINUOUS
 62
     5
100
AcDbLine
 10
41.0
 20
128.0
 30
0.0
 11
41.0
 21
100.0
 31
0.0
  0
LINE
  5
402
330
381
100
AcDbEntity
  8
DETAIL
  6
CONTINUOUS
 62
     5
100
AcDbLine
 10
-41.0
 20
128.0
 30
0.0
 11
-41.0
 21
100.0
 31
0.0
  0
TEXT
  5
403
330
381
100
AcDbEntity
  8
NOTE
  6
CONTINUOUS
 62
     4
100
AcDbText
 10
451.68059
 20
229.894383
 30
0.0
 40
64.0
  1
(吹出口,全周)
 50
90.0
 41
0.9
100
AcDbText
  0
LINE
  5
404
330
381
100
AcDbEntity
  8
SIZE
  6
CONTINUOUS
 62
    30
100
AcDbLine
 10
577.393421
 20
-12.0
 30
0.0
 11
577.393421
 21
-129.718903
 31
0.0
  0
TEXT
  5
405
330
381
100
AcDbEntity
  8
NOTE
  6
CONTINUOUS
 62
     4
100
AcDbText
 10
686.1336159999998
 20
32.37583499999999
 30
0.0
 40
64.0
  1
(シャッター開時)
 50
90.0
 41
0.9
100
AcDbText
  0
TEXT
  5
406
330
381
100
AcDbEntity
  8
ETC
  6
CONTINUOUS
 62
    61
100
AcDbText
 10
748.2804848563126
 20
649.3613432334032
 30
0.0
 40
64.0
  1
V-20MEX2-SW_3
 41
0.9
100
AcDbText
  0
TEXT
  5
407
330
381
100
AcDbEntity
  8
ETC
  6
CONTINUOUS
 62
    61
100
AcDbText
 10
893.2971225053988
 20
454.2267971071331
 30
0.0
 40
50.0
  1
V-20MEX2-SW
 41
0.9
100
AcDbText
  0
TEXT
  5
408
330
381
100
AcDbEntity
  8
ETC
  6
CONTINUOUS
 62
    61
100
AcDbText
 10
751.1148543092287
 20
538.9031903467926
 30
0.0
 40
64.0
  1
換気扇
 41
0.9
100
AcDbText
  0
LINE
  5
409
330
381
100
AcDbEntity
  8
OUTLINE
  6
CONTINUOUS
 62
     3
100
AcDbLine
 10
127.0
 20
0.0
 30
0.0
 11
125.5
 21
100.0
 31
0.0
  0
LINE
  5
40A
330
381
100
AcDbEntity
  8
OUTLINE
  6
CONTINUOUS
 62
     3
100
AcDbLine
 10
-127.0
 20
0.0
 30
0.0
 11
-125.5
 21
100.0
 31
0.0
  0
LINE
  5
410
330
381
100
AcDbEntity
  8
OUTLINE
  6
CONTINUOUS
 62
     3
100
AcDbLine
 10
-101.5
 20
215.0
 30
0.0
 11
101.5
 21
215.0
 31
0.0
  0
LINE
  5
411
330
381
100
AcDbEntity
  8
OUTLINE
  6
CONTINUOUS
 62
     3
100
AcDbLine
 10
-115.5
 20
128.0
 30
0.0
 11
115.5
 21
128.0
 31
0.0
  0
LINE
  5
412
330
381
100
AcDbEntity
  8
OUTLINE
  6
CONTINUOUS
 62
     3
100
AcDbLine
 10
-115.5
 20
100.0
 30
0.0
 11
115.5
 21
100.0
 31
0.0
  0
LINE
  5
413
330
381
100
AcDbEntity
  8
OUTLINE
  6
CONTINUOUS
 62
     3
100
AcDbLine
 10
-115.5
 20
173.0
 30
0.0
 11
-115.5
 21
128.0
 31
0.0
  0
LINE
  5
414
330
381
100
AcDbEntity
  8
OUTLINE
  6
CONTINUOUS
 62
     3
100
AcDbLine
 10
-115.5
 20
100.0
 30
0.0
 11
-125.5
 21
100.0
 31
0.0
  0
LINE
  5
415
330
381
100
AcDbEntity
  8
OUTLINE
  6
CONTINUOUS
 62
     3
100
AcDbLine
 10
-41.0
 20
128.0
 30
0.0
 11
-41.0
 21
100.0
 31
0.0
  0
LINE
  5
416
330
381
100
AcDbEntity
  8
OUTLINE
  6
CONTINUOUS
 62
     3
100
AcDbLine
 10
-93.74920999999995
 20
128.0
 30
0.0
 11
-93.74920999999995
 21
100.0
 31
0.0
  0
LINE
  5
417
330
381
100
AcDbEntity
  8
OUTLINE
  6
CONTINUOUS
 62
     3
100
AcDbLine
 10
-86.72134099999992
 20
128.0
 30
0.0
 11
-86.72134099999992
 21
100.0
 31
0.0
  0
LINE
  5
418
330
381
100
AcDbEntity
  8
OUTLINE
  6
CONTINUOUS
 62
     3
100
AcDbLine
 10
-101.5
 20
215.0
 30
0.0
 11
-101.5
 21
173.0
 31
0.0
  0
LINE
  5
419
330
381
100
AcDbEntity
  8
OUTLINE
  6
CONTINUOUS
 62
     3
100
AcDbLine
 10
-101.5
 20
173.0
 30
0.0
 11
-115.5
 21
173.0
 31
0.0
  0
LINE
  5
41A
330
381
100
AcDbEntity
  8
OUTLINE
  6
CONTINUOUS
 62
     3
100
AcDbLine
 10
115.5
 20
128.0
 30
0.0
 11
115.5
 21
173.0
 31
0.0
  0
LINE
  5
41B
330
381
100
AcDbEntity
  8
OUTLINE
  6
CONTINUOUS
 62
     3
100
AcDbLine
 10
41.0
 20
128.0
 30
0.0
 11
41.0
 21
100.0
 31
0.0
  0
LINE
  5
41C
330
381
100
AcDbEntity
  8
OUTLINE
  6
CONTINUOUS
 62
     3
100
AcDbLine
 10
85.78934200000004
 20
128.0
 30
0.0
 11
85.78934200000004
 21
100.0
 31
0.0
  0
LINE
  5
41D
330
381
100
AcDbEntity
  8
OUTLINE
  6
CONTINUOUS
 62
     3
100
AcDbLine
 10
93.68350599999997
 20
128.0
 30
0.0
 11
93.68350599999997
 21
100.0
 31
0.0
  0
LINE
  5
41E
330
381
100
AcDbEntity
  8
OUTLINE
  6
CONTINUOUS
 62
     3
100
AcDbLine
 10
125.5
 20
100.0
 30
0.0
 11
115.5
 21
100.0
 31
0.0
  0
LINE
  5
41F
330
381
100
AcDbEntity
  8
OUTLINE
  6
CONTINUOUS
 62
     3
100
AcDbLine
 10
115.5
 20
173.0
 30
0.0
 11
101.5
 21
173.0
 31
0.0
  0
LINE
  5
420
330
381
100
AcDbEntity
  8
OUTLINE
  6
CONTINUOUS
 62
     3
100
AcDbLine
 10
101.5
 20
173.0
 30
0.0
 11
101.5
 21
215.0
 31
0.0
  0
ARC
  5
434
330
381
100
AcDbEntity
  8
DETAIL
  6
CONTINUOUS
 62
     5
100
AcDbCircle
 10
-0.0000969999999825
 20
2146.502742
 30
0.0
 40
2164.502742
100
AcDbArc
 50
270.0000029999977
 51
274.0210659999986
  0
LINE
  5
435
330
381
100
AcDbEntity
  8
DETAIL
  6
CONTINUOUS
 62
     5
100
AcDbLine
 10
-155.0
 20
0.0
 30
0.0
 11
155.0
 21
0.0
 31
0.0
  0
ARC
  5
436
330
381
100
AcDbEntity
  8
DETAIL
  6
CONTINUOUS
 62
     5
100
AcDbCircle
 10
0.0000969999999825
 20
2146.502742
 30
0.0
 40
2164.502742
100
AcDbArc
 50
265.9789340000013
 51
269.999996999999
  0
LINE
  5
437
330
381
100
AcDbEntity
  8
DETAIL
  6
CONTINUOUS
 62
     5
100
AcDbLine
 10
-155.0
 20
-8.0
 30
0.0
 11
-155.0
 21
0.0
 31
0.0
  0
ARC
  5
438
330
381
100
AcDbEntity
  8
DETAIL
  6
CONTINUOUS
 62
     5
100
AcDbCircle
 10
-150.0
 20
-8.0
 30
0.0
 40
5.0
100
AcDbArc
 50
180.0
 51
249.1224349999983
  0
LINE
  5
439
330
381
100
AcDbEntity
  8
DETAIL
  6
CONTINUOUS
 62
     5
100
AcDbLine
 10
155.0
 20
-8.0
 30
0.0
 11
155.0
 21
0.0
 31
0.0
  0
ARC
  5
43A
330
381
100
AcDbEntity
  8
DETAIL
  6
CONTINUOUS
 62
     5
100
AcDbCircle
 10
150.0
 20
-8.0
 30
0.0
 40
5.0
100
AcDbArc
 50
290.8775669999988
 51
0.0
  0
LINE
  5
43B
330
381
100
AcDbEntity
  8
OUTLINE
  6
CONTINUOUS
 62
     3
100
AcDbLine
 10
-101.5
 20
173.0
 30
0.0
 11
101.5
 21
173.0
 31
0.0
  0
LINE
  5
43C
330
381
100
AcDbEntity
  8
OUTLINE
  6
CONTINUOUS
 62
     3
100
AcDbLine
 10
-155.0
 20
0.0
 30
0.0
 11
155.0
 21
0.0
 31
0.0
  0
ENDSEC
  0
SECTION
  2
OBJECTS
  0
DICTIONARY
  5
36F
330
0
100
AcDbDictionary
  3
ACAD_GROUP
350
370
  3
ACAD_LAYOUT
350
37C
  3
ACAD_MLINESTYLE
350
379
  3
ACAD_PLOTSETTINGS
350
37B
1001
ACAD
1000
TREAT_AS_HARD
1070
     0
  0
DICTIONARY
  5
47C
330
381
100
AcDbDictionary
  3
ACAD_LAYOUTSELFREF
350
47D
  0
DICTIONARY
  5
47A
330
37D
100
AcDbDictionary
  3
ACAD_LAYOUTSELFREF
350
47B
  0
DICTIONARY
  5
370
102
{ACAD_REACTORS
330
36F
102
}
330
36F
100
AcDbDictionary
1001
ACAD
1000
TREAT_AS_HARD
1070
     0
  0
DICTIONARY
  5
37C
102
{ACAD_REACTORS
330
36F
102
}
330
36F
100
AcDbDictionary
1001
ACAD
1000
TREAT_AS_HARD
1070
     0
  0
DICTIONARY
  5
379
102
{ACAD_REACTORS
330
36F
102
}
330
36F
100
AcDbDictionary
  3
STANDARD
350
37A
1001
ACAD
1000
TREAT_AS_HARD
1070
     0
  0
DICTIONARY
  5
37B
102
{ACAD_REACTORS
330
36F
102
}
330
36F
100
AcDbDictionary
1001
ACAD
1000
TREAT_AS_HARD
1070
     0
  0
XRECORD
  5
47D
102
{ACAD_REACTORS
330
47C
102
}
330
47C
100
AcDbXrecord
340
381
  0
XRECORD
  5
47B
102
{ACAD_REACTORS
330
47A
102
}
330
47A
100
AcDbXrecord
340
37D
  0
MLINESTYLE
  5
37A
102
{ACAD_REACTORS
330
379
102
}
330
379
100
AcDbMlineStyle
  2
STANDARD
 70
     0
  3

 62
   256
 51
90.0
 52
90.0
 71
     2
 49
0.5
 62
   256
  6
BYLAYER
 49
-0.5
 62
   256
  6
BYLAYER
  0
ENDSEC
  0
EOF
