  0
SECTION
  2
HEADER
  9
$ACADVER
  1
AC1009
  9
$INSBASE
 10
0.0
 20
0.0
 30
0.0
  9
$EXTMIN
 10
-244.62419299999991
 20
-509.64908899999989
 30
0.0
  9
$EXTMAX
 10
1458.773095046655
 20
385.83111102510418
 30
0.0
  9
$LIMMIN
 10
-2970.0
 20
-2100.0
  9
$LIMMAX
 10
2970.0
 20
2100.0
  9
$ORTHOMODE
 70
     1
  9
$REGENMODE
 70
     1
  9
$FILLMODE
 70
     1
  9
$QTEXTMODE
 70
     0
  9
$MIRRTEXT
 70
     0
  9
$DRAGMODE
 70
     2
  9
$LTSCALE
 40
20.0
  9
$OSMODE
 70
   165
  9
$ATTMODE
 70
     1
  9
$TEXTSIZE
 40
64.0
  9
$TRACEWID
 40
0.05
  9
$TEXTSTYLE
  7
STANDARD
  9
$CLAYER
  8
OUTLINE
  9
$CELTYPE
  6
CONTINUOUS
  9
$CECOLOR
 62
     7
  9
$DIMSCALE
 40
1.0
  9
$DIMASZ
 40
2.0
  9
$DIMEXO
 40
20.0
  9
$DIMDLI
 40
200.0
  9
$DIMRND
 40
0.0
  9
$DIMDLE
 40
0.0
  9
$DIMEXE
 40
30.0
  9
$DIMTP
 40
0.0
  9
$DIMTM
 40
0.0
  9
$DIMTXT
 40
64.0
  9
$DIMCEN
 40
0.09
  9
$DIMTSZ
 40
0.0
  9
$DIMTOL
 70
     0
  9
$DIMLIM
 70
     0
  9
$DIMTIH
 70
     0
  9
$DIMTOH
 70
     0
  9
$DIMSE1
 70
     0
  9
$DIMSE2
 70
     0
  9
$DIMTAD
 70
     1
  9
$DIMZIN
 70
     8
  9
$DIMBLK
  1
DOT1
  9
$DIMASO
 70
     1
  9
$DIMSHO
 70
     0
  9
$DIMPOST
  1

  9
$DIMAPOST
  1

  9
$DIMALT
 70
     0
  9
$DIMALTD
 70
     2
  9
$DIMALTF
 40
25.399999999999999
  9
$DIMLFAC
 40
1.0
  9
$DIMTOFL
 70
     1
  9
$DIMTVP
 40
0.0
  9
$DIMTIX
 70
     1
  9
$DIMSOXD
 70
     0
  9
$DIMSAH
 70
     0
  9
$DIMBLK1
  1

  9
$DIMBLK2
  1

  9
$DIMSTYLE
  2
STANDARD
  9
$DIMCLRD
 70
     7
  9
$DIMCLRE
 70
     7
  9
$DIMCLRT
 70
     7
  9
$DIMTFAC
 40
1.0
  9
$DIMGAP
 40
0.09
  9
$LUNITS
 70
     2
  9
$LUPREC
 70
     4
  9
$SKETCHINC
 40
0.1
  9
$FILLETRAD
 40
15.0
  9
$AUNITS
 70
     1
  9
$AUPREC
 70
     3
  9
$MENU
  1
ACAD
  9
$ELEVATION
 40
0.0
  9
$PELEVATION
 40
0.0
  9
$THICKNESS
 40
0.0
  9
$LIMCHECK
 70
     0
  9
$BLIPMODE
 70
     0
  9
$CHAMFERA
 40
0.0
  9
$CHAMFERB
 40
0.0
  9
$SKPOLY
 70
     0
  9
$TDCREATE
 40
2450690.645798611
  9
$TDUPDATE
 40
2454203.497647569
  9
$TDINDWG
 40
0.063962963
  9
$TDUSRTIMER
 40
0.063962963
  9
$USRTIMER
 70
     1
  9
$ANGBASE
 50
0.0
  9
$ANGDIR
 70
     0
  9
$PDMODE
 70
     3
  9
$PDSIZE
 40
-2.0
  9
$PLINEWID
 40
0.0
  9
$COORDS
 70
     2
  9
$SPLFRAME
 70
     0
  9
$SPLINETYPE
 70
     6
  9
$SPLINESEGS
 70
     8
  9
$ATTDIA
 70
     0
  9
$ATTREQ
 70
     1
  9
$HANDLING
 70
 22529
  9
$HANDSEED
  5
2C8
  9
$SURFTAB1
 70
     6
  9
$SURFTAB2
 70
     6
  9
$SURFTYPE
 70
     6
  9
$SURFU
 70
     6
  9
$SURFV
 70
     6
  9
$UCSNAME
  2

  9
$UCSORG
 10
0.0
 20
0.0
 30
0.0
  9
$UCSXDIR
 10
1.0
 20
0.0
 30
0.0
  9
$UCSYDIR
 10
0.0
 20
1.0
 30
0.0
  9
$PUCSNAME
  2

  9
$PUCSORG
 10
0.0
 20
0.0
 30
0.0
  9
$PUCSXDIR
 10
1.0
 20
0.0
 30
0.0
  9
$PUCSYDIR
 10
0.0
 20
1.0
 30
0.0
  9
$USERI1
 70
     0
  9
$USERI2
 70
     0
  9
$USERI3
 70
     0
  9
$USERI4
 70
     0
  9
$USERI5
 70
     0
  9
$USERR1
 40
20.0
  9
$USERR2
 40
0.0
  9
$USERR3
 40
0.0
  9
$USERR4
 40
0.0
  9
$USERR5
 40
0.0
  9
$WORLDVIEW
 70
     1
  9
$SHADEDGE
 70
     3
  9
$SHADEDIF
 70
    70
  9
$TILEMODE
 70
     1
  9
$MAXACTVP
 70
    48
  9
$PLIMCHECK
 70
     0
  9
$PEXTMIN
 10
-1.0000000000000000E+020
 20
-1.0000000000000000E+020
 30
-1.0000000000000000E+020
  9
$PEXTMAX
 10
1.0000000000000000E+020
 20
1.0000000000000000E+020
 30
1.0000000000000000E+020
  9
$PLIMMIN
 10
0.0
 20
0.0
  9
$PLIMMAX
 10
12.0
 20
9.0
  9
$UNITMODE
 70
     0
  9
$VISRETAIN
 70
     0
  9
$PLINEGEN
 70
     0
  9
$PSLTSCALE
 70
     0
  0
ENDSEC
  0
SECTION
  2
TABLES
  0
TABLE
  2
VPORT
 70
     3
  0
VPORT
  2
*ACTIVE
 70
     0
 10
0.0
 20
0.0
 11
1.0
 21
1.0
 12
590.95548225211883
 22
-70.113661461677225
 13
0.0
 23
0.0
 14
50.0
 24
50.0
 15
400.0
 25
400.0
 16
0.0
 26
0.0
 36
1.0
 17
0.0
 27
0.0
 37
0.0
 40
1291.22954560075
 41
1.672794117647058
 42
50.0
 43
0.0
 44
0.0
 50
0.0
 51
0.0
 71
     0
 72
  1000
 73
     1
 74
     0
 75
     0
 76
     0
 77
     0
 78
     0
  0
ENDTAB
  0
TABLE
  2
LTYPE
 70
     2
  0
LTYPE
  2
CONTINUOUS
 70
     0
  3
実線
 72
    65
 73
     0
 40
0.0
  0
LTYPE
  2
DASHDOT
 70
     0
  3
____ _ ____ _ ____ _ ____ _ ____ _ ____ _ ____
 72
    65
 73
     4
 40
5.5
 49
4.0
 49
-0.6
 49
0.3
 49
-0.6
  0
ENDTAB
  0
TABLE
  2
LAYER
 70
    12
  0
LAYER
  2
0
 70
     0
 62
     7
  6
CONTINUOUS
  0
LAYER
  2
OUTLINE
 70
     0
 62
     3
  6
CONTINUOUS
  0
LAYER
  2
DETAIL
 70
     0
 62
     5
  6
CONTINUOUS
  0
LAYER
  2
BASIS
 70
     0
 62
     6
  6
DASHDOT
  0
LAYER
  2
SIZE
 70
     0
 62
    30
  6
CONTINUOUS
  0
LAYER
  2
NOTE
 70
     0
 62
     4
  6
CONTINUOUS
  0
LAYER
  2
DEFPOINTS
 70
     0
 62
     7
  6
CONTINUOUS
  0
LAYER
  2
FIX
 70
     0
 62
    11
  6
CONTINUOUS
  0
LAYER
  2
ARRANGE
 70
     0
 62
     1
  6
CONTINUOUS
  0
LAYER
  2
ETC
 70
     0
 62
    61
  6
CONTINUOUS
  0
LAYER
  2
SERVICESPACE
 70
     0
 62
     2
  6
DASHDOT
  0
LAYER
  2
SYMBOLLINE
 70
     0
 62
    15
  6
CONTINUOUS
  0
ENDTAB
  0
TABLE
  2
STYLE
 70
     1
  0
STYLE
  2
STANDARD
 70
     0
 40
0.0
 41
0.9
 50
0.0
 71
     0
 42
64.0
  3
SIMPLEX
  4
BIGFONT
  0
ENDTAB
  0
TABLE
  2
VIEW
 70
     1
  0
VIEW
  2
ALL
 70
     0
 40
4282.6198079999976
 10
0.0
 20
41.309903999999989
 41
5940.0
 11
0.0
 21
0.0
 31
1.0
 12
0.0
 22
0.0
 32
0.0
 42
50.0
 43
0.0
 44
0.0
 50
0.0
 71
     0
  0
ENDTAB
  0
TABLE
  2
UCS
 70
     0
  0
ENDTAB
  0
TABLE
  2
APPID
 70
     1
  0
APPID
  2
ACAD
 70
     0
  0
ENDTAB
  0
TABLE
  2
DIMSTYLE
 70
     1
  0
DIMSTYLE
  2
STANDARD
 70
     0
  3

  4

  5

  6

  7

 40
1.0
 41
0.18
 42
0.0625
 43
0.38
 44
0.18
 45
0.0
 46
0.0
 47
0.0
 48
0.0
140
0.18
141
0.09
142
0.0
143
25.399999999999999
144
1.0
145
0.0
146
1.0
147
0.09
 71
     0
 72
     0
 73
     1
 74
     1
 75
     0
 76
     0
 77
     0
 78
     0
170
     0
171
     2
172
     0
173
     0
174
     0
175
     0
176
     7
177
     7
178
     7
  0
ENDTAB
  0
ENDSEC
  0
SECTION
  2
BLOCKS
  0
BLOCK
  8
0
  2
$MODEL_SPACE
 70
     0
 10
0.0
 20
0.0
 30
0.0
  3
$MODEL_SPACE
  1

  0
ENDBLK
  5
185
  8
0
  0
BLOCK
 67
     1
  8
0
  2
$PAPER_SPACE
 70
     0
 10
0.0
 20
0.0
 30
0.0
  3
$PAPER_SPACE
  1

  0
ENDBLK
  5
181
 67
     1
  8
0
  0
BLOCK
  8
OUTLINE
  2
DOT1
 70
     0
 10
0.0
 20
0.0
 30
0.0
  3
DOT1
  1

  0
CIRCLE
  5
1A0
  8
SIZE
  6
CONTINUOUS
 62
     7
 10
0.0
 20
0.0
 30
0.0
 40
3.0
  0
ENDBLK
  5
1A1
  8
OUTLINE
  0
ENDSEC
  0
SECTION
  2
ENTITIES
  0
LINE
  5
1A2
  8
BASIS
  6
DASHDOT
 62
     6
 10
0.0
 20
-223.30960499999981
 30
0.0
 11
0.0
 21
240.86818
 31
0.0
  0
POINT
  5
1A3
  8
ARRANGE
  6
CONTINUOUS
 62
     1
 10
0.0
 20
0.0
 30
0.0
  0
CIRCLE
  5
1A4
  8
ARRANGE
  6
CONTINUOUS
 62
     1
 10
0.0
 20
0.0
 30
0.0
 40
40.0
  0
LINE
  5
1A5
  8
BASIS
  6
DASHDOT
 62
     6
 10
-244.62419299999991
 20
0.0
 30
0.0
 11
229.003331
 21
0.0
 31
0.0
  0
LINE
  5
1A6
  8
DETAIL
  6
CONTINUOUS
 62
     5
 10
155.0
 20
-140.0
 30
0.0
 11
155.0
 21
140.0
 31
0.0
  0
LINE
  5
1A7
  8
DETAIL
  6
CONTINUOUS
 62
     5
 10
-155.0
 20
-140.0
 30
0.0
 11
-155.0
 21
140.0
 31
0.0
  0
LINE
  5
1A8
  8
DETAIL
  6
CONTINUOUS
 62
     5
 10
-140.0
 20
-155.0
 30
0.0
 11
140.0
 21
-155.0
 31
0.0
  0
LINE
  5
1A9
  8
DETAIL
  6
CONTINUOUS
 62
     5
 10
-140.0
 20
155.0
 30
0.0
 11
140.0
 21
155.0
 31
0.0
  0
ARC
  5
1AA
  8
DETAIL
  6
CONTINUOUS
 62
     5
 10
-140.0
 20
-140.0
 30
0.0
 40
15.0
 50
180.0
 51
270.0
  0
ARC
  5
1AB
  8
DETAIL
  6
CONTINUOUS
 62
     5
 10
-140.0
 20
140.0
 30
0.0
 40
15.0
 50
90.0
 51
180.0
  0
ARC
  5
1AC
  8
DETAIL
  6
CONTINUOUS
 62
     5
 10
140.0
 20
140.0
 30
0.0
 40
15.0
 50
0.0
 51
90.0
  0
ARC
  5
1AD
  8
DETAIL
  6
CONTINUOUS
 62
     5
 10
140.0
 20
-140.0
 30
0.0
 40
15.0
 50
270.0
 51
0.0
  0
LINE
  5
1AE
  8
NOTE
  6
CONTINUOUS
 62
     4
 10
-85.0
 20
-161.5
 30
0.0
 11
-85.0
 21
-121.5
 31
0.0
  0
LINE
  5
1AF
  8
NOTE
  6
CONTINUOUS
 62
     4
 10
-105.0
 20
-141.5
 30
0.0
 11
-65.0
 21
-141.5
 31
0.0
  0
LINE
  5
1B0
  8
NOTE
  6
CONTINUOUS
 62
     4
 10
-141.5
 20
-105.0
 30
0.0
 11
-141.5
 21
-65.0
 31
0.0
  0
LINE
  5
1B1
  8
NOTE
  6
CONTINUOUS
 62
     4
 10
-161.5
 20
-85.0
 30
0.0
 11
-121.5
 21
-85.0
 31
0.0
  0
LINE
  5
1B2
  8
NOTE
  6
CONTINUOUS
 62
     4
 10
-141.5
 20
65.0
 30
0.0
 11
-141.5
 21
105.0
 31
0.0
  0
LINE
  5
1B3
  8
NOTE
  6
CONTINUOUS
 62
     4
 10
-161.5
 20
85.0
 30
0.0
 11
-121.5
 21
85.0
 31
0.0
  0
LINE
  5
1B4
  8
NOTE
  6
CONTINUOUS
 62
     4
 10
-85.0
 20
121.5
 30
0.0
 11
-85.0
 21
161.5
 31
0.0
  0
LINE
  5
1B5
  8
NOTE
  6
CONTINUOUS
 62
     4
 10
-105.0
 20
141.5
 30
0.0
 11
-65.0
 21
141.5
 31
0.0
  0
LINE
  5
1B6
  8
NOTE
  6
CONTINUOUS
 62
     4
 10
85.0
 20
121.5
 30
0.0
 11
85.0
 21
161.5
 31
0.0
  0
LINE
  5
1B7
  8
NOTE
  6
CONTINUOUS
 62
     4
 10
65.0
 20
141.5
 30
0.0
 11
105.0
 21
141.5
 31
0.0
  0
LINE
  5
1B8
  8
NOTE
  6
CONTINUOUS
 62
     4
 10
141.5
 20
65.0
 30
0.0
 11
141.5
 21
105.0
 31
0.0
  0
LINE
  5
1B9
  8
NOTE
  6
CONTINUOUS
 62
     4
 10
121.5
 20
85.0
 30
0.0
 11
161.5
 21
85.0
 31
0.0
  0
LINE
  5
1BA
  8
NOTE
  6
CONTINUOUS
 62
     4
 10
141.5
 20
-105.0
 30
0.0
 11
141.5
 21
-65.0
 31
0.0
  0
LINE
  5
1BB
  8
NOTE
  6
CONTINUOUS
 62
     4
 10
121.5
 20
-85.0
 30
0.0
 11
161.5
 21
-85.0
 31
0.0
  0
LINE
  5
1BC
  8
NOTE
  6
CONTINUOUS
 62
     4
 10
85.0
 20
-161.5
 30
0.0
 11
85.0
 21
-121.5
 31
0.0
  0
LINE
  5
1BD
  8
NOTE
  6
CONTINUOUS
 62
     4
 10
65.0
 20
-141.5
 30
0.0
 11
105.0
 21
-141.5
 31
0.0
  0
LINE
  5
1BE
  8
NOTE
  6
CONTINUOUS
 62
     4
 10
110.0
 20
-130.0
 30
0.0
 11
110.0
 21
-90.0
 31
0.0
  0
LINE
  5
1BF
  8
NOTE
  6
CONTINUOUS
 62
     4
 10
90.0
 20
-110.0
 30
0.0
 11
130.0
 21
-110.0
 31
0.0
  0
LINE
  5
1C0
  8
DETAIL
  6
CONTINUOUS
 62
     5
 10
-123.0
 20
-123.0
 30
0.0
 11
-123.0
 21
123.0
 31
0.0
  0
LINE
  5
1C1
  8
DETAIL
  6
CONTINUOUS
 62
     5
 10
123.0
 20
-123.0
 30
0.0
 11
123.0
 21
123.0
 31
0.0
  0
LINE
  5
1C2
  8
DETAIL
  6
CONTINUOUS
 62
     5
 10
-123.0
 20
123.0
 30
0.0
 11
-117.0
 21
123.0
 31
0.0
  0
LINE
  5
1C3
  8
DETAIL
  6
CONTINUOUS
 62
     5
 10
-123.0
 20
-123.0
 30
0.0
 11
-117.0
 21
-123.0
 31
0.0
  0
LINE
  5
1C4
  8
DETAIL
  6
CONTINUOUS
 62
     5
 10
117.0
 20
-123.0
 30
0.0
 11
117.0
 21
123.0
 31
0.0
  0
LINE
  5
1C5
  8
DETAIL
  6
CONTINUOUS
 62
     5
 10
-117.0
 20
-123.0
 30
0.0
 11
-117.0
 21
123.0
 31
0.0
  0
LINE
  5
1C6
  8
DETAIL
  6
CONTINUOUS
 62
     5
 10
109.0
 20
-123.0
 30
0.0
 11
109.0
 21
123.0
 31
0.0
  0
LINE
  5
1C7
  8
DETAIL
  6
CONTINUOUS
 62
     5
 10
101.0
 20
-123.0
 30
0.0
 11
101.0
 21
123.0
 31
0.0
  0
LINE
  5
1C8
  8
DETAIL
  6
CONTINUOUS
 62
     5
 10
93.0
 20
-123.0
 30
0.0
 11
93.0
 21
123.0
 31
0.0
  0
LINE
  5
1C9
  8
DETAIL
  6
CONTINUOUS
 62
     5
 10
85.0
 20
-123.0
 30
0.0
 11
85.0
 21
123.0
 31
0.0
  0
LINE
  5
1CA
  8
DETAIL
  6
CONTINUOUS
 62
     5
 10
77.0
 20
-123.0
 30
0.0
 11
77.0
 21
123.0
 31
0.0
  0
LINE
  5
1CB
  8
DETAIL
  6
CONTINUOUS
 62
     5
 10
69.0
 20
-123.0
 30
0.0
 11
69.0
 21
123.0
 31
0.0
  0
LINE
  5
1CC
  8
DETAIL
  6
CONTINUOUS
 62
     5
 10
61.0
 20
-123.0
 30
0.0
 11
61.0
 21
123.0
 31
0.0
  0
LINE
  5
1CD
  8
DETAIL
  6
CONTINUOUS
 62
     5
 10
53.0
 20
-123.0
 30
0.0
 11
53.0
 21
123.0
 31
0.0
  0
LINE
  5
1CE
  8
DETAIL
  6
CONTINUOUS
 62
     5
 10
45.0
 20
-123.0
 30
0.0
 11
45.0
 21
123.0
 31
0.0
  0
LINE
  5
1CF
  8
DETAIL
  6
CONTINUOUS
 62
     5
 10
37.0
 20
-123.0
 30
0.0
 11
37.0
 21
123.0
 31
0.0
  0
LINE
  5
1D0
  8
DETAIL
  6
CONTINUOUS
 62
     5
 10
29.0
 20
-123.0
 30
0.0
 11
29.0
 21
123.0
 31
0.0
  0
LINE
  5
1D1
  8
DETAIL
  6
CONTINUOUS
 62
     5
 10
21.0
 20
-123.0
 30
0.0
 11
21.0
 21
123.0
 31
0.0
  0
LINE
  5
1D2
  8
DETAIL
  6
CONTINUOUS
 62
     5
 10
13.0
 20
-123.0
 30
0.0
 11
13.0
 21
123.0
 31
0.0
  0
LINE
  5
1D3
  8
DETAIL
  6
CONTINUOUS
 62
     5
 10
5.0
 20
-123.0
 30
0.0
 11
5.0
 21
123.0
 31
0.0
  0
LINE
  5
1D4
  8
DETAIL
  6
CONTINUOUS
 62
     5
 10
-3.0
 20
-123.0
 30
0.0
 11
-3.0
 21
123.0
 31
0.0
  0
LINE
  5
1D5
  8
DETAIL
  6
CONTINUOUS
 62
     5
 10
-11.0
 20
-123.0
 30
0.0
 11
-11.0
 21
123.0
 31
0.0
  0
LINE
  5
1D6
  8
DETAIL
  6
CONTINUOUS
 62
     5
 10
-19.0
 20
-123.0
 30
0.0
 11
-19.0
 21
123.0
 31
0.0
  0
LINE
  5
1D7
  8
DETAIL
  6
CONTINUOUS
 62
     5
 10
-27.0
 20
-123.0
 30
0.0
 11
-27.0
 21
123.0
 31
0.0
  0
LINE
  5
1D8
  8
DETAIL
  6
CONTINUOUS
 62
     5
 10
-35.0
 20
-123.0
 30
0.0
 11
-35.0
 21
123.0
 31
0.0
  0
LINE
  5
1D9
  8
DETAIL
  6
CONTINUOUS
 62
     5
 10
-43.0
 20
-123.0
 30
0.0
 11
-43.0
 21
123.0
 31
0.0
  0
LINE
  5
1DA
  8
DETAIL
  6
CONTINUOUS
 62
     5
 10
-51.0
 20
-123.0
 30
0.0
 11
-51.0
 21
123.0
 31
0.0
  0
LINE
  5
1DB
  8
DETAIL
  6
CONTINUOUS
 62
     5
 10
-59.0
 20
-123.0
 30
0.0
 11
-59.0
 21
123.0
 31
0.0
  0
LINE
  5
1DC
  8
DETAIL
  6
CONTINUOUS
 62
     5
 10
-67.0
 20
-123.0
 30
0.0
 11
-67.0
 21
123.0
 31
0.0
  0
LINE
  5
1DD
  8
DETAIL
  6
CONTINUOUS
 62
     5
 10
-75.0
 20
-123.0
 30
0.0
 11
-75.0
 21
123.0
 31
0.0
  0
LINE
  5
1DE
  8
DETAIL
  6
CONTINUOUS
 62
     5
 10
-83.0
 20
-123.0
 30
0.0
 11
-83.0
 21
123.0
 31
0.0
  0
LINE
  5
1DF
  8
DETAIL
  6
CONTINUOUS
 62
     5
 10
-91.0
 20
-123.0
 30
0.0
 11
-91.0
 21
123.0
 31
0.0
  0
LINE
  5
1E0
  8
DETAIL
  6
CONTINUOUS
 62
     5
 10
-99.0
 20
-123.0
 30
0.0
 11
-99.0
 21
123.0
 31
0.0
  0
LINE
  5
1E1
  8
DETAIL
  6
CONTINUOUS
 62
     5
 10
-107.0
 20
-123.0
 30
0.0
 11
-107.0
 21
123.0
 31
0.0
  0
LINE
  5
1E2
  8
DETAIL
  6
CONTINUOUS
 62
     5
 10
-115.0
 20
-123.0
 30
0.0
 11
-115.0
 21
123.0
 31
0.0
  0
LINE
  5
1E3
  8
DETAIL
  6
CONTINUOUS
 62
     5
 10
115.0
 20
-123.0
 30
0.0
 11
115.0
 21
123.0
 31
0.0
  0
LINE
  5
1E4
  8
DETAIL
  6
CONTINUOUS
 62
     5
 10
107.0
 20
-123.0
 30
0.0
 11
107.0
 21
123.0
 31
0.0
  0
LINE
  5
1E5
  8
DETAIL
  6
CONTINUOUS
 62
     5
 10
99.0
 20
-123.0
 30
0.0
 11
99.0
 21
123.0
 31
0.0
  0
LINE
  5
1E6
  8
DETAIL
  6
CONTINUOUS
 62
     5
 10
91.0
 20
-123.0
 30
0.0
 11
91.0
 21
123.0
 31
0.0
  0
LINE
  5
1E7
  8
DETAIL
  6
CONTINUOUS
 62
     5
 10
83.0
 20
-123.0
 30
0.0
 11
83.0
 21
123.0
 31
0.0
  0
LINE
  5
1E8
  8
DETAIL
  6
CONTINUOUS
 62
     5
 10
75.0
 20
-123.0
 30
0.0
 11
75.0
 21
123.0
 31
0.0
  0
LINE
  5
1E9
  8
DETAIL
  6
CONTINUOUS
 62
     5
 10
67.0
 20
-123.0
 30
0.0
 11
67.0
 21
123.0
 31
0.0
  0
LINE
  5
1EA
  8
DETAIL
  6
CONTINUOUS
 62
     5
 10
59.0
 20
-123.0
 30
0.0
 11
59.0
 21
123.0
 31
0.0
  0
LINE
  5
1EB
  8
DETAIL
  6
CONTINUOUS
 62
     5
 10
51.0
 20
-123.0
 30
0.0
 11
51.0
 21
123.0
 31
0.0
  0
LINE
  5
1EC
  8
DETAIL
  6
CONTINUOUS
 62
     5
 10
43.0
 20
-123.0
 30
0.0
 11
43.0
 21
123.0
 31
0.0
  0
LINE
  5
1ED
  8
DETAIL
  6
CONTINUOUS
 62
     5
 10
35.0
 20
-123.0
 30
0.0
 11
35.0
 21
123.0
 31
0.0
  0
LINE
  5
1EE
  8
DETAIL
  6
CONTINUOUS
 62
     5
 10
27.0
 20
-123.0
 30
0.0
 11
27.0
 21
123.0
 31
0.0
  0
LINE
  5
1EF
  8
DETAIL
  6
CONTINUOUS
 62
     5
 10
19.0
 20
-123.0
 30
0.0
 11
19.0
 21
123.0
 31
0.0
  0
LINE
  5
1F0
  8
DETAIL
  6
CONTINUOUS
 62
     5
 10
11.0
 20
-123.0
 30
0.0
 11
11.0
 21
123.0
 31
0.0
  0
LINE
  5
1F1
  8
DETAIL
  6
CONTINUOUS
 62
     5
 10
3.0
 20
-123.0
 30
0.0
 11
3.0
 21
123.0
 31
0.0
  0
LINE
  5
1F2
  8
DETAIL
  6
CONTINUOUS
 62
     5
 10
-5.0
 20
-123.0
 30
0.0
 11
-5.0
 21
123.0
 31
0.0
  0
LINE
  5
1F3
  8
DETAIL
  6
CONTINUOUS
 62
     5
 10
-13.0
 20
-123.0
 30
0.0
 11
-13.0
 21
123.0
 31
0.0
  0
LINE
  5
1F4
  8
DETAIL
  6
CONTINUOUS
 62
     5
 10
-21.0
 20
-123.0
 30
0.0
 11
-21.0
 21
123.0
 31
0.0
  0
LINE
  5
1F5
  8
DETAIL
  6
CONTINUOUS
 62
     5
 10
-29.0
 20
-123.0
 30
0.0
 11
-29.0
 21
123.0
 31
0.0
  0
LINE
  5
1F6
  8
DETAIL
  6
CONTINUOUS
 62
     5
 10
-37.0
 20
-123.0
 30
0.0
 11
-37.0
 21
123.0
 31
0.0
  0
LINE
  5
1F7
  8
DETAIL
  6
CONTINUOUS
 62
     5
 10
-45.0
 20
-123.0
 30
0.0
 11
-45.0
 21
123.0
 31
0.0
  0
LINE
  5
1F8
  8
DETAIL
  6
CONTINUOUS
 62
     5
 10
-53.0
 20
-123.0
 30
0.0
 11
-53.0
 21
123.0
 31
0.0
  0
LINE
  5
1F9
  8
DETAIL
  6
CONTINUOUS
 62
     5
 10
-61.0
 20
-123.0
 30
0.0
 11
-61.0
 21
123.0
 31
0.0
  0
LINE
  5
1FA
  8
DETAIL
  6
CONTINUOUS
 62
     5
 10
-69.0
 20
-123.0
 30
0.0
 11
-69.0
 21
123.0
 31
0.0
  0
LINE
  5
1FB
  8
DETAIL
  6
CONTINUOUS
 62
     5
 10
-77.0
 20
-123.0
 30
0.0
 11
-77.0
 21
123.0
 31
0.0
  0
LINE
  5
1FC
  8
DETAIL
  6
CONTINUOUS
 62
     5
 10
-85.0
 20
-123.0
 30
0.0
 11
-85.0
 21
123.0
 31
0.0
  0
LINE
  5
1FD
  8
DETAIL
  6
CONTINUOUS
 62
     5
 10
-93.0
 20
-123.0
 30
0.0
 11
-93.0
 21
123.0
 31
0.0
  0
LINE
  5
1FE
  8
DETAIL
  6
CONTINUOUS
 62
     5
 10
-101.0
 20
-123.0
 30
0.0
 11
-101.0
 21
123.0
 31
0.0
  0
LINE
  5
1FF
  8
DETAIL
  6
CONTINUOUS
 62
     5
 10
-109.0
 20
-123.0
 30
0.0
 11
-109.0
 21
123.0
 31
0.0
  0
LINE
  5
200
  8
DETAIL
  6
CONTINUOUS
 62
     5
 10
-115.0
 20
123.0
 30
0.0
 11
-109.0
 21
123.0
 31
0.0
  0
LINE
  5
201
  8
DETAIL
  6
CONTINUOUS
 62
     5
 10
-107.0
 20
123.0
 30
0.0
 11
-101.0
 21
123.0
 31
0.0
  0
LINE
  5
202
  8
DETAIL
  6
CONTINUOUS
 62
     5
 10
-99.0
 20
123.0
 30
0.0
 11
-93.0
 21
123.0
 31
0.0
  0
LINE
  5
203
  8
DETAIL
  6
CONTINUOUS
 62
     5
 10
-91.0
 20
123.0
 30
0.0
 11
-85.0
 21
123.0
 31
0.0
  0
LINE
  5
204
  8
DETAIL
  6
CONTINUOUS
 62
     5
 10
-83.0
 20
123.0
 30
0.0
 11
-77.0
 21
123.0
 31
0.0
  0
LINE
  5
205
  8
DETAIL
  6
CONTINUOUS
 62
     5
 10
-75.0
 20
123.0
 30
0.0
 11
-69.0
 21
123.0
 31
0.0
  0
LINE
  5
206
  8
DETAIL
  6
CONTINUOUS
 62
     5
 10
-67.0
 20
123.0
 30
0.0
 11
-61.0
 21
123.0
 31
0.0
  0
LINE
  5
207
  8
DETAIL
  6
CONTINUOUS
 62
     5
 10
-59.0
 20
123.0
 30
0.0
 11
-53.0
 21
123.0
 31
0.0
  0
LINE
  5
208
  8
DETAIL
  6
CONTINUOUS
 62
     5
 10
-51.0
 20
123.0
 30
0.0
 11
-45.0
 21
123.0
 31
0.0
  0
LINE
  5
209
  8
DETAIL
  6
CONTINUOUS
 62
     5
 10
-43.0
 20
123.0
 30
0.0
 11
-37.0
 21
123.0
 31
0.0
  0
LINE
  5
20A
  8
DETAIL
  6
CONTINUOUS
 62
     5
 10
-35.0
 20
123.0
 30
0.0
 11
-29.0
 21
123.0
 31
0.0
  0
LINE
  5
20B
  8
DETAIL
  6
CONTINUOUS
 62
     5
 10
-27.0
 20
123.0
 30
0.0
 11
-21.0
 21
123.0
 31
0.0
  0
LINE
  5
20C
  8
DETAIL
  6
CONTINUOUS
 62
     5
 10
-19.0
 20
123.0
 30
0.0
 11
-13.0
 21
123.0
 31
0.0
  0
LINE
  5
20D
  8
DETAIL
  6
CONTINUOUS
 62
     5
 10
-11.0
 20
123.0
 30
0.0
 11
-5.0
 21
123.0
 31
0.0
  0
LINE
  5
20E
  8
DETAIL
  6
CONTINUOUS
 62
     5
 10
-3.0
 20
123.0
 30
0.0
 11
3.0
 21
123.0
 31
0.0
  0
LINE
  5
20F
  8
DETAIL
  6
CONTINUOUS
 62
     5
 10
5.0
 20
123.0
 30
0.0
 11
11.0
 21
123.0
 31
0.0
  0
LINE
  5
210
  8
DETAIL
  6
CONTINUOUS
 62
     5
 10
13.0
 20
123.0
 30
0.0
 11
19.0
 21
123.0
 31
0.0
  0
LINE
  5
211
  8
DETAIL
  6
CONTINUOUS
 62
     5
 10
21.0
 20
123.0
 30
0.0
 11
27.0
 21
123.0
 31
0.0
  0
LINE
  5
212
  8
DETAIL
  6
CONTINUOUS
 62
     5
 10
29.0
 20
123.0
 30
0.0
 11
35.0
 21
123.0
 31
0.0
  0
LINE
  5
213
  8
DETAIL
  6
CONTINUOUS
 62
     5
 10
37.0
 20
123.0
 30
0.0
 11
43.0
 21
123.0
 31
0.0
  0
LINE
  5
214
  8
DETAIL
  6
CONTINUOUS
 62
     5
 10
45.0
 20
123.0
 30
0.0
 11
51.0
 21
123.0
 31
0.0
  0
LINE
  5
215
  8
DETAIL
  6
CONTINUOUS
 62
     5
 10
53.0
 20
123.0
 30
0.0
 11
59.0
 21
123.0
 31
0.0
  0
LINE
  5
216
  8
DETAIL
  6
CONTINUOUS
 62
     5
 10
61.0
 20
123.0
 30
0.0
 11
67.0
 21
123.0
 31
0.0
  0
LINE
  5
217
  8
DETAIL
  6
CONTINUOUS
 62
     5
 10
69.0
 20
123.0
 30
0.0
 11
75.0
 21
123.0
 31
0.0
  0
LINE
  5
218
  8
DETAIL
  6
CONTINUOUS
 62
     5
 10
77.0
 20
123.0
 30
0.0
 11
83.0
 21
123.0
 31
0.0
  0
LINE
  5
219
  8
DETAIL
  6
CONTINUOUS
 62
     5
 10
85.0
 20
123.0
 30
0.0
 11
91.0
 21
123.0
 31
0.0
  0
LINE
  5
21A
  8
DETAIL
  6
CONTINUOUS
 62
     5
 10
93.0
 20
123.0
 30
0.0
 11
99.0
 21
123.0
 31
0.0
  0
LINE
  5
21B
  8
DETAIL
  6
CONTINUOUS
 62
     5
 10
101.0
 20
123.0
 30
0.0
 11
107.0
 21
123.0
 31
0.0
  0
LINE
  5
21C
  8
DETAIL
  6
CONTINUOUS
 62
     5
 10
109.0
 20
123.0
 30
0.0
 11
115.0
 21
123.0
 31
0.0
  0
LINE
  5
21D
  8
DETAIL
  6
CONTINUOUS
 62
     5
 10
117.0
 20
123.0
 30
0.0
 11
123.0
 21
123.0
 31
0.0
  0
LINE
  5
21E
  8
DETAIL
  6
CONTINUOUS
 62
     5
 10
-115.0
 20
-123.0
 30
0.0
 11
-109.0
 21
-123.0
 31
0.0
  0
LINE
  5
21F
  8
DETAIL
  6
CONTINUOUS
 62
     5
 10
-107.0
 20
-123.0
 30
0.0
 11
-101.0
 21
-123.0
 31
0.0
  0
LINE
  5
220
  8
DETAIL
  6
CONTINUOUS
 62
     5
 10
-99.0
 20
-123.0
 30
0.0
 11
-93.0
 21
-123.0
 31
0.0
  0
LINE
  5
221
  8
DETAIL
  6
CONTINUOUS
 62
     5
 10
-91.0
 20
-123.0
 30
0.0
 11
-85.0
 21
-123.0
 31
0.0
  0
LINE
  5
222
  8
DETAIL
  6
CONTINUOUS
 62
     5
 10
-83.0
 20
-123.0
 30
0.0
 11
-77.0
 21
-123.0
 31
0.0
  0
LINE
  5
223
  8
DETAIL
  6
CONTINUOUS
 62
     5
 10
-75.0
 20
-123.0
 30
0.0
 11
-69.0
 21
-123.0
 31
0.0
  0
LINE
  5
224
  8
DETAIL
  6
CONTINUOUS
 62
     5
 10
-67.0
 20
-123.0
 30
0.0
 11
-61.0
 21
-123.0
 31
0.0
  0
LINE
  5
225
  8
DETAIL
  6
CONTINUOUS
 62
     5
 10
-59.0
 20
-123.0
 30
0.0
 11
-53.0
 21
-123.0
 31
0.0
  0
LINE
  5
226
  8
DETAIL
  6
CONTINUOUS
 62
     5
 10
-51.0
 20
-123.0
 30
0.0
 11
-45.0
 21
-123.0
 31
0.0
  0
LINE
  5
227
  8
DETAIL
  6
CONTINUOUS
 62
     5
 10
-43.0
 20
-123.0
 30
0.0
 11
-37.0
 21
-123.0
 31
0.0
  0
LINE
  5
228
  8
DETAIL
  6
CONTINUOUS
 62
     5
 10
-35.0
 20
-123.0
 30
0.0
 11
-29.0
 21
-123.0
 31
0.0
  0
LINE
  5
229
  8
DETAIL
  6
CONTINUOUS
 62
     5
 10
-27.0
 20
-123.0
 30
0.0
 11
-21.0
 21
-123.0
 31
0.0
  0
LINE
  5
22A
  8
DETAIL
  6
CONTINUOUS
 62
     5
 10
-19.0
 20
-123.0
 30
0.0
 11
-13.0
 21
-123.0
 31
0.0
  0
LINE
  5
22B
  8
DETAIL
  6
CONTINUOUS
 62
     5
 10
-11.0
 20
-123.0
 30
0.0
 11
-5.0
 21
-123.0
 31
0.0
  0
LINE
  5
22C
  8
DETAIL
  6
CONTINUOUS
 62
     5
 10
-3.0
 20
-123.0
 30
0.0
 11
3.0
 21
-123.0
 31
0.0
  0
LINE
  5
22D
  8
DETAIL
  6
CONTINUOUS
 62
     5
 10
5.0
 20
-123.0
 30
0.0
 11
11.0
 21
-123.0
 31
0.0
  0
LINE
  5
22E
  8
DETAIL
  6
CONTINUOUS
 62
     5
 10
13.0
 20
-123.0
 30
0.0
 11
19.0
 21
-123.0
 31
0.0
  0
LINE
  5
22F
  8
DETAIL
  6
CONTINUOUS
 62
     5
 10
21.0
 20
-123.0
 30
0.0
 11
27.0
 21
-123.0
 31
0.0
  0
LINE
  5
230
  8
DETAIL
  6
CONTINUOUS
 62
     5
 10
29.0
 20
-123.0
 30
0.0
 11
35.0
 21
-123.0
 31
0.0
  0
LINE
  5
231
  8
DETAIL
  6
CONTINUOUS
 62
     5
 10
37.0
 20
-123.0
 30
0.0
 11
43.0
 21
-123.0
 31
0.0
  0
LINE
  5
232
  8
DETAIL
  6
CONTINUOUS
 62
     5
 10
45.0
 20
-123.0
 30
0.0
 11
51.0
 21
-123.0
 31
0.0
  0
LINE
  5
233
  8
DETAIL
  6
CONTINUOUS
 62
     5
 10
53.0
 20
-123.0
 30
0.0
 11
59.0
 21
-123.0
 31
0.0
  0
LINE
  5
234
  8
DETAIL
  6
CONTINUOUS
 62
     5
 10
61.0
 20
-123.0
 30
0.0
 11
67.0
 21
-123.0
 31
0.0
  0
LINE
  5
235
  8
DETAIL
  6
CONTINUOUS
 62
     5
 10
69.0
 20
-123.0
 30
0.0
 11
75.0
 21
-123.0
 31
0.0
  0
LINE
  5
236
  8
DETAIL
  6
CONTINUOUS
 62
     5
 10
77.0
 20
-123.0
 30
0.0
 11
83.0
 21
-123.0
 31
0.0
  0
LINE
  5
237
  8
DETAIL
  6
CONTINUOUS
 62
     5
 10
85.0
 20
-123.0
 30
0.0
 11
91.0
 21
-123.0
 31
0.0
  0
LINE
  5
238
  8
DETAIL
  6
CONTINUOUS
 62
     5
 10
93.0
 20
-123.0
 30
0.0
 11
99.0
 21
-123.0
 31
0.0
  0
LINE
  5
239
  8
DETAIL
  6
CONTINUOUS
 62
     5
 10
101.0
 20
-123.0
 30
0.0
 11
107.0
 21
-123.0
 31
0.0
  0
LINE
  5
23A
  8
DETAIL
  6
CONTINUOUS
 62
     5
 10
109.0
 20
-123.0
 30
0.0
 11
115.0
 21
-123.0
 31
0.0
  0
LINE
  5
23B
  8
DETAIL
  6
CONTINUOUS
 62
     5
 10
117.0
 20
-123.0
 30
0.0
 11
123.0
 21
-123.0
 31
0.0
  0
LINE
  5
23C
  8
SIZE
  6
CONTINUOUS
 62
    30
 10
85.0
 20
-181.4999999999998
 30
0.0
 11
85.0
 21
-392.71649899999989
 31
0.0
  0
LINE
  5
23D
  8
SIZE
  6
CONTINUOUS
 62
    30
 10
-85.0
 20
-181.4999999999998
 30
0.0
 11
-85.0
 21
-392.71649899999989
 31
0.0
  0
LINE
  5
23E
  8
SIZE
  6
CONTINUOUS
 62
    30
 10
83.0
 20
-362.716499
 30
0.0
 11
-83.0
 21
-362.716499
 31
0.0
  0
TEXT
  5
23F
  8
SIZE
  6
CONTINUOUS
 62
    30
 10
-68.571428571428569
 20
-330.71649899999989
 30
0.0
 40
64.0
  1
170
 41
0.9
 72
     1
 11
0.0
 21
-330.71649899999989
 31
0.0
  0
CIRCLE
  5
240
  8
SIZE
  6
CONTINUOUS
 62
    30
 10
85.0
 20
-362.716499
 30
0.0
 40
6.0
  0
CIRCLE
  5
241
  8
SIZE
  6
CONTINUOUS
 62
    30
 10
-85.0
 20
-362.716499
 30
0.0
 40
6.0
  0
LINE
  5
245
  8
SIZE
  6
CONTINUOUS
 62
    30
 10
141.5
 20
-125.0
 30
0.0
 11
141.5
 21
-509.64908899999989
 31
0.0
  0
LINE
  5
246
  8
SIZE
  6
CONTINUOUS
 62
    30
 10
-141.5
 20
-125.0
 30
0.0
 11
-141.5
 21
-509.64908899999989
 31
0.0
  0
LINE
  5
247
  8
SIZE
  6
CONTINUOUS
 62
    30
 10
139.5
 20
-479.64908899999989
 30
0.0
 11
-139.5
 21
-479.64908899999989
 31
0.0
  0
TEXT
  5
248
  8
SIZE
  6
CONTINUOUS
 62
    30
 10
-74.057142857142836
 20
-447.649089
 30
0.0
 40
64.0
  1
283
 41
0.9
 72
     1
 11
0.0
 21
-447.649089
 31
0.0
  0
CIRCLE
  5
249
  8
SIZE
  6
CONTINUOUS
 62
    30
 10
141.5
 20
-479.64908899999989
 30
0.0
 40
6.0
  0
CIRCLE
  5
24A
  8
SIZE
  6
CONTINUOUS
 62
    30
 10
-141.5
 20
-479.64908899999989
 30
0.0
 40
6.0
  0
LINE
  5
24E
  8
SIZE
  6
CONTINUOUS
 62
    30
 10
181.4999999999998
 20
-85.0
 30
0.0
 11
387.22506299999992
 21
-85.0
 31
0.0
  0
LINE
  5
24F
  8
SIZE
  6
CONTINUOUS
 62
    30
 10
181.4999999999998
 20
85.0
 30
0.0
 11
387.22506299999992
 21
85.0
 31
0.0
  0
LINE
  5
250
  8
SIZE
  6
CONTINUOUS
 62
    30
 10
357.22506299999992
 20
-83.0
 30
0.0
 11
357.22506299999992
 21
83.0
 31
0.0
  0
TEXT
  5
251
  8
SIZE
  6
CONTINUOUS
 62
    30
 10
336.74455699999999
 20
-68.117498571428555
 30
0.0
 40
64.0
  1
170
 50
90.0
 41
0.9
 72
     1
 11
336.74455699999999
 21
0.45393
 31
0.0
  0
CIRCLE
  5
252
  8
SIZE
  6
CONTINUOUS
 62
    30
 10
357.22506299999992
 20
-85.0
 30
0.0
 40
6.0
  0
CIRCLE
  5
253
  8
SIZE
  6
CONTINUOUS
 62
    30
 10
357.22506299999992
 20
85.0
 30
0.0
 40
6.0
  0
LINE
  5
257
  8
SIZE
  6
CONTINUOUS
 62
    30
 10
125.0
 20
141.5
 30
0.0
 11
536.19944599999997
 21
141.5
 31
0.0
  0
LINE
  5
258
  8
SIZE
  6
CONTINUOUS
 62
    30
 10
125.0
 20
-141.5
 30
0.0
 11
536.19944599999997
 21
-141.5
 31
0.0
  0
LINE
  5
259
  8
SIZE
  6
CONTINUOUS
 62
    30
 10
506.19944600000002
 20
139.5
 30
0.0
 11
506.19944600000002
 21
-139.5
 31
0.0
  0
TEXT
  5
25A
  8
SIZE
  6
CONTINUOUS
 62
    30
 10
483.33515399999987
 20
-75.43481285714283
 30
0.0
 40
64.0
  1
283
 50
90.0
 41
0.9
 72
     1
 11
483.33515399999987
 21
-1.37767
 31
0.0
  0
CIRCLE
  5
25B
  8
SIZE
  6
CONTINUOUS
 62
    30
 10
506.19944600000002
 20
141.5
 30
0.0
 40
6.0
  0
CIRCLE
  5
25C
  8
SIZE
  6
CONTINUOUS
 62
    30
 10
506.19944600000002
 20
-141.5
 30
0.0
 40
6.0
  0
LINE
  5
260
  8
SIZE
  6
CONTINUOUS
 62
    30
 10
160.0
 20
155.0
 30
0.0
 11
713.63893099999996
 21
155.0
 31
0.0
  0
LINE
  5
261
  8
SIZE
  6
CONTINUOUS
 62
    30
 10
160.0
 20
-155.0
 30
0.0
 11
713.63893099999996
 21
-155.0
 31
0.0
  0
LINE
  5
262
  8
SIZE
  6
CONTINUOUS
 62
    30
 10
683.63893099999996
 20
153.0
 30
0.0
 11
683.63893099999996
 21
-153.0
 31
0.0
  0
TEXT
  5
263
  8
SIZE
  6
CONTINUOUS
 62
    30
 10
651.91433600000005
 20
-102.76589857142849
 30
0.0
 40
64.0
  1
□310
 50
90.0
 41
0.9
 72
     1
 11
651.91433600000005
 21
2.2855300000000001
 31
0.0
  0
CIRCLE
  5
264
  8
SIZE
  6
CONTINUOUS
 62
    30
 10
683.63893099999996
 20
155.0
 30
0.0
 40
6.0
  0
CIRCLE
  5
265
  8
SIZE
  6
CONTINUOUS
 62
    30
 10
683.63893099999996
 20
-155.0
 30
0.0
 40
6.0
  0
LINE
  5
269
  8
NOTE
  6
CONTINUOUS
 62
     4
 10
110.0
 20
-110.0
 30
0.0
 11
226.20302699999991
 21
-255.93502699999991
 31
0.0
  0
LINE
  5
26A
  8
NOTE
  6
CONTINUOUS
 62
     4
 10
338.54596600000002
 20
-255.93502699999991
 30
0.0
 11
226.20302699999991
 21
-255.93502699999991
 31
0.0
  0
LINE
  5
26B
  8
NOTE
  6
CONTINUOUS
 62
     4
 10
141.98845900000001
 20
-133.3870049999999
 30
0.0
 11
109.71056900000001
 21
-109.76206499999979
 31
0.0
  0
LINE
  5
26C
  8
NOTE
  6
CONTINUOUS
 62
     4
 10
109.71056900000001
 20
-109.76206499999979
 30
0.0
 11
125.85157099999979
 21
-146.3608089999999
 31
0.0
  0
TEXT
  5
26D
  8
NOTE
  6
CONTINUOUS
 62
     4
 10
244.89087599999999
 20
-236.087727
 30
0.0
 40
64.0
  1
EL
 41
0.9
  0
LINE
  5
26E
  8
NOTE
  6
CONTINUOUS
 62
     4
 10
85.0
 20
-141.5
 30
0.0
 11
267.51655199999982
 21
-427.48861099999988
 31
0.0
  0
LINE
  5
26F
  8
NOTE
  6
CONTINUOUS
 62
     4
 10
267.51655199999982
 20
-427.48861099999988
 30
0.0
 11
761.00778500000001
 21
-431.80368600000003
 31
0.0
  0
TEXT
  5
270
  8
NOTE
  6
CONTINUOUS
 62
     4
 10
301.843411
 20
-404.22046999999998
 30
0.0
 40
64.0
  1
8×φ5取付穴
 41
0.9
  0
LINE
  5
271
  8
NOTE
  6
CONTINUOUS
 62
     4
 10
114.6769249999999
 20
-168.31939800000001
 30
0.0
 11
85.0
 21
-141.5
 31
0.0
  0
LINE
  5
272
  8
NOTE
  6
CONTINUOUS
 62
     4
 10
85.0
 20
-141.5
 30
0.0
 11
97.291272000000006
 21
-179.56474299999991
 31
0.0
  0
ARC
  5
273
  8
OUTLINE
  6
CONTINUOUS
 62
     3
 10
-140.0
 20
140.0
 30
0.0
 40
15.0
 50
90.0
 51
180.0
  0
LINE
  5
274
  8
OUTLINE
  6
CONTINUOUS
 62
     3
 10
-140.0
 20
155.0
 30
0.0
 11
140.0
 21
155.0
 31
0.0
  0
LINE
  5
275
  8
OUTLINE
  6
CONTINUOUS
 62
     3
 10
-155.0
 20
-140.0
 30
0.0
 11
-155.0
 21
140.0
 31
0.0
  0
ARC
  5
276
  8
OUTLINE
  6
CONTINUOUS
 62
     3
 10
-140.0
 20
-140.0
 30
0.0
 40
15.0
 50
180.0
 51
270.0
  0
LINE
  5
277
  8
OUTLINE
  6
CONTINUOUS
 62
     3
 10
-140.0
 20
-155.0
 30
0.0
 11
140.0
 21
-155.0
 31
0.0
  0
ARC
  5
278
  8
OUTLINE
  6
CONTINUOUS
 62
     3
 10
140.0
 20
-140.0
 30
0.0
 40
15.0
 50
270.0
 51
0.0
  0
LINE
  5
279
  8
OUTLINE
  6
CONTINUOUS
 62
     3
 10
155.0
 20
-140.0
 30
0.0
 11
155.0
 21
140.0
 31
0.0
  0
ARC
  5
27A
  8
OUTLINE
  6
CONTINUOUS
 62
     3
 10
140.0
 20
140.0
 30
0.0
 40
15.0
 50
0.0
 51
90.0
  0
CIRCLE
  5
27B
  8
FIX
  6
CONTINUOUS
 62
    11
 10
85.0
 20
-141.5
 30
0.0
 40
2.5
  0
CIRCLE
  5
27C
  8
FIX
  6
CONTINUOUS
 62
    11
 10
141.5
 20
-85.0
 30
0.0
 40
2.5
  0
CIRCLE
  5
27D
  8
FIX
  6
CONTINUOUS
 62
    11
 10
141.5
 20
85.0
 30
0.0
 40
2.5
  0
CIRCLE
  5
27E
  8
FIX
  6
CONTINUOUS
 62
    11
 10
85.0
 20
141.5
 30
0.0
 40
2.5
  0
CIRCLE
  5
27F
  8
FIX
  6
CONTINUOUS
 62
    11
 10
-85.0
 20
141.5
 30
0.0
 40
2.5
  0
CIRCLE
  5
280
  8
FIX
  6
CONTINUOUS
 62
    11
 10
-141.5
 20
85.0
 30
0.0
 40
2.5
  0
CIRCLE
  5
281
  8
FIX
  6
CONTINUOUS
 62
    11
 10
-141.5
 20
-85.0
 30
0.0
 40
2.5
  0
CIRCLE
  5
282
  8
FIX
  6
CONTINUOUS
 62
    11
 10
-85.0
 20
-141.5
 30
0.0
 40
2.5
  0
TEXT
  5
283
  8
ETC
  6
CONTINUOUS
 62
    61
 10
701.74452361808289
 20
321.83111102510418
 30
0.0
 40
64.0
  1
V-20MEX2-SW_6
 41
0.9
  0
TEXT
  5
284
  8
ETC
  6
CONTINUOUS
 62
    61
 10
846.76116126716897
 20
126.6965648988344
 30
0.0
 40
50.0
  1
V-20MEX2-SW
 41
0.9
  0
TEXT
  5
285
  8
ETC
  6
CONTINUOUS
 62
    61
 10
704.57889307099867
 20
211.37295813849349
 30
0.0
 40
64.0
  1
換気扇
 41
0.9
  0
ENDSEC
  0
EOF
