  0
SECTION
  2
HEADER
  9
$ACADVER
  1
AC1009
  9
$INSBASE
 10
0.0
 20
0.0
 30
0.0
  9
$EXTMIN
 10
-695.62438199999997
 20
-548.86145699999997
 30
0.0
  9
$EXTMAX
 10
1320.5205435192081
 20
660.52295442857121
 30
0.0
  9
$LIMMIN
 10
-2970.0
 20
-2100.0
  9
$LIMMAX
 10
2970.0
 20
2100.0
  9
$ORTHOMODE
 70
     1
  9
$REGENMODE
 70
     1
  9
$FILLMODE
 70
     1
  9
$QTEXTMODE
 70
     0
  9
$MIRRTEXT
 70
     0
  9
$DRAGMODE
 70
     2
  9
$LTSCALE
 40
20.0
  9
$OSMODE
 70
   166
  9
$ATTMODE
 70
     1
  9
$TEXTSIZE
 40
64.0
  9
$TRACEWID
 40
0.05
  9
$TEXTSTYLE
  7
STANDARD
  9
$CLAYER
  8
OUTLINE
  9
$CELTYPE
  6
CONTINUOUS
  9
$CECOLOR
 62
     3
  9
$DIMSCALE
 40
1.0
  9
$DIMASZ
 40
40.0
  9
$DIMEXO
 40
20.0
  9
$DIMDLI
 40
200.0
  9
$DIMRND
 40
0.0
  9
$DIMDLE
 40
0.0
  9
$DIMEXE
 40
30.0
  9
$DIMTP
 40
0.0
  9
$DIMTM
 40
0.0
  9
$DIMTXT
 40
64.0
  9
$DIMCEN
 40
0.09
  9
$DIMTSZ
 40
0.0
  9
$DIMTOL
 70
     0
  9
$DIMLIM
 70
     0
  9
$DIMTIH
 70
     0
  9
$DIMTOH
 70
     0
  9
$DIMSE1
 70
     0
  9
$DIMSE2
 70
     0
  9
$DIMTAD
 70
     1
  9
$DIMZIN
 70
     8
  9
$DIMBLK
  1
NONE
  9
$DIMASO
 70
     1
  9
$DIMSHO
 70
     0
  9
$DIMPOST
  1

  9
$DIMAPOST
  1

  9
$DIMALT
 70
     0
  9
$DIMALTD
 70
     2
  9
$DIMALTF
 40
25.399999999999999
  9
$DIMLFAC
 40
1.0
  9
$DIMTOFL
 70
     1
  9
$DIMTVP
 40
0.0
  9
$DIMTIX
 70
     1
  9
$DIMSOXD
 70
     0
  9
$DIMSAH
 70
     0
  9
$DIMBLK1
  1

  9
$DIMBLK2
  1

  9
$DIMSTYLE
  2
STANDARD
  9
$DIMCLRD
 70
   256
  9
$DIMCLRE
 70
   256
  9
$DIMCLRT
 70
   256
  9
$DIMTFAC
 40
1.0
  9
$DIMGAP
 40
20.0
  9
$LUNITS
 70
     2
  9
$LUPREC
 70
     4
  9
$SKETCHINC
 40
0.1
  9
$FILLETRAD
 40
0.0
  9
$AUNITS
 70
     1
  9
$AUPREC
 70
     3
  9
$MENU
  1
ACAD
  9
$ELEVATION
 40
0.0
  9
$PELEVATION
 40
0.0
  9
$THICKNESS
 40
0.0
  9
$LIMCHECK
 70
     0
  9
$BLIPMODE
 70
     0
  9
$CHAMFERA
 40
0.0
  9
$CHAMFERB
 40
0.0
  9
$SKPOLY
 70
     0
  9
$TDCREATE
 40
2450690.6190856481
  9
$TDUPDATE
 40
2454203.746332638
  9
$TDINDWG
 40
0.1348898958
  9
$TDUSRTIMER
 40
0.134889537
  9
$USRTIMER
 70
     1
  9
$ANGBASE
 50
0.0
  9
$ANGDIR
 70
     0
  9
$PDMODE
 70
     3
  9
$PDSIZE
 40
-2.0
  9
$PLINEWID
 40
0.0
  9
$COORDS
 70
     2
  9
$SPLFRAME
 70
     0
  9
$SPLINETYPE
 70
     6
  9
$SPLINESEGS
 70
     8
  9
$ATTDIA
 70
     0
  9
$ATTREQ
 70
     1
  9
$HANDLING
 70
 22529
  9
$HANDSEED
  5
425
  9
$SURFTAB1
 70
     6
  9
$SURFTAB2
 70
     6
  9
$SURFTYPE
 70
     6
  9
$SURFU
 70
     6
  9
$SURFV
 70
     6
  9
$UCSNAME
  2

  9
$UCSORG
 10
0.0
 20
0.0
 30
0.0
  9
$UCSXDIR
 10
1.0
 20
0.0
 30
0.0
  9
$UCSYDIR
 10
0.0
 20
1.0
 30
0.0
  9
$PUCSNAME
  2

  9
$PUCSORG
 10
0.0
 20
0.0
 30
0.0
  9
$PUCSXDIR
 10
1.0
 20
0.0
 30
0.0
  9
$PUCSYDIR
 10
0.0
 20
1.0
 30
0.0
  9
$USERI1
 70
     0
  9
$USERI2
 70
     0
  9
$USERI3
 70
     0
  9
$USERI4
 70
     0
  9
$USERI5
 70
     0
  9
$USERR1
 40
20.0
  9
$USERR2
 40
0.0
  9
$USERR3
 40
0.0
  9
$USERR4
 40
0.0
  9
$USERR5
 40
0.0
  9
$WORLDVIEW
 70
     1
  9
$SHADEDGE
 70
     3
  9
$SHADEDIF
 70
    70
  9
$TILEMODE
 70
     1
  9
$MAXACTVP
 70
    48
  9
$PLIMCHECK
 70
     0
  9
$PEXTMIN
 10
-1.0000000000000000E+020
 20
-1.0000000000000000E+020
 30
-1.0000000000000000E+020
  9
$PEXTMAX
 10
1.0000000000000000E+020
 20
1.0000000000000000E+020
 30
1.0000000000000000E+020
  9
$PLIMMIN
 10
0.0
 20
0.0
  9
$PLIMMAX
 10
12.0
 20
9.0
  9
$UNITMODE
 70
     0
  9
$VISRETAIN
 70
     0
  9
$PLINEGEN
 70
     0
  9
$PSLTSCALE
 70
     0
  0
ENDSEC
  0
SECTION
  2
TABLES
  0
TABLE
  2
VPORT
 70
     3
  0
VPORT
  2
*ACTIVE
 70
     0
 10
0.0
 20
0.0
 11
1.0
 21
1.0
 12
312.45123482796129
 22
54.646619339532549
 13
0.0
 23
0.0
 14
50.0
 24
50.0
 15
400.0
 25
400.0
 16
0.0
 26
0.0
 36
1.0
 17
0.0
 27
0.0
 37
0.0
 40
1346.755821079928
 41
1.672794117647058
 42
50.0
 43
0.0
 44
0.0
 50
0.0
 51
0.0
 71
     0
 72
  1000
 73
     1
 74
     0
 75
     0
 76
     0
 77
     0
 78
     0
  0
ENDTAB
  0
TABLE
  2
LTYPE
 70
     2
  0
LTYPE
  2
CONTINUOUS
 70
     0
  3
実線
 72
    65
 73
     0
 40
0.0
  0
LTYPE
  2
DASHDOT
 70
     0
  3
____ _ ____ _ ____ _ ____ _ ____ _ ____ _ ____
 72
    65
 73
     4
 40
5.5
 49
4.0
 49
-0.6
 49
0.3
 49
-0.6
  0
ENDTAB
  0
TABLE
  2
LAYER
 70
    12
  0
LAYER
  2
0
 70
     0
 62
     7
  6
CONTINUOUS
  0
LAYER
  2
NOTE
 70
     0
 62
     4
  6
CONTINUOUS
  0
LAYER
  2
OUTLINE
 70
     0
 62
     3
  6
CONTINUOUS
  0
LAYER
  2
DETAIL
 70
     0
 62
     5
  6
CONTINUOUS
  0
LAYER
  2
BASIS
 70
     0
 62
     6
  6
DASHDOT
  0
LAYER
  2
SIZE
 70
     0
 62
    30
  6
CONTINUOUS
  0
LAYER
  2
DEFPOINTS
 70
     0
 62
     7
  6
CONTINUOUS
  0
LAYER
  2
FIX
 70
     0
 62
    11
  6
CONTINUOUS
  0
LAYER
  2
ARRANGE
 70
     0
 62
     1
  6
CONTINUOUS
  0
LAYER
  2
ETC
 70
     0
 62
    61
  6
CONTINUOUS
  0
LAYER
  2
SERVICESPACE
 70
     0
 62
     2
  6
DASHDOT
  0
LAYER
  2
SYMBOLLINE
 70
     0
 62
    15
  6
CONTINUOUS
  0
ENDTAB
  0
TABLE
  2
STYLE
 70
     1
  0
STYLE
  2
STANDARD
 70
     0
 40
0.0
 41
0.9
 50
0.0
 71
     0
 42
64.0
  3
SIMPLEX
  4
BIGFONT
  0
ENDTAB
  0
TABLE
  2
VIEW
 70
     1
  0
VIEW
  2
ALL
 70
     0
 40
4282.6198079999967
 10
0.0
 20
41.309903999999989
 41
5940.0
 11
0.0
 21
0.0
 31
1.0
 12
0.0
 22
0.0
 32
0.0
 42
50.0
 43
0.0
 44
0.0
 50
0.0
 71
     0
  0
ENDTAB
  0
TABLE
  2
UCS
 70
     0
  0
ENDTAB
  0
TABLE
  2
APPID
 70
     1
  0
APPID
  2
ACAD
 70
     0
  0
ENDTAB
  0
TABLE
  2
DIMSTYLE
 70
     1
  0
DIMSTYLE
  2
STANDARD
 70
     0
  3

  4

  5

  6

  7

 40
1.0
 41
0.18
 42
0.0625
 43
0.38
 44
0.18
 45
0.0
 46
0.0
 47
0.0
 48
0.0
140
0.18
141
0.09
142
0.0
143
25.399999999999999
144
1.0
145
0.0
146
1.0
147
0.09
 71
     0
 72
     0
 73
     1
 74
     1
 75
     0
 76
     0
 77
     0
 78
     0
170
     0
171
     2
172
     0
173
     0
174
     0
175
     0
176
     7
177
     7
178
     7
  0
ENDTAB
  0
ENDSEC
  0
SECTION
  2
BLOCKS
  0
BLOCK
  8
0
  2
$MODEL_SPACE
 70
     0
 10
0.0
 20
0.0
 30
0.0
  3
$MODEL_SPACE
  1

  0
ENDBLK
  5
2C7
  8
0
  0
BLOCK
 67
     1
  8
0
  2
$PAPER_SPACE
 70
     0
 10
0.0
 20
0.0
 30
0.0
  3
$PAPER_SPACE
  1

  0
ENDBLK
  5
2C3
 67
     1
  8
0
  0
BLOCK
  8
0
  2
DOT1
 70
     0
 10
0.0
 20
0.0
 30
0.0
  3
DOT1
  1

  0
CIRCLE
  5
2E2
  8
SIZE
  6
CONTINUOUS
 62
     7
 10
0.0
 20
0.0
 30
0.0
 40
3.0
  0
ENDBLK
  5
2E3
  8
0
  0
BLOCK
  8
0
 62
     4
  2
_NONE
 70
     0
 10
0.0
 20
0.0
 30
0.0
  3
_NONE
  1

  0
ENDBLK
  5
2E6
  8
0
 62
     4
  0
BLOCK
  8
0
 62
     4
  2
_OPEN30
 70
     0
 10
0.0
 20
0.0
 30
0.0
  3
_OPEN30
  1

  0
LINE
  5
2E9
  8
0
  6
BYBLOCK
 62
     0
 10
-1.0
 20
0.26794919
 30
0.0
 11
0.0
 21
0.0
 31
0.0
  0
LINE
  5
2EA
  8
0
  6
BYBLOCK
 62
     0
 10
0.0
 20
0.0
 30
0.0
 11
-1.0
 21
-0.26794919
 31
0.0
  0
LINE
  5
2EB
  8
0
  6
BYBLOCK
 62
     0
 10
0.0
 20
0.0
 30
0.0
 11
-1.0
 21
0.0
 31
0.0
  0
ENDBLK
  5
2EC
  8
0
 62
     4
  0
ENDSEC
  0
SECTION
  2
ENTITIES
  0
LINE
  5
2ED
  8
BASIS
  6
DASHDOT
 62
     6
 10
0.0
 20
-125.538653
 30
0.0
 11
0.0
 21
258.83214800000002
 31
0.0
  0
POINT
  5
2EE
  8
ARRANGE
  6
CONTINUOUS
 62
     1
 10
0.0
 20
0.0
 30
0.0
  0
CIRCLE
  5
2EF
  8
ARRANGE
  6
CONTINUOUS
 62
     1
 10
0.0
 20
0.0
 30
0.0
 40
40.0
  0
LINE
  5
2F2
  8
DETAIL
  6
CONTINUOUS
 62
     5
 10
127.0
 20
0.0
 30
0.0
 11
125.5
 21
100.0
 31
0.0
  0
LINE
  5
2F5
  8
DETAIL
  6
CONTINUOUS
 62
     5
 10
-127.0
 20
0.0
 30
0.0
 11
-125.5
 21
100.0
 31
0.0
  0
LINE
  5
2F6
  8
DETAIL
  6
CONTINUOUS
 62
     5
 10
115.5
 20
128.0
 30
0.0
 11
115.5
 21
173.0
 31
0.0
  0
LINE
  5
2F7
  8
DETAIL
  6
CONTINUOUS
 62
     5
 10
101.5
 20
173.0
 30
0.0
 11
101.5
 21
215.0
 31
0.0
  0
LINE
  5
2F8
  8
DETAIL
  6
CONTINUOUS
 62
     5
 10
-101.5
 20
215.0
 30
0.0
 11
-101.5
 21
173.0
 31
0.0
  0
LINE
  5
2F9
  8
DETAIL
  6
CONTINUOUS
 62
     5
 10
115.5
 20
173.0
 30
0.0
 11
-115.5
 21
173.0
 31
0.0
  0
LINE
  5
2FA
  8
DETAIL
  6
CONTINUOUS
 62
     5
 10
-115.5
 20
173.0
 30
0.0
 11
-115.5
 21
128.0
 31
0.0
  0
LINE
  5
2FB
  8
DETAIL
  6
CONTINUOUS
 62
     5
 10
125.5
 20
100.0
 30
0.0
 11
-125.5
 21
100.0
 31
0.0
  0
LINE
  5
2FC
  8
SIZE
  6
CONTINUOUS
 62
    30
 10
155.0
 20
-38.0
 30
0.0
 11
155.0
 21
-548.86145699999997
 31
0.0
  0
LINE
  5
2FD
  8
SIZE
  6
CONTINUOUS
 62
    30
 10
-155.0
 20
-38.0
 30
0.0
 11
-155.0
 21
-548.86145699999997
 31
0.0
  0
LINE
  5
2FE
  8
SIZE
  6
CONTINUOUS
 62
    30
 10
153.0
 20
-518.86145699999986
 30
0.0
 11
-153.0
 21
-518.86145699999986
 31
0.0
  0
TEXT
  5
2FF
  8
SIZE
  6
CONTINUOUS
 62
    30
 10
-105.0514285714285
 20
-486.86145699999997
 30
0.0
 40
64.0
  1
□310
 41
0.9
 72
     1
 11
0.0
 21
-486.86145699999997
 31
0.0
  0
CIRCLE
  5
300
  8
SIZE
  6
CONTINUOUS
 62
    30
 10
155.0
 20
-518.86145699999986
 30
0.0
 40
6.0
  0
CIRCLE
  5
301
  8
SIZE
  6
CONTINUOUS
 62
    30
 10
-155.0
 20
-518.86145699999986
 30
0.0
 40
6.0
  0
LINE
  5
302
  8
SIZE
  6
CONTINUOUS
 62
    30
 10
127.0
 20
20.0
 30
0.0
 11
127.0
 21
332.47864900000002
 31
0.0
  0
LINE
  5
303
  8
SIZE
  6
CONTINUOUS
 62
    30
 10
-127.0
 20
20.0
 30
0.0
 11
-127.0
 21
332.47864900000002
 31
0.0
  0
LINE
  5
304
  8
SIZE
  6
CONTINUOUS
 62
    30
 10
125.0
 20
302.47864900000002
 30
0.0
 11
-125.0
 21
302.47864900000002
 31
0.0
  0
TEXT
  5
305
  8
SIZE
  6
CONTINUOUS
 62
    30
 10
-111.90857142857141
 20
322.27710599999989
 30
0.0
 40
64.0
  1
□254
 41
0.9
 72
     1
 11
0.0
 21
322.27710599999989
 31
0.0
  0
CIRCLE
  5
306
  8
SIZE
  6
CONTINUOUS
 62
    30
 10
127.0
 20
302.47864900000002
 30
0.0
 40
6.0
  0
CIRCLE
  5
307
  8
SIZE
  6
CONTINUOUS
 62
    30
 10
-127.0
 20
302.47864900000002
 30
0.0
 40
6.0
  0
LINE
  5
308
  8
SIZE
  6
CONTINUOUS
 62
    30
 10
125.5
 20
120.0
 30
0.0
 11
125.5
 21
457.78634599999992
 31
0.0
  0
LINE
  5
309
  8
SIZE
  6
CONTINUOUS
 62
    30
 10
-125.5
 20
120.0
 30
0.0
 11
-125.5
 21
457.78634599999992
 31
0.0
  0
LINE
  5
30A
  8
SIZE
  6
CONTINUOUS
 62
    30
 10
123.5
 20
427.78634599999981
 30
0.0
 11
-123.5
 21
427.78634599999981
 31
0.0
  0
TEXT
  5
30B
  8
SIZE
  6
CONTINUOUS
 62
    30
 10
-98.194285714285741
 20
452.24582500000002
 30
0.0
 40
64.0
  1
□251
 41
0.9
 72
     1
 11
0.0
 21
452.24582500000002
 31
0.0
  0
CIRCLE
  5
30C
  8
SIZE
  6
CONTINUOUS
 62
    30
 10
125.5
 20
427.78634599999981
 30
0.0
 40
6.0
  0
CIRCLE
  5
30D
  8
SIZE
  6
CONTINUOUS
 62
    30
 10
-125.5
 20
427.78634599999981
 30
0.0
 40
6.0
  0
LINE
  5
30E
  8
SIZE
  6
CONTINUOUS
 62
    30
 10
175.0
 20
-18.0
 30
0.0
 11
607.39342099999999
 21
-18.0
 31
0.0
  0
LINE
  5
30F
  8
SIZE
  6
CONTINUOUS
 62
    30
 10
175.0
 20
0.0
 30
0.0
 11
607.39342099999999
 21
0.0
 31
0.0
  0
LINE
  5
310
  8
SIZE
  6
CONTINUOUS
 62
    30
 10
577.39342099999999
 20
-16.0
 30
0.0
 11
577.39342099999999
 21
-2.0
 31
0.0
  0
TEXT
  5
311
  8
SIZE
  6
CONTINUOUS
 62
    30
 10
552.26207199999988
 20
-128.28058614285709
 30
0.0
 40
64.0
  1
18
 50
90.0
 41
0.9
 72
     1
 11
552.26207199999988
 21
-87.137728999999979
 31
0.0
  0
CIRCLE
  5
312
  8
SIZE
  6
CONTINUOUS
 62
    30
 10
577.39342099999999
 20
-18.0
 30
0.0
 40
6.0
  0
CIRCLE
  5
313
  8
SIZE
  6
CONTINUOUS
 62
    30
 10
577.39342099999999
 20
0.0
 30
0.0
 40
6.0
  0
LINE
  5
314
  8
SIZE
  6
CONTINUOUS
 62
    30
 10
175.0
 20
0.0
 30
0.0
 11
391.30113699999993
 21
0.0
 31
0.0
  0
LINE
  5
315
  8
SIZE
  6
CONTINUOUS
 62
    30
 10
145.5
 20
100.0
 30
0.0
 11
391.30113699999993
 21
100.0
 31
0.0
  0
LINE
  5
316
  8
SIZE
  6
CONTINUOUS
 62
    30
 10
361.30113699999993
 20
2.0
 30
0.0
 11
361.30113699999993
 21
98.0
 31
0.0
  0
TEXT
  5
317
  8
SIZE
  6
CONTINUOUS
 62
    30
 10
339.86541199999982
 20
-196.22427357142851
 30
0.0
 40
64.0
  1
100
 50
90.0
 41
0.9
 72
     1
 11
339.86541199999982
 21
-127.652845
 31
0.0
  0
CIRCLE
  5
318
  8
SIZE
  6
CONTINUOUS
 62
    30
 10
361.30113699999993
 20
0.0
 30
0.0
 40
6.0
  0
CIRCLE
  5
319
  8
SIZE
  6
CONTINUOUS
 62
    30
 10
361.30113699999993
 20
100.0
 30
0.0
 40
6.0
  0
LINE
  5
31A
  8
NOTE
  6
CONTINUOUS
 62
     4
 10
-141.5
 20
-20.0
 30
0.0
 11
-141.5
 21
20.0
 31
0.0
  0
LINE
  5
31B
  8
NOTE
  6
CONTINUOUS
 62
     4
 10
-161.5
 20
0.0
 30
0.0
 11
-121.5
 21
0.0
 31
0.0
  0
LINE
  5
31C
  8
NOTE
  6
CONTINUOUS
 62
     4
 10
-85.0
 20
-20.0
 30
0.0
 11
-85.0
 21
20.0
 31
0.0
  0
LINE
  5
31D
  8
NOTE
  6
CONTINUOUS
 62
     4
 10
-105.0
 20
0.0
 30
0.0
 11
-65.0
 21
0.0
 31
0.0
  0
LINE
  5
31E
  8
NOTE
  6
CONTINUOUS
 62
     4
 10
85.0
 20
-20.0
 30
0.0
 11
85.0
 21
20.0
 31
0.0
  0
LINE
  5
31F
  8
NOTE
  6
CONTINUOUS
 62
     4
 10
65.0
 20
0.0
 30
0.0
 11
105.0
 21
0.0
 31
0.0
  0
LINE
  5
320
  8
NOTE
  6
CONTINUOUS
 62
     4
 10
141.5
 20
-20.0
 30
0.0
 11
141.5
 21
20.0
 31
0.0
  0
LINE
  5
321
  8
NOTE
  6
CONTINUOUS
 62
     4
 10
121.5
 20
0.0
 30
0.0
 11
161.5
 21
0.0
 31
0.0
  0
LINE
  5
322
  8
SIZE
  6
CONTINUOUS
 62
    30
 10
85.0
 20
-40.0
 30
0.0
 11
85.0
 21
-301.22551399999992
 31
0.0
  0
LINE
  5
323
  8
SIZE
  6
CONTINUOUS
 62
    30
 10
-85.0
 20
-40.0
 30
0.0
 11
-85.0
 21
-301.22551399999992
 31
0.0
  0
LINE
  5
324
  8
SIZE
  6
CONTINUOUS
 62
    30
 10
83.0
 20
-271.22551399999992
 30
0.0
 11
-83.0
 21
-271.22551399999992
 31
0.0
  0
TEXT
  5
325
  8
SIZE
  6
CONTINUOUS
 62
    30
 10
-68.571428571428569
 20
-239.225514
 30
0.0
 40
64.0
  1
170
 41
0.9
 72
     1
 11
0.0
 21
-239.225514
 31
0.0
  0
CIRCLE
  5
326
  8
SIZE
  6
CONTINUOUS
 62
    30
 10
85.0
 20
-271.22551399999992
 30
0.0
 40
6.0
  0
CIRCLE
  5
327
  8
SIZE
  6
CONTINUOUS
 62
    30
 10
-85.0
 20
-271.22551399999992
 30
0.0
 40
6.0
  0
LINE
  5
328
  8
SIZE
  6
CONTINUOUS
 62
    30
 10
141.5
 20
-40.0
 30
0.0
 11
141.5
 21
-433.29271699999993
 31
0.0
  0
LINE
  5
329
  8
SIZE
  6
CONTINUOUS
 62
    30
 10
-141.5
 20
-40.0
 30
0.0
 11
-141.5
 21
-433.29271699999993
 31
0.0
  0
LINE
  5
32A
  8
SIZE
  6
CONTINUOUS
 62
    30
 10
139.5
 20
-403.29271699999981
 30
0.0
 11
-139.5
 21
-403.29271699999981
 31
0.0
  0
TEXT
  5
32B
  8
SIZE
  6
CONTINUOUS
 62
    30
 10
-74.057142857142836
 20
-371.29271699999993
 30
0.0
 40
64.0
  1
283
 41
0.9
 72
     1
 11
0.0
 21
-371.29271699999993
 31
0.0
  0
CIRCLE
  5
32C
  8
SIZE
  6
CONTINUOUS
 62
    30
 10
141.5
 20
-403.29271699999981
 30
0.0
 40
6.0
  0
CIRCLE
  5
32D
  8
SIZE
  6
CONTINUOUS
 62
    30
 10
-141.5
 20
-403.29271699999981
 30
0.0
 40
6.0
  0
LINE
  5
32E
  8
NOTE
  6
CONTINUOUS
 62
     4
 10
-141.5
 20
0.0
 30
0.0
 11
-229.88474999999991
 21
-185.332121
 31
0.0
  0
LINE
  5
32F
  8
NOTE
  6
CONTINUOUS
 62
     4
 10
-229.88474999999991
 20
-185.332121
 30
0.0
 11
-695.62438199999997
 21
-185.332121
 31
0.0
  0
TEXT
  5
330
  8
NOTE
  6
CONTINUOUS
 62
     4
 10
-685.79092400000002
 20
-143.69881999999981
 30
0.0
 40
64.0
  1
8×φ5取付穴
 41
0.9
  0
LINE
  5
331
  8
NOTE
  6
CONTINUOUS
 62
     4
 10
-149.58186499999991
 20
-39.175035999999992
 30
0.0
 11
-141.5
 21
0.0
 31
0.0
  0
LINE
  5
332
  8
NOTE
  6
CONTINUOUS
 62
     4
 10
-141.5
 20
0.0
 30
0.0
 11
-168.08661899999981
 21
-29.885643999999989
 31
0.0
  0
LINE
  5
342
  8
NOTE
  6
CONTINUOUS
 62
     4
 10
110.0
 20
-20.0
 30
0.0
 11
110.0
 21
20.0
 31
0.0
  0
LINE
  5
343
  8
NOTE
  6
CONTINUOUS
 62
     4
 10
90.0
 20
0.0
 30
0.0
 11
130.0
 21
0.0
 31
0.0
  0
LINE
  5
344
  8
NOTE
  6
CONTINUOUS
 62
     4
 10
443.51530558874492
 20
-305.2627741614628
 30
0.0
 11
298.0953915887448
 21
-305.2627741614628
 31
0.0
  0
TEXT
  5
345
  8
NOTE
  6
CONTINUOUS
 62
     4
 10
319.41134758874477
 20
-285.93876716146281
 30
0.0
 40
64.0
  1
EL
 41
0.9
  0
LINE
  5
346
  8
SIZE
  6
CONTINUOUS
 62
    30
 10
361.30113699999993
 20
94.0
 30
0.0
 11
361.30113699999993
 21
-197.045332
 31
0.0
  0
CIRCLE
  5
347
  8
FIX
  6
CONTINUOUS
 62
    11
 10
-141.5
 20
0.0
 30
0.0
 40
2.5
  0
CIRCLE
  5
348
  8
FIX
  6
CONTINUOUS
 62
    11
 10
-85.0
 20
0.0
 30
0.0
 40
2.5
  0
CIRCLE
  5
349
  8
FIX
  6
CONTINUOUS
 62
    11
 10
85.0
 20
0.0
 30
0.0
 40
2.5
  0
CIRCLE
  5
34A
  8
FIX
  6
CONTINUOUS
 62
    11
 10
141.5
 20
0.0
 30
0.0
 40
2.5
  0
LINE
  5
34B
  8
DETAIL
  6
CONTINUOUS
 62
     5
 10
-115.5
 20
128.0
 30
0.0
 11
115.5
 21
128.0
 31
0.0
  0
LINE
  5
34C
  8
DETAIL
  6
CONTINUOUS
 62
     5
 10
101.5
 20
212.0
 30
0.0
 11
101.5
 21
215.0
 31
0.0
  0
LINE
  5
34D
  8
DETAIL
  6
CONTINUOUS
 62
     5
 10
-101.5
 20
212.0
 30
0.0
 11
-101.5
 21
215.0
 31
0.0
  0
LINE
  5
34E
  8
DETAIL
  6
CONTINUOUS
 62
     5
 10
-101.5
 20
215.0
 30
0.0
 11
101.5
 21
215.0
 31
0.0
  0
LINE
  5
352
  8
DETAIL
  6
CONTINUOUS
 62
     5
 10
-86.721340999999995
 20
128.0
 30
0.0
 11
-86.721340999999995
 21
100.0
 31
0.0
  0
LINE
  5
353
  8
DETAIL
  6
CONTINUOUS
 62
     5
 10
-93.749209999999962
 20
128.0
 30
0.0
 11
-93.749209999999962
 21
100.0
 31
0.0
  0
LINE
  5
354
  8
DETAIL
  6
CONTINUOUS
 62
     5
 10
93.683505999999994
 20
128.0
 30
0.0
 11
93.683505999999994
 21
100.0
 31
0.0
  0
LINE
  5
355
  8
DETAIL
  6
CONTINUOUS
 62
     5
 10
85.789342000000005
 20
128.0
 30
0.0
 11
85.789342000000005
 21
100.0
 31
0.0
  0
LINE
  5
356
  8
SIZE
  6
CONTINUOUS
 62
    30
 10
121.5
 20
215.0
 30
0.0
 11
607.39342099999999
 21
215.0
 31
0.0
  0
LINE
  5
357
  8
SIZE
  6
CONTINUOUS
 62
    30
 10
175.0
 20
0.0
 30
0.0
 11
607.39342099999999
 21
0.0
 31
0.0
  0
LINE
  5
358
  8
SIZE
  6
CONTINUOUS
 62
    30
 10
577.39342099999999
 20
213.0
 30
0.0
 11
577.39342099999999
 21
2.0
 31
0.0
  0
TEXT
  5
359
  8
SIZE
  6
CONTINUOUS
 62
    30
 10
539.22188100000005
 20
39.263361428571208
 30
0.0
 40
64.0
  1
215
 50
90.0
 41
0.9
 72
     1
 11
539.22188100000005
 21
107.8347899999997
 31
0.0
  0
CIRCLE
  5
35A
  8
SIZE
  6
CONTINUOUS
 62
    30
 10
577.39342099999999
 20
215.0
 30
0.0
 40
6.0
  0
CIRCLE
  5
35B
  8
SIZE
  6
CONTINUOUS
 62
    30
 10
577.39342099999999
 20
0.0
 30
0.0
 40
6.0
  0
LINE
  5
35C
  8
SIZE
  6
CONTINUOUS
 62
    30
 10
135.49999999999969
 20
128.0
 30
0.0
 11
391.30113699999993
 21
128.0
 31
0.0
  0
LINE
  5
35D
  8
SIZE
  6
CONTINUOUS
 62
    30
 10
145.5
 20
100.0
 30
0.0
 11
391.30113699999993
 21
100.0
 31
0.0
  0
LINE
  5
35E
  8
SIZE
  6
CONTINUOUS
 62
    30
 10
361.30113699999993
 20
126.0
 30
0.0
 11
361.30113699999993
 21
102.0
 31
0.0
  0
TEXT
  5
35F
  8
SIZE
  6
CONTINUOUS
 62
    30
 10
347.25989800000002
 20
235.39297657142831
 30
0.0
 40
64.0
  1
28
 50
90.0
 41
0.9
 72
     1
 11
347.25989800000002
 21
282.02154799999983
 31
0.0
  0
CIRCLE
  5
360
  8
SIZE
  6
CONTINUOUS
 62
    30
 10
361.30113699999993
 20
128.0
 30
0.0
 40
6.0
  0
CIRCLE
  5
361
  8
SIZE
  6
CONTINUOUS
 62
    30
 10
361.30113699999993
 20
100.0
 30
0.0
 40
6.0
  0
LINE
  5
362
  8
SIZE
  6
CONTINUOUS
 62
    30
 10
361.30113699999993
 20
114.0
 30
0.0
 11
361.30113699999993
 21
331.6915489999999
 31
0.0
  0
LINE
  5
367
  8
DETAIL
  6
CONTINUOUS
 62
     5
 10
0.0
 20
128.0
 30
0.0
 11
82.0
 21
128.0
 31
0.0
  0
LINE
  5
368
  8
DETAIL
  6
CONTINUOUS
 62
     5
 10
41.0
 20
128.0
 30
0.0
 11
41.0
 21
100.0
 31
0.0
  0
LINE
  5
369
  8
DETAIL
  6
CONTINUOUS
 62
     5
 10
-41.0
 20
128.0
 30
0.0
 11
-41.0
 21
100.0
 31
0.0
  0
TEXT
  5
36C
  8
NOTE
  6
CONTINUOUS
 62
     4
 10
451.68059
 20
229.894383
 30
0.0
 40
64.0
  1
(吹出口,全周)
 50
90.0
 41
0.9
  0
LINE
  5
36D
  8
SIZE
  6
CONTINUOUS
 62
    30
 10
577.39342099999999
 20
-12.0
 30
0.0
 11
577.39342099999999
 21
-129.71890300000001
 31
0.0
  0
TEXT
  5
36E
  8
NOTE
  6
CONTINUOUS
 62
     4
 10
686.13361599999985
 20
32.375834999999988
 30
0.0
 40
64.0
  1
(シャッター開時)
 50
90.0
 41
0.9
  0
TEXT
  5
36F
  8
ETC
  6
CONTINUOUS
 62
    61
 10
870.52054351920799
 20
302.05932011589448
 30
0.0
 40
50.0
  1
V-20MEX2-G
 41
0.9
  0
TEXT
  5
370
  8
ETC
  6
CONTINUOUS
 62
    61
 10
870.52054351920799
 20
375.30048000016762
 30
0.0
 40
50.0
  1
V-20MEX2
 41
0.9
  0
TEXT
  5
371
  8
ETC
  6
CONTINUOUS
 62
    61
 10
737.50323391992799
 20
453.29694485600157
 30
0.0
 40
64.0
  1
換気扇
 41
0.9
  0
TEXT
  5
372
  8
ETC
  6
CONTINUOUS
 62
    61
 10
740.46080612209244
 20
557.80474581363023
 30
0.0
 40
64.0
  1
V-20MEX2_2
 41
0.9
  0
LINE
  5
373
  8
NOTE
  6
CONTINUOUS
 62
     4
 10
130.98342457659331
 20
-34.054307995294991
 30
0.0
 11
298.0953915887448
 21
-305.2627741614628
 31
0.0
1001
ACAD
1000
DSTYLE
1002
{
1070
    41
1040
40.0
1070
    42
1040
20.0
1070
    43
1040
200.0
1070
    44
1040
30.0
1070
    73
1070
     0
1070
    74
1070
     0
1070
    77
1070
     0
1070
    78
1070
     8
1070
   140
1040
64.0
1070
   147
1040
20.0
1070
   172
1070
     1
1070
   174
1070
     1
1070
   176
1070
   256
1070
   177
1070
   256
1070
   178
1070
   256
1070
   275
1070
     0
1070
   279
1070
     0
1070
   284
1070
     0
1070
   285
1070
     0
1070
   286
1070
     0
1070
   341
1005
12B
1070
   342
1005
128
1002
}
  0
LINE
  5
374
  8
NOTE
  6
BYBLOCK
 62
     4
 10
121.8586003332436
 20
-39.676799614019323
 30
0.0
 11
110.0
 21
0.0
 31
0.0
  0
LINE
  5
375
  8
NOTE
  6
BYBLOCK
 62
     4
 10
110.0
 20
0.0
 30
0.0
 11
140.10824881994299
 21
-28.431816376570701
 31
0.0
  0
LINE
  5
376
  8
NOTE
  6
BYBLOCK
 62
     4
 10
110.0
 20
0.0
 30
0.0
 11
130.98342457659331
 21
-34.054307995295012
 31
0.0
  0
LINE
  5
378
  8
OUTLINE
  6
CONTINUOUS
 62
     3
 10
127.0
 20
0.0
 30
0.0
 11
125.5
 21
100.0
 31
0.0
  0
LINE
  5
379
  8
OUTLINE
  6
CONTINUOUS
 62
     3
 10
-127.0
 20
0.0
 30
0.0
 11
-125.5
 21
100.0
 31
0.0
  0
LINE
  5
37F
  8
OUTLINE
  6
CONTINUOUS
 62
     3
 10
-101.5
 20
215.0
 30
0.0
 11
101.5
 21
215.0
 31
0.0
  0
LINE
  5
380
  8
OUTLINE
  6
CONTINUOUS
 62
     3
 10
-115.5
 20
128.0
 30
0.0
 11
115.5
 21
128.0
 31
0.0
  0
LINE
  5
381
  8
OUTLINE
  6
CONTINUOUS
 62
     3
 10
-115.5
 20
100.0
 30
0.0
 11
115.5
 21
100.0
 31
0.0
  0
LINE
  5
382
  8
OUTLINE
  6
CONTINUOUS
 62
     3
 10
-115.5
 20
173.0
 30
0.0
 11
-115.5
 21
128.0
 31
0.0
  0
LINE
  5
383
  8
OUTLINE
  6
CONTINUOUS
 62
     3
 10
-93.749209999999948
 20
128.0
 30
0.0
 11
-93.749209999999948
 21
100.0
 31
0.0
  0
LINE
  5
384
  8
OUTLINE
  6
CONTINUOUS
 62
     3
 10
-115.5
 20
100.0
 30
0.0
 11
-125.5
 21
100.0
 31
0.0
  0
LINE
  5
385
  8
OUTLINE
  6
CONTINUOUS
 62
     3
 10
-41.0
 20
128.0
 30
0.0
 11
-41.0
 21
100.0
 31
0.0
  0
LINE
  5
386
  8
OUTLINE
  6
CONTINUOUS
 62
     3
 10
-86.721340999999924
 20
128.0
 30
0.0
 11
-86.721340999999924
 21
100.0
 31
0.0
  0
LINE
  5
387
  8
OUTLINE
  6
CONTINUOUS
 62
     3
 10
-101.5
 20
215.0
 30
0.0
 11
-101.5
 21
173.0
 31
0.0
  0
LINE
  5
388
  8
OUTLINE
  6
CONTINUOUS
 62
     3
 10
-101.5
 20
173.0
 30
0.0
 11
-115.5
 21
173.0
 31
0.0
  0
LINE
  5
389
  8
OUTLINE
  6
CONTINUOUS
 62
     3
 10
115.5
 20
128.0
 30
0.0
 11
115.5
 21
173.0
 31
0.0
  0
LINE
  5
38A
  8
OUTLINE
  6
CONTINUOUS
 62
     3
 10
85.789342000000033
 20
128.0
 30
0.0
 11
85.789342000000033
 21
100.0
 31
0.0
  0
LINE
  5
38B
  8
OUTLINE
  6
CONTINUOUS
 62
     3
 10
41.0
 20
128.0
 30
0.0
 11
41.0
 21
100.0
 31
0.0
  0
LINE
  5
38C
  8
OUTLINE
  6
CONTINUOUS
 62
     3
 10
93.683505999999966
 20
128.0
 30
0.0
 11
93.683505999999966
 21
100.0
 31
0.0
  0
LINE
  5
38D
  8
OUTLINE
  6
CONTINUOUS
 62
     3
 10
125.5
 20
100.0
 30
0.0
 11
115.5
 21
100.0
 31
0.0
  0
LINE
  5
38E
  8
OUTLINE
  6
CONTINUOUS
 62
     3
 10
115.5
 20
173.0
 30
0.0
 11
101.5
 21
173.0
 31
0.0
  0
LINE
  5
38F
  8
OUTLINE
  6
CONTINUOUS
 62
     3
 10
101.5
 20
173.0
 30
0.0
 11
101.5
 21
215.0
 31
0.0
  0
LINE
  5
3E0
  8
OUTLINE
  6
CONTINUOUS
 62
     3
 10
-101.5
 20
173.0
 30
0.0
 11
101.5
 21
173.0
 31
0.0
  0
ARC
  5
3E2
  8
DETAIL
  6
CONTINUOUS
 62
     5
 10
-0.0000969999999825
 20
2146.5027420000001
 30
0.0
 40
2164.5027420000001
 50
270.00000299999772
 51
274.0210659999986
  0
LINE
  5
3E3
  8
DETAIL
  6
CONTINUOUS
 62
     5
 10
-155.0
 20
0.0
 30
0.0
 11
155.0
 21
0.0
 31
0.0
  0
ARC
  5
3E4
  8
DETAIL
  6
CONTINUOUS
 62
     5
 10
0.0000969999999825
 20
2146.5027420000001
 30
0.0
 40
2164.5027420000001
 50
265.97893400000129
 51
269.99999700000228
  0
LINE
  5
3E5
  8
DETAIL
  6
CONTINUOUS
 62
     5
 10
-155.0
 20
-8.0
 30
0.0
 11
-155.0
 21
0.0
 31
0.0
  0
ARC
  5
3E6
  8
DETAIL
  6
CONTINUOUS
 62
     5
 10
-150.0
 20
-8.0
 30
0.0
 40
5.0
 50
180.0
 51
249.1224350000013
  0
LINE
  5
3E7
  8
DETAIL
  6
CONTINUOUS
 62
     5
 10
155.0
 20
-8.0
 30
0.0
 11
155.0
 21
0.0
 31
0.0
  0
ARC
  5
3E8
  8
DETAIL
  6
CONTINUOUS
 62
     5
 10
150.0
 20
-8.0
 30
0.0
 40
5.0
 50
290.87756700000159
 51
0.0
  0
LINE
  5
3E9
  8
OUTLINE
  6
CONTINUOUS
 62
     3
 10
-155.0
 20
0.0
 30
0.0
 11
155.0
 21
0.0
 31
0.0
  0
ENDSEC
  0
EOF
