  0
SECTION
  2
HEADER
  9
$ACADVER
  1
AC1009
  9
$INSBASE
 10
0.0
 20
0.0
 30
0.0
  9
$EXTMIN
 10
-695.62438199999997
 20
-548.86145699999997
 30
0.0
  9
$EXTMAX
 10
1323.6697979764481
 20
660.52295442857121
 30
0.0
  9
$LIMMIN
 10
-2970.0
 20
-2100.0
  9
$LIMMAX
 10
2970.0
 20
2100.0
  9
$ORTHOMODE
 70
     1
  9
$REGENMODE
 70
     1
  9
$FILLMODE
 70
     1
  9
$QTEXTMODE
 70
     0
  9
$MIRRTEXT
 70
     0
  9
$DRAGMODE
 70
     2
  9
$LTSCALE
 40
20.0
  9
$OSMODE
 70
   166
  9
$ATTMODE
 70
     1
  9
$TEXTSIZE
 40
64.0
  9
$TRACEWID
 40
0.05
  9
$TEXTSTYLE
  7
STANDARD
  9
$CLAYER
  8
OUTLINE
  9
$CELTYPE
  6
CONTINUOUS
  9
$CECOLOR
 62
     3
  9
$DIMSCALE
 40
1.0
  9
$DIMASZ
 40
2.0
  9
$DIMEXO
 40
20.0
  9
$DIMDLI
 40
200.0
  9
$DIMRND
 40
0.0
  9
$DIMDLE
 40
0.0
  9
$DIMEXE
 40
30.0
  9
$DIMTP
 40
0.0
  9
$DIMTM
 40
0.0
  9
$DIMTXT
 40
64.0
  9
$DIMCEN
 40
0.09
  9
$DIMTSZ
 40
0.0
  9
$DIMTOL
 70
     0
  9
$DIMLIM
 70
     0
  9
$DIMTIH
 70
     0
  9
$DIMTOH
 70
     0
  9
$DIMSE1
 70
     0
  9
$DIMSE2
 70
     0
  9
$DIMTAD
 70
     1
  9
$DIMZIN
 70
     8
  9
$DIMBLK
  1
DOT1
  9
$DIMASO
 70
     1
  9
$DIMSHO
 70
     0
  9
$DIMPOST
  1

  9
$DIMAPOST
  1

  9
$DIMALT
 70
     0
  9
$DIMALTD
 70
     2
  9
$DIMALTF
 40
25.399999999999999
  9
$DIMLFAC
 40
1.0
  9
$DIMTOFL
 70
     1
  9
$DIMTVP
 40
0.0
  9
$DIMTIX
 70
     1
  9
$DIMSOXD
 70
     0
  9
$DIMSAH
 70
     0
  9
$DIMBLK1
  1

  9
$DIMBLK2
  1

  9
$DIMSTYLE
  2
STANDARD
  9
$DIMCLRD
 70
     7
  9
$DIMCLRE
 70
     7
  9
$DIMCLRT
 70
     7
  9
$DIMTFAC
 40
1.0
  9
$DIMGAP
 40
0.09
  9
$LUNITS
 70
     2
  9
$LUPREC
 70
     4
  9
$SKETCHINC
 40
0.1
  9
$FILLETRAD
 40
0.0
  9
$AUNITS
 70
     1
  9
$AUPREC
 70
     3
  9
$MENU
  1
ACAD
  9
$ELEVATION
 40
0.0
  9
$PELEVATION
 40
0.0
  9
$THICKNESS
 40
0.0
  9
$LIMCHECK
 70
     0
  9
$BLIPMODE
 70
     0
  9
$CHAMFERA
 40
0.0
  9
$CHAMFERB
 40
0.0
  9
$SKPOLY
 70
     0
  9
$TDCREATE
 40
2450690.6190856481
  9
$TDUPDATE
 40
2454203.7499940279
  9
$TDINDWG
 40
0.0949745718
  9
$TDUSRTIMER
 40
0.0949740162
  9
$USRTIMER
 70
     1
  9
$ANGBASE
 50
0.0
  9
$ANGDIR
 70
     0
  9
$PDMODE
 70
     3
  9
$PDSIZE
 40
-2.0
  9
$PLINEWID
 40
0.0
  9
$COORDS
 70
     2
  9
$SPLFRAME
 70
     0
  9
$SPLINETYPE
 70
     6
  9
$SPLINESEGS
 70
     8
  9
$ATTDIA
 70
     0
  9
$ATTREQ
 70
     1
  9
$HANDLING
 70
 22529
  9
$HANDSEED
  5
48B
  9
$SURFTAB1
 70
     6
  9
$SURFTAB2
 70
     6
  9
$SURFTYPE
 70
     6
  9
$SURFU
 70
     6
  9
$SURFV
 70
     6
  9
$UCSNAME
  2

  9
$UCSORG
 10
0.0
 20
0.0
 30
0.0
  9
$UCSXDIR
 10
1.0
 20
0.0
 30
0.0
  9
$UCSYDIR
 10
0.0
 20
1.0
 30
0.0
  9
$PUCSNAME
  2

  9
$PUCSORG
 10
0.0
 20
0.0
 30
0.0
  9
$PUCSXDIR
 10
1.0
 20
0.0
 30
0.0
  9
$PUCSYDIR
 10
0.0
 20
1.0
 30
0.0
  9
$USERI1
 70
     0
  9
$USERI2
 70
     0
  9
$USERI3
 70
     0
  9
$USERI4
 70
     0
  9
$USERI5
 70
     0
  9
$USERR1
 40
20.0
  9
$USERR2
 40
0.0
  9
$USERR3
 40
0.0
  9
$USERR4
 40
0.0
  9
$USERR5
 40
0.0
  9
$WORLDVIEW
 70
     1
  9
$SHADEDGE
 70
     3
  9
$SHADEDIF
 70
    70
  9
$TILEMODE
 70
     1
  9
$MAXACTVP
 70
    48
  9
$PLIMCHECK
 70
     0
  9
$PEXTMIN
 10
-1.0000000000000000E+020
 20
-1.0000000000000000E+020
 30
-1.0000000000000000E+020
  9
$PEXTMAX
 10
1.0000000000000000E+020
 20
1.0000000000000000E+020
 30
1.0000000000000000E+020
  9
$PLIMMIN
 10
0.0
 20
0.0
  9
$PLIMMAX
 10
12.0
 20
9.0
  9
$UNITMODE
 70
     0
  9
$VISRETAIN
 70
     0
  9
$PLINEGEN
 70
     0
  9
$PSLTSCALE
 70
     0
  0
ENDSEC
  0
SECTION
  2
TABLES
  0
TABLE
  2
VPORT
 70
     3
  0
VPORT
  2
*ACTIVE
 70
     0
 10
0.0
 20
0.0
 11
1.0
 21
1.0
 12
316.43338434830213
 22
49.962229248778378
 13
0.0
 23
0.0
 14
50.0
 24
50.0
 15
400.0
 25
400.0
 16
0.0
 26
0.0
 36
1.0
 17
0.0
 27
0.0
 37
0.0
 40
1407.7500753753311
 41
1.6727941176470591
 42
50.0
 43
0.0
 44
0.0
 50
0.0
 51
0.0
 71
     0
 72
  1000
 73
     1
 74
     0
 75
     0
 76
     0
 77
     0
 78
     0
  0
ENDTAB
  0
TABLE
  2
LTYPE
 70
     2
  0
LTYPE
  2
CONTINUOUS
 70
     0
  3
実線
 72
    65
 73
     0
 40
0.0
  0
LTYPE
  2
DASHDOT
 70
     0
  3
____ _ ____ _ ____ _ ____ _ ____ _ ____ _ ____
 72
    65
 73
     4
 40
5.5
 49
4.0
 49
-0.6
 49
0.3
 49
-0.6
  0
ENDTAB
  0
TABLE
  2
LAYER
 70
    12
  0
LAYER
  2
0
 70
     0
 62
     7
  6
CONTINUOUS
  0
LAYER
  2
OUTLINE
 70
     0
 62
     3
  6
CONTINUOUS
  0
LAYER
  2
DETAIL
 70
     0
 62
     5
  6
CONTINUOUS
  0
LAYER
  2
BASIS
 70
     0
 62
     6
  6
DASHDOT
  0
LAYER
  2
SIZE
 70
     0
 62
    30
  6
CONTINUOUS
  0
LAYER
  2
NOTE
 70
     0
 62
     4
  6
CONTINUOUS
  0
LAYER
  2
DEFPOINTS
 70
     0
 62
     7
  6
CONTINUOUS
  0
LAYER
  2
FIX
 70
     0
 62
    11
  6
CONTINUOUS
  0
LAYER
  2
ARRANGE
 70
     0
 62
     1
  6
CONTINUOUS
  0
LAYER
  2
ETC
 70
     0
 62
    61
  6
CONTINUOUS
  0
LAYER
  2
SERVICESPACE
 70
     0
 62
     2
  6
DASHDOT
  0
LAYER
  2
SYMBOLLINE
 70
     0
 62
    15
  6
CONTINUOUS
  0
ENDTAB
  0
TABLE
  2
STYLE
 70
     1
  0
STYLE
  2
STANDARD
 70
     0
 40
0.0
 41
0.9
 50
0.0
 71
     0
 42
64.0
  3
SIMPLEX
  4
BIGFONT
  0
ENDTAB
  0
TABLE
  2
VIEW
 70
     1
  0
VIEW
  2
ALL
 70
     0
 40
4282.6198079999967
 10
0.0
 20
41.309903999999989
 41
5940.0
 11
0.0
 21
0.0
 31
1.0
 12
0.0
 22
0.0
 32
0.0
 42
50.0
 43
0.0
 44
0.0
 50
0.0
 71
     0
  0
ENDTAB
  0
TABLE
  2
UCS
 70
     0
  0
ENDTAB
  0
TABLE
  2
APPID
 70
     1
  0
APPID
  2
ACAD
 70
     0
  0
ENDTAB
  0
TABLE
  2
DIMSTYLE
 70
     1
  0
DIMSTYLE
  2
STANDARD
 70
     0
  3

  4

  5

  6

  7

 40
1.0
 41
0.18
 42
0.0625
 43
0.38
 44
0.18
 45
0.0
 46
0.0
 47
0.0
 48
0.0
140
0.18
141
0.09
142
0.0
143
25.399999999999999
144
1.0
145
0.0
146
1.0
147
0.09
 71
     0
 72
     0
 73
     1
 74
     1
 75
     0
 76
     0
 77
     0
 78
     0
170
     0
171
     2
172
     0
173
     0
174
     0
175
     0
176
     7
177
     7
178
     7
  0
ENDTAB
  0
ENDSEC
  0
SECTION
  2
BLOCKS
  0
BLOCK
  8
0
  2
$MODEL_SPACE
 70
     0
 10
0.0
 20
0.0
 30
0.0
  3
$MODEL_SPACE
  1

  0
ENDBLK
  5
388
  8
0
  0
BLOCK
 67
     1
  8
0
  2
$PAPER_SPACE
 70
     0
 10
0.0
 20
0.0
 30
0.0
  3
$PAPER_SPACE
  1

  0
ENDBLK
  5
384
 67
     1
  8
0
  0
BLOCK
  8
OUTLINE
  2
DOT1
 70
     0
 10
0.0
 20
0.0
 30
0.0
  3
DOT1
  1

  0
CIRCLE
  5
3A3
  8
SIZE
  6
CONTINUOUS
 62
     7
 10
0.0
 20
0.0
 30
0.0
 40
3.0
  0
ENDBLK
  5
3A4
  8
OUTLINE
  0
ENDSEC
  0
SECTION
  2
ENTITIES
  0
LINE
  5
3A5
  8
BASIS
  6
DASHDOT
 62
     6
 10
0.0
 20
-125.538653
 30
0.0
 11
0.0
 21
258.83214800000002
 31
0.0
  0
POINT
  5
3A6
  8
ARRANGE
  6
CONTINUOUS
 62
     1
 10
0.0
 20
0.0
 30
0.0
  0
CIRCLE
  5
3A7
  8
ARRANGE
  6
CONTINUOUS
 62
     1
 10
0.0
 20
0.0
 30
0.0
 40
40.0
  0
LINE
  5
3AA
  8
DETAIL
  6
CONTINUOUS
 62
     5
 10
127.0
 20
0.0
 30
0.0
 11
125.5
 21
100.0
 31
0.0
  0
LINE
  5
3AD
  8
DETAIL
  6
CONTINUOUS
 62
     5
 10
-127.0
 20
0.0
 30
0.0
 11
-125.5
 21
100.0
 31
0.0
  0
LINE
  5
3AE
  8
DETAIL
  6
CONTINUOUS
 62
     5
 10
115.5
 20
128.0
 30
0.0
 11
115.5
 21
173.0
 31
0.0
  0
LINE
  5
3AF
  8
DETAIL
  6
CONTINUOUS
 62
     5
 10
101.5
 20
173.0
 30
0.0
 11
101.5
 21
215.0
 31
0.0
  0
LINE
  5
3B0
  8
DETAIL
  6
CONTINUOUS
 62
     5
 10
-101.5
 20
215.0
 30
0.0
 11
-101.5
 21
173.0
 31
0.0
  0
LINE
  5
3B1
  8
DETAIL
  6
CONTINUOUS
 62
     5
 10
115.5
 20
173.0
 30
0.0
 11
-115.5
 21
173.0
 31
0.0
  0
LINE
  5
3B2
  8
DETAIL
  6
CONTINUOUS
 62
     5
 10
-115.5
 20
173.0
 30
0.0
 11
-115.5
 21
128.0
 31
0.0
  0
LINE
  5
3B3
  8
DETAIL
  6
CONTINUOUS
 62
     5
 10
125.5
 20
100.0
 30
0.0
 11
-125.5
 21
100.0
 31
0.0
  0
LINE
  5
3B4
  8
SIZE
  6
CONTINUOUS
 62
    30
 10
155.0
 20
-38.0
 30
0.0
 11
155.0
 21
-548.86145699999997
 31
0.0
  0
LINE
  5
3B5
  8
SIZE
  6
CONTINUOUS
 62
    30
 10
-155.0
 20
-38.0
 30
0.0
 11
-155.0
 21
-548.86145699999997
 31
0.0
  0
LINE
  5
3B6
  8
SIZE
  6
CONTINUOUS
 62
    30
 10
153.0
 20
-518.86145699999986
 30
0.0
 11
-153.0
 21
-518.86145699999986
 31
0.0
  0
TEXT
  5
3B7
  8
SIZE
  6
CONTINUOUS
 62
    30
 10
-105.0514285714285
 20
-486.86145699999997
 30
0.0
 40
64.0
  1
□310
 41
0.9
 72
     1
 11
0.0
 21
-486.86145699999997
 31
0.0
  0
CIRCLE
  5
3B8
  8
SIZE
  6
CONTINUOUS
 62
    30
 10
155.0
 20
-518.86145699999986
 30
0.0
 40
6.0
  0
CIRCLE
  5
3B9
  8
SIZE
  6
CONTINUOUS
 62
    30
 10
-155.0
 20
-518.86145699999986
 30
0.0
 40
6.0
  0
LINE
  5
3BA
  8
SIZE
  6
CONTINUOUS
 62
    30
 10
127.0
 20
20.0
 30
0.0
 11
127.0
 21
332.47864900000002
 31
0.0
  0
LINE
  5
3BB
  8
SIZE
  6
CONTINUOUS
 62
    30
 10
-127.0
 20
20.0
 30
0.0
 11
-127.0
 21
332.47864900000002
 31
0.0
  0
LINE
  5
3BC
  8
SIZE
  6
CONTINUOUS
 62
    30
 10
125.0
 20
302.47864900000002
 30
0.0
 11
-125.0
 21
302.47864900000002
 31
0.0
  0
TEXT
  5
3BD
  8
SIZE
  6
CONTINUOUS
 62
    30
 10
-111.90857142857141
 20
322.27710599999989
 30
0.0
 40
64.0
  1
□254
 41
0.9
 72
     1
 11
0.0
 21
322.27710599999989
 31
0.0
  0
CIRCLE
  5
3BE
  8
SIZE
  6
CONTINUOUS
 62
    30
 10
127.0
 20
302.47864900000002
 30
0.0
 40
6.0
  0
CIRCLE
  5
3BF
  8
SIZE
  6
CONTINUOUS
 62
    30
 10
-127.0
 20
302.47864900000002
 30
0.0
 40
6.0
  0
LINE
  5
3C0
  8
SIZE
  6
CONTINUOUS
 62
    30
 10
125.5
 20
120.0
 30
0.0
 11
125.5
 21
457.78634599999992
 31
0.0
  0
LINE
  5
3C1
  8
SIZE
  6
CONTINUOUS
 62
    30
 10
-125.5
 20
120.0
 30
0.0
 11
-125.5
 21
457.78634599999992
 31
0.0
  0
LINE
  5
3C2
  8
SIZE
  6
CONTINUOUS
 62
    30
 10
123.5
 20
427.78634599999981
 30
0.0
 11
-123.5
 21
427.78634599999981
 31
0.0
  0
TEXT
  5
3C3
  8
SIZE
  6
CONTINUOUS
 62
    30
 10
-98.194285714285741
 20
452.24582500000002
 30
0.0
 40
64.0
  1
□251
 41
0.9
 72
     1
 11
0.0
 21
452.24582500000002
 31
0.0
  0
CIRCLE
  5
3C4
  8
SIZE
  6
CONTINUOUS
 62
    30
 10
125.5
 20
427.78634599999981
 30
0.0
 40
6.0
  0
CIRCLE
  5
3C5
  8
SIZE
  6
CONTINUOUS
 62
    30
 10
-125.5
 20
427.78634599999981
 30
0.0
 40
6.0
  0
LINE
  5
3C6
  8
SIZE
  6
CONTINUOUS
 62
    30
 10
175.0
 20
-18.0
 30
0.0
 11
607.39342099999999
 21
-18.0
 31
0.0
  0
LINE
  5
3C7
  8
SIZE
  6
CONTINUOUS
 62
    30
 10
175.0
 20
0.0
 30
0.0
 11
607.39342099999999
 21
0.0
 31
0.0
  0
LINE
  5
3C8
  8
SIZE
  6
CONTINUOUS
 62
    30
 10
577.39342099999999
 20
-16.0
 30
0.0
 11
577.39342099999999
 21
-2.0
 31
0.0
  0
TEXT
  5
3C9
  8
SIZE
  6
CONTINUOUS
 62
    30
 10
552.26207199999988
 20
-128.28058614285709
 30
0.0
 40
64.0
  1
18
 50
90.0
 41
0.9
 72
     1
 11
552.26207199999988
 21
-87.137728999999979
 31
0.0
  0
CIRCLE
  5
3CA
  8
SIZE
  6
CONTINUOUS
 62
    30
 10
577.39342099999999
 20
-18.0
 30
0.0
 40
6.0
  0
CIRCLE
  5
3CB
  8
SIZE
  6
CONTINUOUS
 62
    30
 10
577.39342099999999
 20
0.0
 30
0.0
 40
6.0
  0
LINE
  5
3CC
  8
SIZE
  6
CONTINUOUS
 62
    30
 10
175.0
 20
0.0
 30
0.0
 11
391.30113699999993
 21
0.0
 31
0.0
  0
LINE
  5
3CD
  8
SIZE
  6
CONTINUOUS
 62
    30
 10
145.5
 20
100.0
 30
0.0
 11
391.30113699999993
 21
100.0
 31
0.0
  0
LINE
  5
3CE
  8
SIZE
  6
CONTINUOUS
 62
    30
 10
361.30113699999993
 20
2.0
 30
0.0
 11
361.30113699999993
 21
98.0
 31
0.0
  0
TEXT
  5
3CF
  8
SIZE
  6
CONTINUOUS
 62
    30
 10
339.86541199999982
 20
-196.22427357142851
 30
0.0
 40
64.0
  1
100
 50
90.0
 41
0.9
 72
     1
 11
339.86541199999982
 21
-127.652845
 31
0.0
  0
CIRCLE
  5
3D0
  8
SIZE
  6
CONTINUOUS
 62
    30
 10
361.30113699999993
 20
0.0
 30
0.0
 40
6.0
  0
CIRCLE
  5
3D1
  8
SIZE
  6
CONTINUOUS
 62
    30
 10
361.30113699999993
 20
100.0
 30
0.0
 40
6.0
  0
LINE
  5
3D2
  8
NOTE
  6
CONTINUOUS
 62
     4
 10
-141.5
 20
-20.0
 30
0.0
 11
-141.5
 21
20.0
 31
0.0
  0
LINE
  5
3D3
  8
NOTE
  6
CONTINUOUS
 62
     4
 10
-161.5
 20
0.0
 30
0.0
 11
-121.5
 21
0.0
 31
0.0
  0
LINE
  5
3D4
  8
NOTE
  6
CONTINUOUS
 62
     4
 10
-85.0
 20
-20.0
 30
0.0
 11
-85.0
 21
20.0
 31
0.0
  0
LINE
  5
3D5
  8
NOTE
  6
CONTINUOUS
 62
     4
 10
-105.0
 20
0.0
 30
0.0
 11
-65.0
 21
0.0
 31
0.0
  0
LINE
  5
3D6
  8
NOTE
  6
CONTINUOUS
 62
     4
 10
85.0
 20
-20.0
 30
0.0
 11
85.0
 21
20.0
 31
0.0
  0
LINE
  5
3D7
  8
NOTE
  6
CONTINUOUS
 62
     4
 10
65.0
 20
0.0
 30
0.0
 11
105.0
 21
0.0
 31
0.0
  0
LINE
  5
3D8
  8
NOTE
  6
CONTINUOUS
 62
     4
 10
141.5
 20
-20.0
 30
0.0
 11
141.5
 21
20.0
 31
0.0
  0
LINE
  5
3D9
  8
NOTE
  6
CONTINUOUS
 62
     4
 10
121.5
 20
0.0
 30
0.0
 11
161.5
 21
0.0
 31
0.0
  0
LINE
  5
3DA
  8
SIZE
  6
CONTINUOUS
 62
    30
 10
85.0
 20
-40.0
 30
0.0
 11
85.0
 21
-301.22551399999992
 31
0.0
  0
LINE
  5
3DB
  8
SIZE
  6
CONTINUOUS
 62
    30
 10
-85.0
 20
-40.0
 30
0.0
 11
-85.0
 21
-301.22551399999992
 31
0.0
  0
LINE
  5
3DC
  8
SIZE
  6
CONTINUOUS
 62
    30
 10
83.0
 20
-271.22551399999992
 30
0.0
 11
-83.0
 21
-271.22551399999992
 31
0.0
  0
TEXT
  5
3DD
  8
SIZE
  6
CONTINUOUS
 62
    30
 10
-68.571428571428569
 20
-239.225514
 30
0.0
 40
64.0
  1
170
 41
0.9
 72
     1
 11
0.0
 21
-239.225514
 31
0.0
  0
CIRCLE
  5
3DE
  8
SIZE
  6
CONTINUOUS
 62
    30
 10
85.0
 20
-271.22551399999992
 30
0.0
 40
6.0
  0
CIRCLE
  5
3DF
  8
SIZE
  6
CONTINUOUS
 62
    30
 10
-85.0
 20
-271.22551399999992
 30
0.0
 40
6.0
  0
LINE
  5
3E0
  8
SIZE
  6
CONTINUOUS
 62
    30
 10
141.5
 20
-40.0
 30
0.0
 11
141.5
 21
-433.29271699999993
 31
0.0
  0
LINE
  5
3E1
  8
SIZE
  6
CONTINUOUS
 62
    30
 10
-141.5
 20
-40.0
 30
0.0
 11
-141.5
 21
-433.29271699999993
 31
0.0
  0
LINE
  5
3E2
  8
SIZE
  6
CONTINUOUS
 62
    30
 10
139.5
 20
-403.29271699999981
 30
0.0
 11
-139.5
 21
-403.29271699999981
 31
0.0
  0
TEXT
  5
3E3
  8
SIZE
  6
CONTINUOUS
 62
    30
 10
-74.057142857142836
 20
-371.29271699999993
 30
0.0
 40
64.0
  1
283
 41
0.9
 72
     1
 11
0.0
 21
-371.29271699999993
 31
0.0
  0
CIRCLE
  5
3E4
  8
SIZE
  6
CONTINUOUS
 62
    30
 10
141.5
 20
-403.29271699999981
 30
0.0
 40
6.0
  0
CIRCLE
  5
3E5
  8
SIZE
  6
CONTINUOUS
 62
    30
 10
-141.5
 20
-403.29271699999981
 30
0.0
 40
6.0
  0
LINE
  5
3E6
  8
NOTE
  6
CONTINUOUS
 62
     4
 10
-141.5
 20
0.0
 30
0.0
 11
-229.88474999999991
 21
-185.332121
 31
0.0
  0
LINE
  5
3E7
  8
NOTE
  6
CONTINUOUS
 62
     4
 10
-229.88474999999991
 20
-185.332121
 30
0.0
 11
-695.62438199999997
 21
-185.332121
 31
0.0
  0
TEXT
  5
3E8
  8
NOTE
  6
CONTINUOUS
 62
     4
 10
-685.79092400000002
 20
-143.69881999999981
 30
0.0
 40
64.0
  1
8×φ5取付穴
 41
0.9
  0
LINE
  5
3E9
  8
NOTE
  6
CONTINUOUS
 62
     4
 10
-149.58186499999991
 20
-39.175035999999992
 30
0.0
 11
-141.5
 21
0.0
 31
0.0
  0
LINE
  5
3EA
  8
NOTE
  6
CONTINUOUS
 62
     4
 10
-141.5
 20
0.0
 30
0.0
 11
-168.08661899999981
 21
-29.885643999999989
 31
0.0
  0
LINE
  5
3EB
  8
NOTE
  6
CONTINUOUS
 62
     4
 10
-110.0
 20
-20.0
 30
0.0
 11
-110.0
 21
20.0
 31
0.0
  0
LINE
  5
3EC
  8
NOTE
  6
CONTINUOUS
 62
     4
 10
-130.0
 20
0.0
 30
0.0
 11
-90.0
 21
0.0
 31
0.0
  0
LINE
  5
3ED
  8
NOTE
  6
CONTINUOUS
 62
     4
 10
-110.0
 20
0.0
 30
0.0
 11
-248.12914499999999
 21
-379.60433599999999
 31
0.0
  0
LINE
  5
3EE
  8
NOTE
  6
CONTINUOUS
 62
     4
 10
-248.12914499999999
 20
-379.60433599999999
 30
0.0
 11
-393.549058
 21
-379.60433599999999
 31
0.0
  0
LINE
  5
3EF
  8
NOTE
  6
CONTINUOUS
 62
     4
 10
-114.3286129999999
 20
-39.765098999999992
 30
0.0
 11
-110.0
 21
0.0
 31
0.0
  0
LINE
  5
3F0
  8
NOTE
  6
CONTINUOUS
 62
     4
 10
-110.0
 20
0.0
 30
0.0
 11
-133.63123899999999
 21
-32.273278999999981
 31
0.0
  0
TEXT
  5
3F1
  8
NOTE
  6
CONTINUOUS
 62
     4
 10
-372.23310299999991
 20
-360.28032899999999
 30
0.0
 40
64.0
  1
EL
 41
0.9
  0
LINE
  5
3F2
  8
SIZE
  6
CONTINUOUS
 62
    30
 10
361.30113699999993
 20
94.0
 30
0.0
 11
361.30113699999993
 21
-197.045332
 31
0.0
  0
CIRCLE
  5
3F3
  8
FIX
  6
CONTINUOUS
 62
    11
 10
-141.5
 20
0.0
 30
0.0
 40
2.5
  0
CIRCLE
  5
3F4
  8
FIX
  6
CONTINUOUS
 62
    11
 10
-85.0
 20
0.0
 30
0.0
 40
2.5
  0
CIRCLE
  5
3F5
  8
FIX
  6
CONTINUOUS
 62
    11
 10
85.0
 20
0.0
 30
0.0
 40
2.5
  0
CIRCLE
  5
3F6
  8
FIX
  6
CONTINUOUS
 62
    11
 10
141.5
 20
0.0
 30
0.0
 40
2.5
  0
LINE
  5
3F7
  8
DETAIL
  6
CONTINUOUS
 62
     5
 10
-115.5
 20
128.0
 30
0.0
 11
115.5
 21
128.0
 31
0.0
  0
LINE
  5
3F8
  8
DETAIL
  6
CONTINUOUS
 62
     5
 10
101.5
 20
212.0
 30
0.0
 11
101.5
 21
215.0
 31
0.0
  0
LINE
  5
3F9
  8
DETAIL
  6
CONTINUOUS
 62
     5
 10
-101.5
 20
212.0
 30
0.0
 11
-101.5
 21
215.0
 31
0.0
  0
LINE
  5
3FA
  8
DETAIL
  6
CONTINUOUS
 62
     5
 10
-101.5
 20
215.0
 30
0.0
 11
101.5
 21
215.0
 31
0.0
  0
LINE
  5
3FB
  8
DETAIL
  6
CONTINUOUS
 62
     5
 10
-86.721340999999995
 20
128.0
 30
0.0
 11
-86.721340999999995
 21
100.0
 31
0.0
  0
LINE
  5
3FC
  8
DETAIL
  6
CONTINUOUS
 62
     5
 10
-93.749209999999962
 20
128.0
 30
0.0
 11
-93.749209999999962
 21
100.0
 31
0.0
  0
LINE
  5
3FD
  8
DETAIL
  6
CONTINUOUS
 62
     5
 10
93.683505999999994
 20
128.0
 30
0.0
 11
93.683505999999994
 21
100.0
 31
0.0
  0
LINE
  5
3FE
  8
DETAIL
  6
CONTINUOUS
 62
     5
 10
85.789342000000005
 20
128.0
 30
0.0
 11
85.789342000000005
 21
100.0
 31
0.0
  0
LINE
  5
3FF
  8
SIZE
  6
CONTINUOUS
 62
    30
 10
121.5
 20
215.0
 30
0.0
 11
607.39342099999999
 21
215.0
 31
0.0
  0
LINE
  5
400
  8
SIZE
  6
CONTINUOUS
 62
    30
 10
175.0
 20
0.0
 30
0.0
 11
607.39342099999999
 21
0.0
 31
0.0
  0
LINE
  5
401
  8
SIZE
  6
CONTINUOUS
 62
    30
 10
577.39342099999999
 20
213.0
 30
0.0
 11
577.39342099999999
 21
2.0
 31
0.0
  0
TEXT
  5
402
  8
SIZE
  6
CONTINUOUS
 62
    30
 10
539.22188100000005
 20
39.26336142857113
 30
0.0
 40
64.0
  1
215
 50
90.0
 41
0.9
 72
     1
 11
539.22188100000005
 21
107.8347899999996
 31
0.0
  0
CIRCLE
  5
403
  8
SIZE
  6
CONTINUOUS
 62
    30
 10
577.39342099999999
 20
215.0
 30
0.0
 40
6.0
  0
CIRCLE
  5
404
  8
SIZE
  6
CONTINUOUS
 62
    30
 10
577.39342099999999
 20
0.0
 30
0.0
 40
6.0
  0
LINE
  5
405
  8
SIZE
  6
CONTINUOUS
 62
    30
 10
135.4999999999996
 20
128.0
 30
0.0
 11
391.30113699999993
 21
128.0
 31
0.0
  0
LINE
  5
406
  8
SIZE
  6
CONTINUOUS
 62
    30
 10
145.5
 20
100.0
 30
0.0
 11
391.30113699999993
 21
100.0
 31
0.0
  0
LINE
  5
407
  8
SIZE
  6
CONTINUOUS
 62
    30
 10
361.30113699999993
 20
126.0
 30
0.0
 11
361.30113699999993
 21
102.0
 31
0.0
  0
TEXT
  5
408
  8
SIZE
  6
CONTINUOUS
 62
    30
 10
347.25989800000002
 20
235.39297657142831
 30
0.0
 40
64.0
  1
28
 50
90.0
 41
0.9
 72
     1
 11
347.25989800000002
 21
282.02154799999983
 31
0.0
  0
CIRCLE
  5
409
  8
SIZE
  6
CONTINUOUS
 62
    30
 10
361.30113699999993
 20
128.0
 30
0.0
 40
6.0
  0
CIRCLE
  5
40A
  8
SIZE
  6
CONTINUOUS
 62
    30
 10
361.30113699999993
 20
100.0
 30
0.0
 40
6.0
  0
LINE
  5
40B
  8
SIZE
  6
CONTINUOUS
 62
    30
 10
361.30113699999993
 20
114.0
 30
0.0
 11
361.30113699999993
 21
331.6915489999999
 31
0.0
  0
LINE
  5
40C
  8
DETAIL
  6
CONTINUOUS
 62
     5
 10
0.0
 20
128.0
 30
0.0
 11
82.0
 21
128.0
 31
0.0
  0
LINE
  5
40D
  8
DETAIL
  6
CONTINUOUS
 62
     5
 10
41.0
 20
128.0
 30
0.0
 11
41.0
 21
100.0
 31
0.0
  0
LINE
  5
40E
  8
DETAIL
  6
CONTINUOUS
 62
     5
 10
-41.0
 20
128.0
 30
0.0
 11
-41.0
 21
100.0
 31
0.0
  0
TEXT
  5
40F
  8
NOTE
  6
CONTINUOUS
 62
     4
 10
451.68059
 20
229.894383
 30
0.0
 40
64.0
  1
(吹出口,全周)
 50
90.0
 41
0.9
  0
LINE
  5
410
  8
SIZE
  6
CONTINUOUS
 62
    30
 10
577.39342099999999
 20
-12.0
 30
0.0
 11
577.39342099999999
 21
-129.71890300000001
 31
0.0
  0
TEXT
  5
411
  8
NOTE
  6
CONTINUOUS
 62
     4
 10
686.13361599999985
 20
32.375834999999988
 30
0.0
 40
64.0
  1
(シャッター開時)
 50
90.0
 41
0.9
  0
TEXT
  5
412
  8
ETC
  6
CONTINUOUS
 62
    61
 10
873.66979797644854
 20
313.24961571947762
 30
0.0
 40
50.0
  1
V-20MEX2-G
 41
0.9
  0
TEXT
  5
413
  8
ETC
  6
CONTINUOUS
 62
    61
 10
873.66979797644854
 20
386.49077560375082
 30
0.0
 40
50.0
  1
V-20MEX2
 41
0.9
  0
TEXT
  5
414
  8
ETC
  6
CONTINUOUS
 62
    61
 10
740.65248837716786
 20
464.48724045958483
 30
0.0
 40
64.0
  1
換気扇
 41
0.9
  0
TEXT
  5
415
  8
ETC
  6
CONTINUOUS
 62
    61
 10
743.61006057933241
 20
568.99504141721354
 30
0.0
 40
64.0
  1
V-20MEX2_4
 41
0.9
  0
LINE
  5
416
  8
OUTLINE
  6
CONTINUOUS
 62
     3
 10
127.0
 20
0.0
 30
0.0
 11
125.5
 21
100.0
 31
0.0
  0
LINE
  5
417
  8
OUTLINE
  6
CONTINUOUS
 62
     3
 10
-127.0
 20
0.0
 30
0.0
 11
-125.5
 21
100.0
 31
0.0
  0
LINE
  5
41D
  8
OUTLINE
  6
CONTINUOUS
 62
     3
 10
-101.5
 20
215.0
 30
0.0
 11
101.5
 21
215.0
 31
0.0
  0
LINE
  5
41E
  8
OUTLINE
  6
CONTINUOUS
 62
     3
 10
-115.5
 20
128.0
 30
0.0
 11
115.5
 21
128.0
 31
0.0
  0
LINE
  5
41F
  8
OUTLINE
  6
CONTINUOUS
 62
     3
 10
-115.5
 20
100.0
 30
0.0
 11
115.5
 21
100.0
 31
0.0
  0
LINE
  5
420
  8
OUTLINE
  6
CONTINUOUS
 62
     3
 10
-115.5
 20
173.0
 30
0.0
 11
-115.5
 21
128.0
 31
0.0
  0
LINE
  5
421
  8
OUTLINE
  6
CONTINUOUS
 62
     3
 10
-93.749209999999948
 20
128.0
 30
0.0
 11
-93.749209999999948
 21
100.0
 31
0.0
  0
LINE
  5
422
  8
OUTLINE
  6
CONTINUOUS
 62
     3
 10
-115.5
 20
100.0
 30
0.0
 11
-125.5
 21
100.0
 31
0.0
  0
LINE
  5
423
  8
OUTLINE
  6
CONTINUOUS
 62
     3
 10
-41.0
 20
128.0
 30
0.0
 11
-41.0
 21
100.0
 31
0.0
  0
LINE
  5
424
  8
OUTLINE
  6
CONTINUOUS
 62
     3
 10
-86.721340999999924
 20
128.0
 30
0.0
 11
-86.721340999999924
 21
100.0
 31
0.0
  0
LINE
  5
425
  8
OUTLINE
  6
CONTINUOUS
 62
     3
 10
41.0
 20
128.0
 30
0.0
 11
41.0
 21
100.0
 31
0.0
  0
LINE
  5
426
  8
OUTLINE
  6
CONTINUOUS
 62
     3
 10
-101.5
 20
215.0
 30
0.0
 11
-101.5
 21
173.0
 31
0.0
  0
LINE
  5
427
  8
OUTLINE
  6
CONTINUOUS
 62
     3
 10
-101.5
 20
173.0
 30
0.0
 11
-115.5
 21
173.0
 31
0.0
  0
LINE
  5
428
  8
OUTLINE
  6
CONTINUOUS
 62
     3
 10
115.5
 20
128.0
 30
0.0
 11
115.5
 21
173.0
 31
0.0
  0
LINE
  5
429
  8
OUTLINE
  6
CONTINUOUS
 62
     3
 10
85.789342000000033
 20
128.0
 30
0.0
 11
85.789342000000033
 21
100.0
 31
0.0
  0
LINE
  5
42A
  8
OUTLINE
  6
CONTINUOUS
 62
     3
 10
93.683505999999966
 20
128.0
 30
0.0
 11
93.683505999999966
 21
100.0
 31
0.0
  0
LINE
  5
42B
  8
OUTLINE
  6
CONTINUOUS
 62
     3
 10
125.5
 20
100.0
 30
0.0
 11
115.5
 21
100.0
 31
0.0
  0
LINE
  5
42C
  8
OUTLINE
  6
CONTINUOUS
 62
     3
 10
115.5
 20
173.0
 30
0.0
 11
101.5
 21
173.0
 31
0.0
  0
LINE
  5
42D
  8
OUTLINE
  6
CONTINUOUS
 62
     3
 10
101.5
 20
173.0
 30
0.0
 11
101.5
 21
215.0
 31
0.0
  0
ARC
  5
441
  8
DETAIL
  6
CONTINUOUS
 62
     5
 10
0.0000969999999825
 20
2146.5027420000001
 30
0.0
 40
2164.5027420000001
 50
265.97893400000129
 51
269.99999699999898
  0
LINE
  5
442
  8
DETAIL
  6
CONTINUOUS
 62
     5
 10
-155.0
 20
0.0
 30
0.0
 11
155.0
 21
0.0
 31
0.0
  0
LINE
  5
443
  8
DETAIL
  6
CONTINUOUS
 62
     5
 10
-155.0
 20
-8.0
 30
0.0
 11
-155.0
 21
0.0
 31
0.0
  0
ARC
  5
444
  8
DETAIL
  6
CONTINUOUS
 62
     5
 10
-150.0
 20
-8.0
 30
0.0
 40
5.0
 50
180.0
 51
249.12243499999829
  0
ARC
  5
445
  8
DETAIL
  6
CONTINUOUS
 62
     5
 10
-0.0000969999999825
 20
2146.5027420000001
 30
0.0
 40
2164.5027420000001
 50
270.00000299999772
 51
274.0210659999986
  0
LINE
  5
446
  8
DETAIL
  6
CONTINUOUS
 62
     5
 10
155.0
 20
-8.0
 30
0.0
 11
155.0
 21
0.0
 31
0.0
  0
ARC
  5
447
  8
DETAIL
  6
CONTINUOUS
 62
     5
 10
150.0
 20
-8.0
 30
0.0
 40
5.0
 50
290.87756699999881
 51
0.0
  0
LINE
  5
448
  8
OUTLINE
  6
CONTINUOUS
 62
     3
 10
-101.5
 20
173.0
 30
0.0
 11
101.5
 21
173.0
 31
0.0
  0
LINE
  5
449
  8
OUTLINE
  6
CONTINUOUS
 62
     3
 10
-155.0
 20
0.0
 30
0.0
 11
155.0
 21
0.0
 31
0.0
  0
ENDSEC
  0
EOF
