  0
SECTION
  2
HEADER
  9
$ACADVER
  1
AC1009
  9
$DWGCODEPAGE
  3
dos932
  9
$INSBASE
 10
0.0
 20
0.0
 30
0.0
  9
$EXTMIN
 10
-353.03190451002769
 20
-592.80394354463169
 30
-0.0015258207003583
  9
$EXTMAX
 10
864.678966457348
 20
747.5738607435178
 30
0.0000000349246037
  9
$LIMMIN
 10
-2970.0
 20
-2100.0
  9
$LIMMAX
 10
2970.0
 20
2100.0
  9
$ORTHOMODE
 70
     1
  9
$REGENMODE
 70
     1
  9
$FILLMODE
 70
     1
  9
$QTEXTMODE
 70
     0
  9
$MIRRTEXT
 70
     0
  9
$LTSCALE
 40
20.0
  9
$ATTMODE
 70
     1
  9
$TEXTSIZE
 40
64.0
  9
$TRACEWID
 40
0.05
  9
$TEXTSTYLE
  7
STANDARD
  9
$CLAYER
  8
SIZE
  9
$CELTYPE
  6
CONTINUOUS
  9
$CECOLOR
 62
     7
  9
$DIMSCALE
 40
1.0
  9
$DIMASZ
 40
12.0
  9
$DIMEXO
 40
20.0
  9
$DIMDLI
 40
200.0
  9
$DIMRND
 40
0.0
  9
$DIMDLE
 40
0.0
  9
$DIMEXE
 40
20.0
  9
$DIMTP
 40
0.0
  9
$DIMTM
 40
0.0
  9
$DIMTXT
 40
64.0
  9
$DIMCEN
 40
0.09
  9
$DIMTSZ
 40
0.0
  9
$DIMTOL
 70
     0
  9
$DIMLIM
 70
     0
  9
$DIMTIH
 70
     0
  9
$DIMTOH
 70
     0
  9
$DIMSE1
 70
     0
  9
$DIMSE2
 70
     0
  9
$DIMTAD
 70
     1
  9
$DIMZIN
 70
     8
  9
$DIMBLK
  1

  9
$DIMASO
 70
     1
  9
$DIMSHO
 70
     0
  9
$DIMPOST
  1

  9
$DIMAPOST
  1

  9
$DIMALT
 70
     0
  9
$DIMALTD
 70
     2
  9
$DIMALTF
 40
25.399999999999999
  9
$DIMLFAC
 40
1.0
  9
$DIMTOFL
 70
     1
  9
$DIMTVP
 40
0.0
  9
$DIMTIX
 70
     1
  9
$DIMSOXD
 70
     0
  9
$DIMSAH
 70
     0
  9
$DIMBLK1
  1

  9
$DIMBLK2
  1

  9
$DIMSTYLE
  2
STANDARD
  9
$DIMCLRD
 70
     7
  9
$DIMCLRE
 70
     7
  9
$DIMCLRT
 70
     7
  9
$DIMTFAC
 40
1.0
  9
$DIMGAP
 40
25.0
  9
$LUNITS
 70
     2
  9
$LUPREC
 70
     4
  9
$SKETCHINC
 40
0.1
  9
$FILLETRAD
 40
3.0
  9
$AUNITS
 70
     1
  9
$AUPREC
 70
     3
  9
$MENU
  1
ACAD
  9
$ELEVATION
 40
0.0
  9
$PELEVATION
 40
0.0
  9
$THICKNESS
 40
0.0
  9
$LIMCHECK
 70
     0
  9
$CHAMFERA
 40
0.0
  9
$CHAMFERB
 40
0.0
  9
$SKPOLY
 70
     0
  9
$TDCREATE
 40
2453019.62301037
  9
$TDUPDATE
 40
2459025.578562951
  9
$TDINDWG
 40
1.7141595023
  9
$TDUSRTIMER
 40
1.7141595023
  9
$USRTIMER
 70
     1
  9
$ANGBASE
 50
0.0
  9
$ANGDIR
 70
     0
  9
$PDMODE
 70
     3
  9
$PDSIZE
 40
-2.0
  9
$PLINEWID
 40
0.0
  9
$SPLFRAME
 70
     0
  9
$SPLINETYPE
 70
     6
  9
$SPLINESEGS
 70
     8
  9
$SURFTAB1
 70
     6
  9
$SURFTAB2
 70
     6
  9
$SURFTYPE
 70
     6
  9
$SURFU
 70
     6
  9
$SURFV
 70
     6
  9
$UCSNAME
  2

  9
$UCSORG
 10
0.0
 20
0.0
 30
0.0
  9
$UCSXDIR
 10
1.0
 20
0.0
 30
0.0
  9
$UCSYDIR
 10
0.0
 20
1.0
 30
0.0
  9
$PUCSNAME
  2

  9
$PUCSORG
 10
0.0
 20
0.0
 30
0.0
  9
$PUCSXDIR
 10
1.0
 20
0.0
 30
0.0
  9
$PUCSYDIR
 10
0.0
 20
1.0
 30
0.0
  9
$USERI1
 70
     0
  9
$USERI2
 70
     0
  9
$USERI3
 70
     0
  9
$USERI4
 70
     0
  9
$USERI5
 70
     0
  9
$USERR1
 40
20.0
  9
$USERR2
 40
0.0
  9
$USERR3
 40
0.0
  9
$USERR4
 40
0.0
  9
$USERR5
 40
0.0
  9
$WORLDVIEW
 70
     1
  9
$SHADEDGE
 70
     3
  9
$SHADEDIF
 70
    70
  9
$TILEMODE
 70
     1
  9
$MAXACTVP
 70
    48
  9
$PINSBASE
 10
0.0
 20
0.0
 30
0.0
  9
$PLIMCHECK
 70
     0
  9
$PEXTMIN
 10
-100000000000000000000.0
 20
-100000000000000000000.0
 30
-100000000000000000000.0
  9
$PEXTMAX
 10
100000000000000000000.0
 20
100000000000000000000.0
 30
100000000000000000000.0
  9
$PLIMMIN
 10
0.0
 20
0.0
  9
$PLIMMAX
 10
12.0
 20
9.0
  9
$UNITMODE
 70
     0
  9
$VISRETAIN
 70
     0
  9
$PLINEGEN
 70
     0
  9
$PSLTSCALE
 70
     0
  9
$TREEDEPTH
 70
  3020
  9
$ATTDIA
 70
     0
  9
$ATTREQ
 70
     1
  9
$BLIPMODE
 70
     1
  9
$COORDS
 70
     1
  9
$DRAGMODE
 70
     2
  9
$OSMODE
 70
     0
  9
$HANDLING
 70
     0
  9
$HANDSEED
  5
FF20
  0
ENDSEC
  0
SECTION
  2
TABLES
  0
TABLE
  2
LTYPE
 70
     2
  0
LTYPE
  2
CONTINUOUS
 70
     0
  3
実線
 72
    65
 73
     0
 40
0.0
  0
LTYPE
  2
DASHDOT
 70
     0
  3
____ _ ____ _ ____ _ ____ _ ____ _ ____ _ ____
 72
    65
 73
     4
 40
5.5
 49
4.0
 49
-0.6
 49
0.3
 49
-0.6
  0
ENDTAB
  0
TABLE
  2
LAYER
 70
    12
  0
LAYER
  2
0
 70
     0
 62
     7
  6
CONTINUOUS
  0
LAYER
  2
BASIS
 70
     0
 62
     6
  6
DASHDOT
  0
LAYER
  2
OUTLINE
 70
     0
 62
     3
  6
CONTINUOUS
  0
LAYER
  2
DETAIL
 70
     0
 62
     5
  6
CONTINUOUS
  0
LAYER
  2
SIZE
 70
     0
 62
    30
  6
CONTINUOUS
  0
LAYER
  2
ARRANGE
 70
     0
 62
     1
  6
CONTINUOUS
  0
LAYER
  2
DEFPOINTS
 70
     0
 62
     7
  6
CONTINUOUS
  0
LAYER
  2
ETC
 70
     0
 62
    61
  6
CONTINUOUS
  0
LAYER
  2
FIX
 70
     0
 62
    11
  6
CONTINUOUS
  0
LAYER
  2
NOTE
 70
     0
 62
     4
  6
CONTINUOUS
  0
LAYER
  2
SERVICESPACE
 70
    64
 62
     2
  6
DASHDOT
  0
LAYER
  2
SYMBOLLINE
 70
    64
 62
    15
  6
CONTINUOUS
  0
ENDTAB
  0
TABLE
  2
STYLE
 70
     1
  0
STYLE
  2
STANDARD
 70
     0
 40
64.0
 41
0.9
 50
0.0
 71
     0
 42
64.0
  3
SIMPLEX.shx
  4
BIGFONT.shx
  0
ENDTAB
  0
TABLE
  2
APPID
 70
    19
  0
APPID
  2
ACAD
 70
     0
  0
APPID
  2
AUTOCAD_POSTSCRIPT_FIGURE
 70
     0
  0
APPID
  2
ACAD_EXEMPT_FROM_CAD_STANDARDS
 70
     0
  0
APPID
  2
ACAD_PSEXT
 70
     0
  0
APPID
  2
ACAUTHENVIRON
 70
     0
  0
APPID
  2
GENIUS_GENOENT_13
 70
     0
  0
APPID
  2
GENIUS_GENCFG_13
 70
     0
  0
APPID
  2
GENIUS_GENCFG0_13
 70
     0
  0
APPID
  2
GENIUS_GENCFG1_13
 70
     0
  0
APPID
  2
GENIUS_GENCFG2_13
 70
     0
  0
APPID
  2
GENIUS_GENCFG3_13
 70
     0
  0
APPID
  2
GENIUS_GENCFG4_13
 70
     0
  0
APPID
  2
GENIUS_GEVCFG0_13
 70
     0
  0
APPID
  2
CONTENTBLOCKICON
 70
     0
  0
APPID
  2
CONTENTBLOCKDESCRIPTION
 70
     0
  0
APPID
  2
ACAD_NAV_VCDISPLAY
 70
     0
  0
APPID
  2
ACAD_MLEADERVER
 70
     0
  0
APPID
  2
ACDBDYNAMICBLOCKTRUENAME
 70
     0
  0
APPID
  2
ACDBDYNAMICBLOCKGUID
 70
     0
  0
ENDTAB
  0
TABLE
  2
DIMSTYLE
 70
     1
  0
DIMSTYLE
  2
STANDARD
 70
     0
  3

  4

  5
_ORIGIN
  6

  7

 40
1.0
 41
12.0
 42
20.0
 43
200.0
 44
20.0
 45
0.0
 46
0.0
 47
0.0
 48
0.0
140
64.0
141
0.09
142
0.0
143
25.399999999999999
144
1.0
145
0.0
146
1.0
147
25.0
 71
     0
 72
     0
 73
     0
 74
     0
 75
     0
 76
     0
 77
     1
 78
     8
170
     0
171
     2
172
     1
173
     0
174
     1
175
     0
176
     7
177
     7
178
     7
  0
ENDTAB
  0
TABLE
  2
VIEW
 70
     1
  0
VIEW
  2
ALL
 70
     0
 40
4282.6198079999986
 10
0.0
 20
41.309904000000003
 41
5940.0
 11
0.0
 21
0.0
 31
1.0
 12
0.0
 22
0.0
 32
0.0
 42
50.0
 43
0.0
 44
0.0
 50
0.0
 71
     0
  0
ENDTAB
  0
TABLE
  2
UCS
 70
     0
  0
ENDTAB
  0
TABLE
  2
VPORT
 70
     1
  0
VPORT
  2
*ACTIVE
 70
     0
 10
0.0
 20
0.0
 11
1.0
 21
1.0
 12
255.8235309736601
 22
77.384958599443053
 13
0.0
 23
0.0
 14
1.0
 24
1.0
 15
0.0
 25
0.0
 16
0.0
 26
0.0
 36
1.0
 17
0.0
 27
0.0
 37
0.0
 40
1349.264286968513
 41
1.747787610619469
 42
50.0
 43
0.0
 44
0.0
 50
0.0
 51
0.0
 71
     0
 72
  1000
 73
     1
 74
     3
 75
     0
 76
     0
 77
     0
 78
     0
  0
ENDTAB
  0
ENDSEC
  0
SECTION
  2
BLOCKS
  0
BLOCK
  8
0
  2
_ORIGIN
 70
     0
 10
0.0
 20
0.0
 30
0.0
  3
_ORIGIN
  1
_ORIGIN
  0
CIRCLE
  8
0
  6
CONTINUOUS
 62
     7
 10
0.0
 20
0.0
 30
0.0
 40
0.5
  0
LINE
  8
0
  6
CONTINUOUS
 62
     7
 10
0.0
 20
0.0
 30
0.0
 11
-1.0
 21
0.0
 31
0.0
  0
ENDBLK
  8
0
  0
ENDSEC
  0
SECTION
  2
ENTITIES
  0
CIRCLE
  8
ARRANGE
  6
CONTINUOUS
 62
     1
 10
0.0
 20
0.0
 30
0.0
 40
40.0
  0
TEXT
  8
NOTE
  6
CONTINUOUS
 62
     4
 10
321.94677100000001
 20
319.36593399999992
 30
0.0
 40
64.0
  1
4-φ5据付用穴
 41
0.9
  0
TEXT
  8
ETC
  6
CONTINUOUS
 62
    61
 10
284.36099948114958
 20
650.03826746185496
 30
0.0
 40
40.0
  1
換気扇
 41
0.9
  0
POINT
  8
ARRANGE
  6
CONTINUOUS
 62
     1
 10
0.0000009999999975
 20
0.0
 30
0.0
  0
POINT
  8
ARRANGE
  6
CONTINUOUS
 62
     1
 10
0.0000009999999975
 20
0.0
 30
0.0
  0
TEXT
  8
ETC
  6
CONTINUOUS
 62
    61
 10
282.68311448114969
 20
707.50246746185485
 30
0.0
 40
40.0
  1
V-20PF3_6
 41
0.9
  0
TEXT
  8
ETC
  6
CONTINUOUS
 62
    61
 10
314.96275802433178
 20
584.90350169639987
 30
0.0
 40
40.0
  1
V-20PF3
 41
0.9
  0
LINE
  8
DETAIL
  6
CONTINUOUS
 62
     5
 10
-31.554985673407259
 20
79.30869843778305
 30
0.0
 11
-31.554985673407259
 21
67.22366179349774
 31
0.0
  0
LINE
  8
DETAIL
  6
CONTINUOUS
 62
     5
 10
31.554987673406799
 20
79.30869843778305
 30
0.0
 11
31.554987673406799
 21
67.22366179349774
 31
0.0
  0
ARC
  8
DETAIL
  6
CONTINUOUS
 62
     5
 10
-113.87863052249701
 20
92.704875674776531
 30
0.0
 40
12.040030929908999
 50
94.690447000002138
 51
180.0
  0
ARC
  8
DETAIL
  6
CONTINUOUS
 62
     5
 10
113.8786355325097
 20
92.704875674776531
 30
0.0
 40
12.040030929908999
 50
0.0
 51
85.309552999997862
  0
ARC
  8
DETAIL
  6
CONTINUOUS
 62
     5
 10
0.0000009999999975
 20
-1295.2615791588389
 30
0.0
 40
1404.6703594364139
 50
85.309552999997862
 51
94.690447000002138
  0
LINE
  8
DETAIL
  6
CONTINUOUS
 62
     5
 10
-126.9219981157356
 20
85.328715407743744
 30
0.0
 11
126.92200312574791
 21
85.328715407743744
 31
0.0
  0
LINE
  8
DETAIL
  6
CONTINUOUS
 62
     5
 10
-126.9219981157356
 20
90.345395714375968
 30
0.0
 11
-126.9219981157356
 21
85.328715407743744
 31
0.0
  0
LINE
  8
DETAIL
  6
CONTINUOUS
 62
     5
 10
126.92200312574791
 20
90.345395714375968
 30
0.0
 11
126.92200312574791
 21
85.328715407743744
 31
0.0
  0
LINE
  8
DETAIL
  6
CONTINUOUS
 62
     5
 10
-126.9219981157356
 20
90.345395714375968
 30
0.0
 11
126.92200312574791
 21
90.345395714375968
 31
0.0
  0
LINE
  8
DETAIL
  6
CONTINUOUS
 62
     5
 10
-125.9186614524064
 20
92.704875674776531
 30
0.0
 11
-125.9186614524064
 21
92.083223709912772
 31
0.0
  0
LINE
  8
DETAIL
  6
CONTINUOUS
 62
     5
 10
-126.9219981157356
 20
90.345395714375968
 30
0.0
 11
-125.9186614524064
 21
92.083223709912772
 31
0.0
  0
LINE
  8
DETAIL
  6
CONTINUOUS
 62
     5
 10
125.9186664624191
 20
92.083223709912772
 30
0.0
 11
-125.9186614524064
 21
92.083223709912772
 31
0.0
  0
LINE
  8
DETAIL
  6
CONTINUOUS
 62
     5
 10
125.9186664624191
 20
92.704875674776531
 30
0.0
 11
125.9186664624191
 21
92.083223709912772
 31
0.0
  0
LINE
  8
DETAIL
  6
CONTINUOUS
 62
     5
 10
126.92200312574791
 20
90.345395714375968
 30
0.0
 11
125.9186664624191
 21
92.083223709912772
 31
0.0
  0
LINE
  8
DETAIL
  6
CONTINUOUS
 62
     5
 10
-96.999999000000003
 20
79.30869843778305
 30
0.0
 11
97.000000999999997
 21
79.30869843778305
 31
0.0
  0
LINE
  8
DETAIL
  6
CONTINUOUS
 62
     5
 10
2.5083050331596719
 20
0.0
 30
0.0
 11
10.43417795435664
 21
0.0
 31
0.0
  0
LINE
  8
BASIS
  6
DASHDOT
 62
     6
 10
0.0000009999999975
 20
-54.327565106310999
 30
0.0
 11
0.0000009999999975
 21
123.7541651141189
 31
0.0
  0
LINE
  8
DETAIL
  6
CONTINUOUS
 62
     5
 10
-93.499999000000003
 20
67.22366179349774
 30
0.0
 11
93.50000099999977
 21
67.22366179349774
 31
0.0
  0
LINE
  8
DETAIL
  6
CONTINUOUS
 62
     5
 10
126.8162372889534
 20
0.0
 30
0.0
 11
-98.312766684803933
 21
0.0
 31
0.0
  0
LINE
  8
DETAIL
  6
CONTINUOUS
 62
     5
 10
127.31781381522219
 20
-0.5112988682578816
 30
0.0
 11
126.9287335148157
 21
-20.7748779549994
 31
0.0
  0
LINE
  8
DETAIL
  6
CONTINUOUS
 62
     5
 10
115.00588540101
 20
-21.070100030039271
 30
0.0
 11
104.65370421078531
 21
-21.070100030039271
 31
0.0
  0
LINE
  8
DETAIL
  6
CONTINUOUS
 62
     5
 10
-127.3178088052094
 20
-0.5112988682578816
 30
0.0
 11
-126.928728504803
 21
-20.7748779549994
 31
0.0
  0
LINE
  8
DETAIL
  6
CONTINUOUS
 62
     5
 10
-126.8162322789407
 20
0.0
 30
0.0
 11
-96.536702494128235
 21
0.0
 31
0.0
  0
ARC
  8
DETAIL
  6
CONTINUOUS
 62
     5
 10
126.8162372889534
 20
-0.5016668266581519
 30
0.0
 40
0.5016698366710001
 50
358.900000000001
 51
90.0
  0
ARC
  8
DETAIL
  6
CONTINUOUS
 62
     5
 10
126.6277863950496
 20
-20.769098730038881
 30
0.0
 40
0.3010013
 50
270.0
 51
358.90000099999781
  0
ARC
  8
DETAIL
  6
CONTINUOUS
 62
     5
 10
-126.8162322789407
 20
-0.5016668266581519
 30
0.0
 40
0.5016698366710001
 50
90.0
 51
181.099999999999
  0
ARC
  8
DETAIL
  6
CONTINUOUS
 62
     5
 10
-126.6277843950505
 20
-20.769098730038881
 30
0.0
 40
0.3010013
 50
181.099999999999
 51
270.0
  0
ARC
  8
DETAIL
  6
CONTINUOUS
 62
     5
 10
113.8788883736016
 20
-28.446278357150049
 30
0.0
 40
12.040058020026001
 50
274.69044700000222
 51
336.0024889999969
  0
LINE
  8
DETAIL
  6
CONTINUOUS
 62
     5
 10
-126.92228406697031
 20
-21.065154578680112
 30
0.0
 11
126.9222860669698
 21
-21.065154578680112
 31
0.0
  0
LINE
  8
DETAIL
  6
CONTINUOUS
 62
     5
 10
126.9222860669698
 20
-28.446278357150049
 30
0.0
 11
126.9222860669698
 21
-21.070100030039271
 31
0.0
  0
LINE
  8
DETAIL
  6
CONTINUOUS
 62
     5
 10
-126.92228406697031
 20
-30.601814886736179
 30
0.0
 11
-126.92228406697031
 21
-21.070100030039271
 31
0.0
  0
ARC
  8
DETAIL
  6
CONTINUOUS
 62
     5
 10
0.0000009999999975
 20
1359.5232918399211
 30
0.0
 40
1404.6735109200249
 50
265.30955299999778
 51
274.69044700000222
  0
LINE
  8
DETAIL
  6
CONTINUOUS
 62
     5
 10
-125.91894439362829
 20
-31.60515155006533
 30
0.0
 11
-125.4971723420289
 21
-31.60515155006533
 31
0.0
  0
ARC
  8
DETAIL
  6
CONTINUOUS
 62
     5
 10
-125.91894439362829
 20
-30.601814886736179
 30
0.0
 40
1.0033396733419999
 50
180.0
 51
270.0
  0
ARC
  8
DETAIL
  6
CONTINUOUS
 62
     5
 10
113.8788883736016
 20
-28.446278357150049
 30
0.0
 40
13.043397693368
 50
345.98465100000692
 51
0.0
  0
LINE
  8
DETAIL
  6
CONTINUOUS
 62
     5
 10
124.878243428917
 20
-33.342934395407497
 30
0.0
 11
126.53399739998299
 21
-31.60515155006533
 31
0.0
  0
ARC
  8
DETAIL
  6
CONTINUOUS
 62
     5
 10
-113.8788863736025
 20
-28.446278357150049
 30
0.0
 40
12.040058020026001
 50
195.21035799999839
 51
265.30955299999778
  0
LINE
  8
DETAIL
  6
CONTINUOUS
 62
     5
 10
-125.4971723420289
 20
-31.60515155006533
 30
0.0
 11
126.53399739998299
 21
-31.60515155006533
 31
0.0
  0
LINE
  8
SIZE
  6
CONTINUOUS
 62
    30
 10
146.8162372889534
 20
0.000003010012847
 30
0.0
 11
262.18363509007708
 21
0.000003010012847
 31
0.0
  0
LINE
  8
SIZE
  6
CONTINUOUS
 62
    30
 10
146.9222860669698
 20
-21.070100030039271
 30
0.0
 11
262.18363509007708
 21
-21.070100030039271
 31
0.0
  0
LINE
  8
SIZE
  6
CONTINUOUS
 62
    30
 10
242.1836350900771
 20
12.000003010012851
 30
0.0
 11
242.1836350900771
 21
24.000003010012851
 31
0.0
  0
LINE
  8
SIZE
  6
CONTINUOUS
 62
    30
 10
242.1836350900771
 20
-33.070100030039271
 30
0.0
 11
242.1836350900771
 21
-163.64152860146791
 31
0.0
  0
LINE
  8
SIZE
  6
CONTINUOUS
 62
    30
 10
242.1836350900771
 20
0.000003010012847
 30
0.0
 11
242.1836350900771
 21
-21.070100030039271
 31
0.0
  0
CIRCLE
  8
SIZE
  6
CONTINUOUS
 62
    30
 10
242.1836350900771
 20
0.000003010012847
 30
0.0
 40
6.0
  0
LINE
  8
SIZE
  6
CONTINUOUS
 62
    30
 10
242.1836350900771
 20
0.000003010012847
 30
0.0
 11
242.1836350900771
 21
12.000003010012851
 31
0.0
  0
CIRCLE
  8
SIZE
  6
CONTINUOUS
 62
    30
 10
242.1836350900771
 20
-21.070100030039271
 30
0.0
 40
6.0
  0
LINE
  8
SIZE
  6
CONTINUOUS
 62
    30
 10
242.1836350900771
 20
-21.070100030039271
 30
0.0
 11
242.1836350900771
 21
-33.070100030039271
 31
0.0
  0
TEXT
  8
SIZE
  6
CONTINUOUS
 62
    30
 10
217.1836350900771
 20
-138.6415286014678
 30
0.0
 40
64.0
  1
21
 50
90.0
 41
0.9
 72
     1
 11
217.1836350900771
 21
-104.35581431575351
 31
0.0
  0
POINT
  8
DEFPOINTS
  6
CONTINUOUS
 62
    30
 10
126.8162372889534
 20
0.000003010012847
 30
0.0
  0
POINT
  8
DEFPOINTS
  6
CONTINUOUS
 62
    30
 10
126.9222860669698
 20
-21.070100030039271
 30
0.0
  0
POINT
  8
DEFPOINTS
  6
CONTINUOUS
 62
    30
 10
242.1836350900771
 20
-21.070100030039271
 30
0.0
  0
LINE
  8
SIZE
  6
CONTINUOUS
 62
    30
 10
146.8162372889534
 20
0.000003010012847
 30
0.0
 11
409.34160238515278
 21
0.0000030100127333
 31
0.0
  0
LINE
  8
SIZE
  6
CONTINUOUS
 62
    30
 10
20.000001000000001
 20
-45.150219080104648
 30
0.0
 11
409.34160238515278
 21
-45.150219080104762
 31
0.0
  0
LINE
  8
SIZE
  6
CONTINUOUS
 62
    30
 10
389.3416023851529
 20
12.00000301001273
 30
0.0
 11
389.3416023851529
 21
24.00000301001273
 31
0.0
  0
LINE
  8
SIZE
  6
CONTINUOUS
 62
    30
 10
389.3416023851529
 20
-57.150219080104762
 30
0.0
 11
389.34160238515278
 21
-212.40736193724749
 31
0.0
  0
LINE
  8
SIZE
  6
CONTINUOUS
 62
    30
 10
389.3416023851529
 20
0.0000030100127333
 30
0.0
 11
389.3416023851529
 21
-45.150219080104762
 31
0.0
  0
CIRCLE
  8
SIZE
  6
CONTINUOUS
 62
    30
 10
389.3416023851529
 20
0.0000030100127333
 30
0.0
 40
6.0
  0
LINE
  8
SIZE
  6
CONTINUOUS
 62
    30
 10
389.3416023851529
 20
0.0000030100127333
 30
0.0
 11
389.3416023851529
 21
12.00000301001273
 31
0.0
  0
CIRCLE
  8
SIZE
  6
CONTINUOUS
 62
    30
 10
389.3416023851529
 20
-45.150219080104762
 30
0.0
 40
6.0
  0
LINE
  8
SIZE
  6
CONTINUOUS
 62
    30
 10
389.3416023851529
 20
-45.150219080104762
 30
0.0
 11
389.3416023851529
 21
-57.150219080104762
 31
0.0
  0
TEXT
  8
SIZE
  6
CONTINUOUS
 62
    30
 10
364.3416023851529
 20
-187.4073619372476
 30
0.0
 40
64.0
  1
45
 50
90.0
 41
0.9
 72
     1
 11
364.3416023851529
 21
-140.77879050867611
 31
0.0
  0
POINT
  8
DEFPOINTS
  6
CONTINUOUS
 62
    30
 10
126.8162372889534
 20
0.000003010012847
 30
0.0
  0
POINT
  8
DEFPOINTS
  6
CONTINUOUS
 62
    30
 10
0.0000009999999975
 20
-45.150219080104648
 30
0.0
  0
POINT
  8
DEFPOINTS
  6
CONTINUOUS
 62
    30
 10
389.3416023851529
 20
-45.150219080104762
 30
0.0
  0
LINE
  8
SIZE
  6
CONTINUOUS
 62
    30
 10
146.8162372889534
 20
0.000003010012847
 30
0.0
 11
536.03680681320088
 21
0.0000030100127333
 31
0.0
  0
LINE
  8
SIZE
  6
CONTINUOUS
 62
    30
 10
146.92200312574789
 20
85.328715407743744
 30
0.0
 11
536.03680681320088
 21
85.32871540774363
 31
0.0
  0
LINE
  8
SIZE
  6
CONTINUOUS
 62
    30
 10
516.03680681320088
 20
73.32871540774363
 30
0.0
 11
516.03680681320088
 21
12.00000301001273
 31
0.0
  0
LINE
  8
SIZE
  6
CONTINUOUS
 62
    30
 10
516.03680681320088
 20
0.0000030100127333
 30
0.0
 11
516.03680681320066
 21
-293.49713984713031
 31
0.0
  0
CIRCLE
  8
SIZE
  6
CONTINUOUS
 62
    30
 10
516.03680681320088
 20
85.32871540774363
 30
0.0
 40
6.0
  0
LINE
  8
SIZE
  6
CONTINUOUS
 62
    30
 10
516.03680681320088
 20
85.32871540774363
 30
0.0
 11
516.03680681320088
 21
73.32871540774363
 31
0.0
  0
CIRCLE
  8
SIZE
  6
CONTINUOUS
 62
    30
 10
516.03680681320088
 20
0.0000030100127333
 30
0.0
 40
6.0
  0
LINE
  8
SIZE
  6
CONTINUOUS
 62
    30
 10
516.03680681320088
 20
0.0000030100127333
 30
0.0
 11
516.03680681320088
 21
12.00000301001273
 31
0.0
  0
TEXT
  8
SIZE
  6
CONTINUOUS
 62
    30
 10
491.03680681320088
 20
-268.49713984713031
 30
0.0
 40
64.0
  1
最小85
 50
90.0
 41
0.9
 72
     1
 11
491.03680681320088
 21
-152.74856841855879
 31
0.0
  0
POINT
  8
DEFPOINTS
  6
CONTINUOUS
 62
    30
 10
126.8162372889534
 20
0.000003010012847
 30
0.0
  0
POINT
  8
DEFPOINTS
  6
CONTINUOUS
 62
    30
 10
126.92200312574791
 20
85.328715407743744
 30
0.0
  0
POINT
  8
DEFPOINTS
  6
CONTINUOUS
 62
    30
 10
516.03680681320088
 20
85.32871540774363
 30
0.0
  0
LINE
  8
SIZE
  6
CONTINUOUS
 62
    30
 10
146.92200312574789
 20
85.328715407743744
 30
0.0
 11
409.34160238515278
 21
85.32871540774363
 31
0.0
  0
LINE
  8
SIZE
  6
CONTINUOUS
 62
    30
 10
20.000001000000001
 20
109.40878027757491
 30
0.0
 11
409.34160238515278
 21
109.40878027757481
 31
0.0
  0
LINE
  8
SIZE
  6
CONTINUOUS
 62
    30
 10
389.3416023851529
 20
73.32871540774363
 30
0.0
 11
389.3416023851529
 21
61.32871540774363
 31
0.0
  0
LINE
  8
SIZE
  6
CONTINUOUS
 62
    30
 10
389.3416023851529
 20
121.40878027757481
 30
0.0
 11
389.34160238515301
 21
279.40878027757481
 31
0.0
  0
LINE
  8
SIZE
  6
CONTINUOUS
 62
    30
 10
389.3416023851529
 20
85.32871540774363
 30
0.0
 11
389.3416023851529
 21
109.40878027757481
 31
0.0
  0
CIRCLE
  8
SIZE
  6
CONTINUOUS
 62
    30
 10
389.3416023851529
 20
85.32871540774363
 30
0.0
 40
6.0
  0
LINE
  8
SIZE
  6
CONTINUOUS
 62
    30
 10
389.3416023851529
 20
85.32871540774363
 30
0.0
 11
389.3416023851529
 21
73.32871540774363
 31
0.0
  0
CIRCLE
  8
SIZE
  6
CONTINUOUS
 62
    30
 10
389.3416023851529
 20
109.40878027757481
 30
0.0
 40
6.0
  0
LINE
  8
SIZE
  6
CONTINUOUS
 62
    30
 10
389.3416023851529
 20
109.40878027757481
 30
0.0
 11
389.3416023851529
 21
121.40878027757481
 31
0.0
  0
TEXT
  8
SIZE
  6
CONTINUOUS
 62
    30
 10
364.3416023851529
 20
158.408780277575
 30
0.0
 40
64.0
  1
24
 50
90.0
 41
0.9
 72
     1
 11
364.3416023851529
 21
206.408780277575
 31
0.0
  0
POINT
  8
DEFPOINTS
  6
CONTINUOUS
 62
    30
 10
126.92200312574791
 20
85.328715407743744
 30
0.0
  0
POINT
  8
DEFPOINTS
  6
CONTINUOUS
 62
    30
 10
0.0000009999999975
 20
109.40878027757491
 30
0.0
  0
POINT
  8
DEFPOINTS
  6
CONTINUOUS
 62
    30
 10
389.3416023851529
 20
109.40878027757481
 30
0.0
  0
LINE
  8
SIZE
  6
CONTINUOUS
 62
    30
 10
-31.554985673407259
 20
99.30869843778305
 30
0.0
 11
-31.554985673407259
 21
163.6229472694757
 31
0.0
  0
LINE
  8
SIZE
  6
CONTINUOUS
 62
    30
 10
31.554987673406799
 20
99.30869843778305
 30
0.0
 11
31.554987673406799
 21
163.6229472694757
 31
0.0
  0
LINE
  8
SIZE
  6
CONTINUOUS
 62
    30
 10
-43.554985673407259
 20
143.6229472694757
 30
0.0
 11
-55.554985673407259
 21
143.6229472694757
 31
0.0
  0
LINE
  8
SIZE
  6
CONTINUOUS
 62
    30
 10
43.554987673406799
 20
143.6229472694757
 30
0.0
 11
55.554987673406799
 21
143.6229472694757
 31
0.0
  0
LINE
  8
SIZE
  6
CONTINUOUS
 62
    30
 10
-31.554985673407259
 20
143.6229472694757
 30
0.0
 11
31.554987673406799
 21
143.6229472694757
 31
0.0
  0
CIRCLE
  8
SIZE
  6
CONTINUOUS
 62
    30
 10
-31.554985673407259
 20
143.6229472694757
 30
0.0
 40
6.0
  0
LINE
  8
SIZE
  6
CONTINUOUS
 62
    30
 10
-31.554985673407259
 20
143.6229472694757
 30
0.0
 11
-43.554985673407259
 21
143.6229472694757
 31
0.0
  0
CIRCLE
  8
SIZE
  6
CONTINUOUS
 62
    30
 10
31.554987673406799
 20
143.6229472694757
 30
0.0
 40
6.0
  0
LINE
  8
SIZE
  6
CONTINUOUS
 62
    30
 10
31.554987673406799
 20
143.6229472694757
 30
0.0
 11
43.554987673406799
 21
143.6229472694757
 31
0.0
  0
TEXT
  8
SIZE
  6
CONTINUOUS
 62
    30
 10
-86.948570428571671
 20
179.28961393614239
 30
0.0
 40
64.0
  1
φ63
 41
0.9
 72
     1
 11
0.0000009999997701
 21
179.28961393614239
 31
0.0
  0
POINT
  8
DEFPOINTS
  6
CONTINUOUS
 62
    30
 10
-31.554985673407259
 20
79.30869843778305
 30
0.0
  0
POINT
  8
DEFPOINTS
  6
CONTINUOUS
 62
    30
 10
31.554987673406799
 20
79.30869843778305
 30
0.0
  0
POINT
  8
DEFPOINTS
  6
CONTINUOUS
 62
    30
 10
31.554987673406799
 20
143.6229472694757
 30
0.0
  0
LINE
  8
DETAIL
  6
CONTINUOUS
 62
     5
 10
-93.499999000000003
 20
0.0
 30
0.0
 11
-93.499999000000003
 21
67.22366179349774
 31
0.0
  0
LINE
  8
DETAIL
  6
CONTINUOUS
 62
     5
 10
93.500000999999997
 20
0.0
 30
0.0
 11
93.50000099999977
 21
67.22366179349774
 31
0.0
  0
LINE
  8
NOTE
  6
DASHDOT
 62
     4
 10
-105.9999999999999
 20
-20.0
 30
0.0
 11
-105.9999999999999
 21
20.0
 31
0.0
  0
CIRCLE
  8
FIX
  6
CONTINUOUS
 62
    11
 10
-105.9999999999999
 20
0.0
 30
0.0
 40
2.0
  0
LINE
  8
NOTE
  6
DASHDOT
 62
     4
 10
106.0000000000001
 20
20.0
 30
0.0
 11
106.0000000000001
 21
-20.0
 31
0.0
  0
LINE
  8
NOTE
  6
CONTINUOUS
 62
     4
 10
106.0000000000001
 20
-0.0000009999999975
 30
0.0
 11
301.11300200000028
 21
303.500722
 31
0.0
  0
LINE
  8
NOTE
  6
CONTINUOUS
 62
     4
 10
140.71751400000019
 20
21.654933000000032
 30
0.0
 11
106.0000000000001
 21
-0.0000009999999975
 31
0.0
  0
CIRCLE
  8
FIX
  6
CONTINUOUS
 62
    11
 10
106.0000000000001
 20
-0.0000009999999975
 30
0.0
 40
2.0
  0
LINE
  8
NOTE
  6
CONTINUOUS
 62
     4
 10
106.0000019999999
 20
0.0
 30
0.0
 11
113.793012
 21
39.64527099999998
 31
0.0
  0
CIRCLE
  8
FIX
  6
CONTINUOUS
 62
    11
 10
115.99999699999999
 20
-0.0000079999999798
 30
0.0
 40
2.0
  0
LINE
  8
NOTE
  6
DASHDOT
 62
     4
 10
115.99999699999999
 20
19.999993000000021
 30
0.0
 11
115.99999699999999
 21
-20.000006999999979
 31
0.0
  0
LINE
  8
OUTLINE
  6
CONTINUOUS
 62
     3
 10
-31.554985673407259
 20
79.30869843778305
 30
0.0
 11
-31.554985673407259
 21
67.22366179349774
 31
0.0
  0
LINE
  8
OUTLINE
  6
CONTINUOUS
 62
     3
 10
31.554987673406799
 20
79.30869843778305
 30
0.0
 11
31.554987673406799
 21
67.22366179349774
 31
0.0
  0
ARC
  8
OUTLINE
  6
CONTINUOUS
 62
     3
 10
-113.87863052249701
 20
92.704875674776531
 30
0.0
 40
12.040030929908999
 50
94.690447000002138
 51
180.0
  0
ARC
  8
OUTLINE
  6
CONTINUOUS
 62
     3
 10
113.8786355325097
 20
92.704875674776531
 30
0.0
 40
12.040030929908999
 50
0.0
 51
85.309552999997862
  0
ARC
  8
OUTLINE
  6
CONTINUOUS
 62
     3
 10
0.0000009999999975
 20
-1295.2615791588389
 30
0.0
 40
1404.6703594364139
 50
85.309552999997862
 51
94.690447000002138
  0
LINE
  8
OUTLINE
  6
CONTINUOUS
 62
     3
 10
-126.9219981157356
 20
85.328715407743744
 30
0.0
 11
-96.999999000000003
 21
85.328715407743744
 31
0.0
  0
LINE
  8
OUTLINE
  6
CONTINUOUS
 62
     3
 10
97.000000999999997
 20
85.328715407743744
 30
0.0
 11
126.92200312574791
 21
85.328715407743744
 31
0.0
  0
LINE
  8
OUTLINE
  6
CONTINUOUS
 62
     3
 10
-126.9219981157356
 20
90.345395714376082
 30
0.0
 11
-126.9219981157356
 21
85.328715407743744
 31
0.0
  0
LINE
  8
OUTLINE
  6
CONTINUOUS
 62
     3
 10
126.92200312574791
 20
90.345395714376082
 30
0.0
 11
126.92200312574791
 21
85.328715407743744
 31
0.0
  0
LINE
  8
OUTLINE
  6
CONTINUOUS
 62
     3
 10
-125.9186614524064
 20
92.704875674776531
 30
0.0
 11
-125.9186614524064
 21
92.083223709912772
 31
0.0
  0
LINE
  8
OUTLINE
  6
CONTINUOUS
 62
     3
 10
-126.9219981157356
 20
90.345395714376082
 30
0.0
 11
-125.9186614524064
 21
92.083223709912772
 31
0.0
  0
LINE
  8
OUTLINE
  6
CONTINUOUS
 62
     3
 10
125.9186664624191
 20
92.704875674776531
 30
0.0
 11
125.9186664624191
 21
92.083223709912772
 31
0.0
  0
LINE
  8
OUTLINE
  6
CONTINUOUS
 62
     3
 10
126.92200312574791
 20
90.345395714376082
 30
0.0
 11
125.9186664624191
 21
92.083223709912772
 31
0.0
  0
LINE
  8
OUTLINE
  6
CONTINUOUS
 62
     3
 10
-96.999999000000003
 20
79.30869843778305
 30
0.0
 11
-31.554985673407259
 21
79.30869843778305
 31
0.0
  0
LINE
  8
OUTLINE
  6
CONTINUOUS
 62
     3
 10
31.554987673406799
 20
79.30869843778305
 30
0.0
 11
97.000000999999997
 21
79.30869843778305
 31
0.0
  0
LINE
  8
OUTLINE
  6
CONTINUOUS
 62
     3
 10
-93.499999000000003
 20
67.22366179349774
 30
0.0
 11
-31.554985673407259
 21
67.22366179349774
 31
0.0
  0
LINE
  8
OUTLINE
  6
CONTINUOUS
 62
     3
 10
31.554987673406799
 20
67.22366179349774
 30
0.0
 11
93.50000099999977
 21
67.22366179349774
 31
0.0
  0
LINE
  8
OUTLINE
  6
CONTINUOUS
 62
     3
 10
127.31781381522219
 20
-0.5112988682578816
 30
0.0
 11
126.9287335148157
 21
-20.7748779549994
 31
0.0
  0
LINE
  8
OUTLINE
  6
CONTINUOUS
 62
     3
 10
-127.3178088052094
 20
-0.5112988682578816
 30
0.0
 11
-126.928728504803
 21
-20.7748779549994
 31
0.0
  0
LINE
  8
OUTLINE
  6
CONTINUOUS
 62
     3
 10
-126.8162322789407
 20
0.0
 30
0.0
 11
-93.499999000000003
 21
0.0
 31
0.0
  0
ARC
  8
OUTLINE
  6
CONTINUOUS
 62
     3
 10
126.8162372889534
 20
-0.5016668266581519
 30
0.0
 40
0.5016698366710001
 50
358.900000000001
 51
90.0
  0
ARC
  8
OUTLINE
  6
CONTINUOUS
 62
     3
 10
126.6277863950496
 20
-20.769098730038881
 30
0.0
 40
0.3010013
 50
270.0
 51
358.90000099999781
  0
ARC
  8
OUTLINE
  6
CONTINUOUS
 62
     3
 10
-126.8162322789407
 20
-0.5016668266581519
 30
0.0
 40
0.5016698366710001
 50
90.0
 51
181.099999999999
  0
ARC
  8
OUTLINE
  6
CONTINUOUS
 62
     3
 10
-126.6277843950505
 20
-20.769098730038881
 30
0.0
 40
0.3010013
 50
181.099999999999
 51
270.0
  0
ARC
  8
OUTLINE
  6
CONTINUOUS
 62
     3
 10
113.8788883736016
 20
-28.446278357150049
 30
0.0
 40
12.040058020026001
 50
274.69044700000222
 51
336.00248900000378
  0
LINE
  8
OUTLINE
  6
CONTINUOUS
 62
     3
 10
126.9222860669698
 20
-28.446278357150049
 30
0.0
 11
126.9222860669698
 21
-21.070100030039271
 31
0.0
  0
LINE
  8
OUTLINE
  6
CONTINUOUS
 62
     3
 10
-126.92228406697031
 20
-30.601814886736179
 30
0.0
 11
-126.92228406697031
 21
-21.070100030039271
 31
0.0
  0
ARC
  8
OUTLINE
  6
CONTINUOUS
 62
     3
 10
0.0000009999999975
 20
1359.5232918399211
 30
0.0
 40
1404.6735109200249
 50
265.30955299999778
 51
274.69044700000222
  0
LINE
  8
OUTLINE
  6
CONTINUOUS
 62
     3
 10
-125.91894439362829
 20
-31.60515155006533
 30
0.0
 11
-125.4971723420289
 21
-31.60515155006533
 31
0.0
  0
ARC
  8
OUTLINE
  6
CONTINUOUS
 62
     3
 10
-125.91894439362829
 20
-30.601814886736179
 30
0.0
 40
1.0033396733419999
 50
180.0
 51
270.0
  0
ARC
  8
OUTLINE
  6
CONTINUOUS
 62
     3
 10
113.8788883736016
 20
-28.446278357150049
 30
0.0
 40
13.043397693368
 50
345.98465100000021
 51
0.0
  0
LINE
  8
OUTLINE
  6
CONTINUOUS
 62
     3
 10
124.878243428917
 20
-33.342934395407497
 30
0.0
 11
126.53399739998299
 21
-31.60515155006533
 31
0.0
  0
ARC
  8
OUTLINE
  6
CONTINUOUS
 62
     3
 10
-113.8788863736025
 20
-28.446278357150049
 30
0.0
 40
12.040058020026001
 50
195.21035799999839
 51
265.30955299999778
  0
LINE
  8
OUTLINE
  6
CONTINUOUS
 62
     3
 10
-93.499999000000003
 20
0.0
 30
0.0
 11
-93.499999000000003
 21
67.22366179349774
 31
0.0
  0
LINE
  8
OUTLINE
  6
CONTINUOUS
 62
     3
 10
93.500000999999997
 20
0.0
 30
0.0
 11
93.50000099999977
 21
67.22366179349774
 31
0.0
  0
LINE
  8
OUTLINE
  6
CONTINUOUS
 62
     3
 10
93.500000999999997
 20
0.0
 30
0.0
 11
126.8162372889534
 21
0.000003010012847
 31
0.0
  0
LINE
  8
SIZE
  6
CONTINUOUS
 62
    30
 10
-93.499999000000003
 20
87.22366179349774
 30
0.0
 11
-93.499999000000003
 21
302.24193447700242
 31
0.0
  0
LINE
  8
SIZE
  6
CONTINUOUS
 62
    30
 10
93.50000099999977
 20
87.22366179349774
 30
0.0
 11
93.50000099999977
 21
302.24193447700242
 31
0.0
  0
LINE
  8
SIZE
  6
CONTINUOUS
 62
    30
 10
81.50000099999977
 20
282.24193447700242
 30
0.0
 11
-81.499999000000003
 21
282.24193447700242
 31
0.0
  0
LINE
  8
SIZE
  6
CONTINUOUS
 62
    30
 10
-93.499999000000003
 20
282.24193447700242
 30
0.0
 11
-352.98571328571433
 21
282.24193447700242
 31
0.0
  0
CIRCLE
  8
SIZE
  6
CONTINUOUS
 62
    30
 10
93.50000099999977
 20
282.24193447700242
 30
0.0
 40
6.0
  0
LINE
  8
SIZE
  6
CONTINUOUS
 62
    30
 10
93.50000099999977
 20
282.24193447700242
 30
0.0
 11
81.50000099999977
 21
282.24193447700242
 31
0.0
  0
CIRCLE
  8
SIZE
  6
CONTINUOUS
 62
    30
 10
-93.499999000000003
 20
282.24193447700242
 30
0.0
 40
6.0
  0
LINE
  8
SIZE
  6
CONTINUOUS
 62
    30
 10
-93.499999000000003
 20
282.24193447700242
 30
0.0
 11
-81.499999000000003
 21
282.24193447700242
 31
0.0
  0
TEXT
  8
SIZE
  6
CONTINUOUS
 62
    30
 10
-338.13428471428568
 20
317.90860114366888
 30
0.0
 40
64.0
  1
φ187
 41
0.9
 72
     1
 11
-229.24285614285711
 21
317.90860114366888
 31
0.0
  0
POINT
  8
DEFPOINTS
  6
CONTINUOUS
 62
    30
 10
-93.499999000000003
 20
67.22366179349774
 30
0.0
  0
POINT
  8
DEFPOINTS
  6
CONTINUOUS
 62
    30
 10
93.50000099999977
 20
67.22366179349774
 30
0.0
  0
POINT
  8
DEFPOINTS
  6
CONTINUOUS
 62
    30
 10
93.50000099999977
 20
282.24193447700242
 30
0.0
  0
LINE
  8
OUTLINE
  6
CONTINUOUS
 62
     3
 10
97.000000999999997
 20
79.30869843778305
 30
0.0
 11
97.000000999999997
 21
85.328715407743744
 31
0.0
  0
LINE
  8
DETAIL
  6
CONTINUOUS
 62
     5
 10
97.000000999999997
 20
79.30869843778305
 30
0.0
 11
97.000000999999997
 21
85.328715407743744
 31
0.0
  0
LINE
  8
OUTLINE
  6
CONTINUOUS
 62
     3
 10
-96.999999000000003
 20
79.30869843778305
 30
0.0
 11
-96.999999000000003
 21
85.328715407743744
 31
0.0
  0
LINE
  8
DETAIL
  6
CONTINUOUS
 62
     5
 10
-96.999999000000003
 20
79.30869843778305
 30
0.0
 11
-96.999999000000003
 21
85.328715407743744
 31
0.0
  0
LINE
  8
SIZE
  6
CONTINUOUS
 62
    30
 10
-96.999999000000003
 20
105.3287154077437
 30
0.0
 11
-96.999999000000003
 21
443.89810790366028
 31
0.0
  0
LINE
  8
SIZE
  6
CONTINUOUS
 62
    30
 10
97.000000999999997
 20
105.3287154077437
 30
0.0
 11
97.000000999999997
 21
443.89810790366028
 31
0.0
  0
LINE
  8
SIZE
  6
CONTINUOUS
 62
    30
 10
-108.999999
 20
423.89810790366028
 30
0.0
 11
-120.999999
 21
423.89810790366028
 31
0.0
  0
LINE
  8
SIZE
  6
CONTINUOUS
 62
    30
 10
109.000001
 20
423.89810790366028
 30
0.0
 11
121.000001
 21
423.89810790366028
 31
0.0
  0
LINE
  8
SIZE
  6
CONTINUOUS
 62
    30
 10
-96.999999000000003
 20
423.89810790366028
 30
0.0
 11
97.000000999999997
 21
423.89810790366028
 31
0.0
  0
CIRCLE
  8
SIZE
  6
CONTINUOUS
 62
    30
 10
-96.999999000000003
 20
423.89810790366028
 30
0.0
 40
6.0
  0
LINE
  8
SIZE
  6
CONTINUOUS
 62
    30
 10
-96.999999000000003
 20
423.89810790366028
 30
0.0
 11
-108.999999
 21
423.89810790366028
 31
0.0
  0
CIRCLE
  8
SIZE
  6
CONTINUOUS
 62
    30
 10
97.000000999999997
 20
423.89810790366028
 30
0.0
 40
6.0
  0
LINE
  8
SIZE
  6
CONTINUOUS
 62
    30
 10
97.000000999999997
 20
423.89810790366028
 30
0.0
 11
109.000001
 21
423.89810790366028
 31
0.0
  0
TEXT
  8
SIZE
  6
CONTINUOUS
 62
    30
 10
-110.2628561428571
 20
459.56477457032679
 30
0.0
 40
64.0
  1
φ194
 41
0.9
 72
     1
 11
0.0000009999999975
 21
459.56477457032679
 31
0.0
  0
POINT
  8
DEFPOINTS
  6
CONTINUOUS
 62
    30
 10
-96.999999000000003
 20
85.328715407743744
 30
0.0
  0
POINT
  8
DEFPOINTS
  6
CONTINUOUS
 62
    30
 10
97.000000999999997
 20
85.328715407743744
 30
0.0
  0
POINT
  8
DEFPOINTS
  6
CONTINUOUS
 62
    30
 10
97.000000999999997
 20
423.89810790366028
 30
0.0
  0
LINE
  8
SIZE
  6
CONTINUOUS
 62
    30
 10
-105.9999999999999
 20
-40.0
 30
0.0
 11
-105.9999999999999
 21
-465.37813623542633
 31
0.0
  0
LINE
  8
SIZE
  6
CONTINUOUS
 62
    30
 10
106.0000000000001
 20
-40.0
 30
0.0
 11
106.0000000000001
 21
-465.37813623542633
 31
0.0
  0
LINE
  8
SIZE
  6
CONTINUOUS
 62
    30
 10
-93.999999999999886
 20
-445.37813623542633
 30
0.0
 11
94.000000000000114
 21
-445.37813623542633
 31
0.0
  0
CIRCLE
  8
SIZE
  6
CONTINUOUS
 62
    30
 10
-105.9999999999999
 20
-445.37813623542633
 30
0.0
 40
6.0
  0
LINE
  8
SIZE
  6
CONTINUOUS
 62
    30
 10
-105.9999999999999
 20
-445.37813623542633
 30
0.0
 11
-93.999999999999886
 21
-445.37813623542633
 31
0.0
  0
CIRCLE
  8
SIZE
  6
CONTINUOUS
 62
    30
 10
106.0000000000001
 20
-445.37813623542633
 30
0.0
 40
6.0
  0
LINE
  8
SIZE
  6
CONTINUOUS
 62
    30
 10
106.0000000000001
 20
-445.37813623542633
 30
0.0
 11
94.000000000000114
 21
-445.37813623542633
 31
0.0
  0
TEXT
  8
SIZE
  6
CONTINUOUS
 62
    30
 10
-58.961288355663001
 20
-420.37813623542633
 30
0.0
 40
64.0
  1
212
 41
0.9
 72
     1
 11
9.6101402157655684
 21
-420.37813623542633
 31
0.0
  0
POINT
  8
DEFPOINTS
  6
CONTINUOUS
 62
    30
 10
-105.9999999999999
 20
-20.0
 30
0.0
  0
POINT
  8
DEFPOINTS
  6
CONTINUOUS
 62
    30
 10
106.0000000000001
 20
-20.0
 30
0.0
  0
POINT
  8
DEFPOINTS
  6
CONTINUOUS
 62
    30
 10
106.0000000000001
 20
-445.37813623542633
 30
0.0
  0
LINE
  8
SIZE
  6
CONTINUOUS
 62
    30
 10
-127.1743552297188
 20
-20.150354177936951
 30
0.0
 11
-127.1743552297188
 21
-592.55599600795813
 31
0.0
  0
LINE
  8
SIZE
  6
CONTINUOUS
 62
    30
 10
127.1743602397315
 20
-20.150354177936951
 30
0.0
 11
127.1743602397315
 21
-592.55599600795813
 31
0.0
  0
LINE
  8
SIZE
  6
CONTINUOUS
 62
    30
 10
-115.1743552297188
 20
-572.55599600795813
 30
0.0
 11
115.1743602397315
 21
-572.55599600795813
 31
0.0
  0
CIRCLE
  8
SIZE
  6
CONTINUOUS
 62
    30
 10
-127.1743552297188
 20
-572.55599600795813
 30
0.0
 40
6.0
  0
LINE
  8
SIZE
  6
CONTINUOUS
 62
    30
 10
-127.1743552297188
 20
-572.55599600795813
 30
0.0
 11
-115.1743552297188
 21
-572.55599600795813
 31
0.0
  0
CIRCLE
  8
SIZE
  6
CONTINUOUS
 62
    30
 10
127.1743602397315
 20
-572.55599600795813
 30
0.0
 40
6.0
  0
LINE
  8
SIZE
  6
CONTINUOUS
 62
    30
 10
127.1743602397315
 20
-572.55599600795813
 30
0.0
 11
115.1743602397315
 21
-572.55599600795813
 31
0.0
  0
TEXT
  8
SIZE
  6
CONTINUOUS
 62
    30
 10
-111.9085689235651
 20
-547.55599600795802
 30
0.0
 40
64.0
  1
□254
 41
0.9
 72
     1
 11
0.0000025050063641
 21
-547.55599600795802
 31
0.0
  0
POINT
  8
DEFPOINTS
  6
CONTINUOUS
 62
    30
 10
-127.1743552297188
 20
-0.1503541779369471
 30
0.0
  0
POINT
  8
DEFPOINTS
  6
CONTINUOUS
 62
    30
 10
127.1743602397315
 20
-0.1503541779369471
 30
0.0
  0
POINT
  8
DEFPOINTS
  6
CONTINUOUS
 62
    30
 10
127.1743602397315
 20
-572.55599600795813
 30
0.0
  0
LINE
  8
NOTE
  6
CONTINUOUS
 62
     4
 10
301.11300200000028
 20
303.500722
 30
0.0
 11
864.62742440262059
 21
303.500722
 31
0.0
  0
LINE
  8
NOTE
  6
DASHDOT
 62
     4
 10
-105.9999999999999
 20
65.0
 30
0.0
 11
-105.9999999999999
 21
105.0
 31
0.0
  0
LINE
  8
NOTE
  6
DASHDOT
 62
     4
 10
106.0000000000001
 20
105.0
 30
0.0
 11
106.0000000000001
 21
65.0
 31
0.0
  0
CIRCLE
  8
FIX
  6
CONTINUOUS
 62
    11
 10
-105.9999999999999
 20
85.328715407743744
 30
0.0
 40
2.0
  0
CIRCLE
  8
FIX
  6
CONTINUOUS
 62
    11
 10
106.0000000000001
 20
85.328715407743744
 30
0.0
 40
2.0
  0
TEXT
  8
NOTE
  6
CONTINUOUS
 62
     4
 10
321.94677100000001
 20
439.32113542398611
 30
0.0
 40
64.0
  1
4-φ5据付用穴
 41
0.9
  0
LINE
  8
NOTE
  6
CONTINUOUS
 62
     4
 10
106.0000000000001
 20
85.328715407743744
 30
0.0
 11
323.37350066848938
 21
423.45592342398601
 31
0.0
  0
LINE
  8
NOTE
  6
CONTINUOUS
 62
     4
 10
140.71751400000019
 20
106.9836494077438
 30
0.0
 11
106.0000000000001
 21
85.328715407743744
 31
0.0
  0
LINE
  8
NOTE
  6
CONTINUOUS
 62
     4
 10
106.0000019999999
 20
85.328716407743741
 30
0.0
 11
113.793012
 21
124.97398740774371
 31
0.0
  0
LINE
  8
NOTE
  6
CONTINUOUS
 62
     4
 10
323.37350066848938
 20
423.45592342398601
 30
0.0
 11
864.62742440262059
 21
423.45592342398601
 31
0.0
  0
LINE
  8
SIZE
  6
CONTINUOUS
 62
    30
 10
0.0000009999999975
 20
-74.327565106310999
 30
0.0
 11
0.0000009999999975
 21
-340.56695816207178
 31
0.0
  0
LINE
  8
SIZE
  6
CONTINUOUS
 62
    30
 10
115.99999699999999
 20
-40.000006999999982
 30
0.0
 11
115.99999699999999
 21
-340.56695816207178
 31
0.0
  0
LINE
  8
SIZE
  6
CONTINUOUS
 62
    30
 10
12.000000999999999
 20
-320.56695816207178
 30
0.0
 11
103.99999699999999
 21
-320.56695816207178
 31
0.0
  0
LINE
  8
SIZE
  6
CONTINUOUS
 62
    30
 10
115.99999699999999
 20
-320.56695816207178
 30
0.0
 11
301.42856842857123
 21
-320.56695816207178
 31
0.0
  0
CIRCLE
  8
SIZE
  6
CONTINUOUS
 62
    30
 10
0.0000009999999975
 20
-320.56695816207178
 30
0.0
 40
6.0
  0
LINE
  8
SIZE
  6
CONTINUOUS
 62
    30
 10
0.0000009999999975
 20
-320.56695816207178
 30
0.0
 11
12.000000999999999
 21
-320.56695816207178
 31
0.0
  0
CIRCLE
  8
SIZE
  6
CONTINUOUS
 62
    30
 10
115.99999699999999
 20
-320.56695816207178
 30
0.0
 40
6.0
  0
LINE
  8
SIZE
  6
CONTINUOUS
 62
    30
 10
115.99999699999999
 20
-320.56695816207178
 30
0.0
 11
103.99999699999999
 21
-320.56695816207178
 31
0.0
  0
TEXT
  8
SIZE
  6
CONTINUOUS
 62
    30
 10
152.99999700000001
 20
-295.56695816207178
 30
0.0
 40
64.0
  1
116
 41
0.9
 72
     1
 11
214.7142827142857
 21
-295.56695816207178
 31
0.0
  0
POINT
  8
DEFPOINTS
  6
CONTINUOUS
 62
    30
 10
0.0000009999999975
 20
-54.327565106310999
 30
0.0
  0
POINT
  8
DEFPOINTS
  6
CONTINUOUS
 62
    30
 10
115.99999699999999
 20
-20.000006999999979
 30
0.0
  0
POINT
  8
DEFPOINTS
  6
CONTINUOUS
 62
    30
 10
115.99999699999999
 20
-320.56695816207178
 30
0.0
  0
ENDSEC
  0
EOF
