  0
SECTION
  2
HEADER
  9
$ACADVER
  1
AC1009
  9
$DWGCODEPAGE
  3
dos932
  9
$INSBASE
 10
0.0
 20
0.0
 30
0.0
  9
$EXTMIN
 10
-324.37666575436089
 20
-647.77036199999998
 30
0.0
  9
$EXTMAX
 10
875.91780956433706
 20
902.6108339966936
 30
0.0
  9
$LIMMIN
 10
-2970.0
 20
-2100.0
  9
$LIMMAX
 10
2970.0
 20
2100.0
  9
$ORTHOMODE
 70
     1
  9
$REGENMODE
 70
     1
  9
$FILLMODE
 70
     1
  9
$QTEXTMODE
 70
     0
  9
$MIRRTEXT
 70
     0
  9
$LTSCALE
 40
20.0
  9
$ATTMODE
 70
     1
  9
$TEXTSIZE
 40
64.0
  9
$TRACEWID
 40
0.05
  9
$TEXTSTYLE
  7
STANDARD
  9
$CLAYER
  8
OUTLINE
  9
$CELTYPE
  6
CONTINUOUS
  9
$CECOLOR
 62
     7
  9
$DIMSCALE
 40
1.0
  9
$DIMASZ
 40
2.0
  9
$DIMEXO
 40
20.0
  9
$DIMDLI
 40
200.0
  9
$DIMRND
 40
0.0
  9
$DIMDLE
 40
0.0
  9
$DIMEXE
 40
30.0
  9
$DIMTP
 40
0.0
  9
$DIMTM
 40
0.0
  9
$DIMTXT
 40
64.0
  9
$DIMCEN
 40
0.09
  9
$DIMTSZ
 40
0.0
  9
$DIMTOL
 70
     0
  9
$DIMLIM
 70
     0
  9
$DIMTIH
 70
     0
  9
$DIMTOH
 70
     0
  9
$DIMSE1
 70
     0
  9
$DIMSE2
 70
     0
  9
$DIMTAD
 70
     1
  9
$DIMZIN
 70
     8
  9
$DIMBLK
  1

  9
$DIMASO
 70
     1
  9
$DIMSHO
 70
     0
  9
$DIMPOST
  1

  9
$DIMAPOST
  1

  9
$DIMALT
 70
     0
  9
$DIMALTD
 70
     2
  9
$DIMALTF
 40
25.399999999999999
  9
$DIMLFAC
 40
1.0
  9
$DIMTOFL
 70
     1
  9
$DIMTVP
 40
0.0
  9
$DIMTIX
 70
     1
  9
$DIMSOXD
 70
     0
  9
$DIMSAH
 70
     0
  9
$DIMBLK1
  1

  9
$DIMBLK2
  1

  9
$DIMSTYLE
  2
STANDARD
  9
$DIMCLRD
 70
     7
  9
$DIMCLRE
 70
     7
  9
$DIMCLRT
 70
     7
  9
$DIMTFAC
 40
1.0
  9
$DIMGAP
 40
0.09
  9
$LUNITS
 70
     2
  9
$LUPREC
 70
     4
  9
$SKETCHINC
 40
0.1
  9
$FILLETRAD
 40
10.0
  9
$AUNITS
 70
     1
  9
$AUPREC
 70
     3
  9
$MENU
  1
ACAD
  9
$ELEVATION
 40
0.0
  9
$PELEVATION
 40
0.0
  9
$THICKNESS
 40
0.0
  9
$LIMCHECK
 70
     0
  9
$CHAMFERA
 40
0.0
  9
$CHAMFERB
 40
0.0
  9
$SKPOLY
 70
     0
  9
$TDCREATE
 40
2450319.475543981
  9
$TDUPDATE
 40
2459356.671181783
  9
$TDINDWG
 40
0.5857825579
  9
$TDUSRTIMER
 40
0.5857825579
  9
$USRTIMER
 70
     1
  9
$ANGBASE
 50
0.0
  9
$ANGDIR
 70
     0
  9
$PDMODE
 70
     3
  9
$PDSIZE
 40
-2.0
  9
$PLINEWID
 40
0.0
  9
$SPLFRAME
 70
     0
  9
$SPLINETYPE
 70
     6
  9
$SPLINESEGS
 70
     8
  9
$SURFTAB1
 70
     6
  9
$SURFTAB2
 70
     6
  9
$SURFTYPE
 70
     6
  9
$SURFU
 70
     6
  9
$SURFV
 70
     6
  9
$UCSNAME
  2

  9
$UCSORG
 10
0.0
 20
0.0
 30
0.0
  9
$UCSXDIR
 10
1.0
 20
0.0
 30
0.0
  9
$UCSYDIR
 10
0.0
 20
1.0
 30
0.0
  9
$PUCSNAME
  2

  9
$PUCSORG
 10
0.0
 20
0.0
 30
0.0
  9
$PUCSXDIR
 10
1.0
 20
0.0
 30
0.0
  9
$PUCSYDIR
 10
0.0
 20
1.0
 30
0.0
  9
$USERI1
 70
     0
  9
$USERI2
 70
     0
  9
$USERI3
 70
     0
  9
$USERI4
 70
     0
  9
$USERI5
 70
     0
  9
$USERR1
 40
20.0
  9
$USERR2
 40
0.0
  9
$USERR3
 40
0.0
  9
$USERR4
 40
0.0
  9
$USERR5
 40
0.0
  9
$WORLDVIEW
 70
     1
  9
$SHADEDGE
 70
     3
  9
$SHADEDIF
 70
    70
  9
$TILEMODE
 70
     1
  9
$MAXACTVP
 70
    48
  9
$PINSBASE
 10
0.0
 20
0.0
 30
0.0
  9
$PLIMCHECK
 70
     0
  9
$PEXTMIN
 10
-100000000000000000000.0
 20
-100000000000000000000.0
 30
-100000000000000000000.0
  9
$PEXTMAX
 10
100000000000000000000.0
 20
100000000000000000000.0
 30
100000000000000000000.0
  9
$PLIMMIN
 10
0.0
 20
0.0
  9
$PLIMMAX
 10
12.0
 20
9.0
  9
$UNITMODE
 70
     0
  9
$VISRETAIN
 70
     0
  9
$PLINEGEN
 70
     0
  9
$PSLTSCALE
 70
     0
  9
$TREEDEPTH
 70
  3020
  9
$ATTDIA
 70
     0
  9
$ATTREQ
 70
     1
  9
$BLIPMODE
 70
     1
  9
$COORDS
 70
     1
  9
$DRAGMODE
 70
     2
  9
$OSMODE
 70
     0
  9
$HANDLING
 70
     0
  9
$HANDSEED
  5
1C6
  0
ENDSEC
  0
SECTION
  2
TABLES
  0
TABLE
  2
LTYPE
 70
     3
  0
LTYPE
  2
CONTINUOUS
 70
     0
  3
実線
 72
    65
 73
     0
 40
0.0
  0
LTYPE
  2
DASHDOT
 70
     0
  3
____ _ ____ _ ____ _ ____ _ ____ _ ____ _ ____
 72
    65
 73
     4
 40
5.5
 49
4.0
 49
-0.6
 49
0.3
 49
-0.6
  0
LTYPE
  2
DASHED
 70
     0
  3
_ _ _ _ _ _ _ _ _ _ _ _ _ _ _ _ _ _ _ _ _ _ _
 72
    65
 73
     2
 40
2.0
 49
1.2
 49
-0.8
  0
ENDTAB
  0
TABLE
  2
LAYER
 70
    12
  0
LAYER
  2
OUTLINE
 70
     0
 62
     3
  6
CONTINUOUS
  0
LAYER
  2
DEFPOINTS
 70
     0
 62
     7
  6
CONTINUOUS
  0
LAYER
  2
DETAIL
 70
     0
 62
     5
  6
CONTINUOUS
  0
LAYER
  2
BASIS
 70
     0
 62
     6
  6
DASHDOT
  0
LAYER
  2
SIZE
 70
     0
 62
    30
  6
CONTINUOUS
  0
LAYER
  2
NOTE
 70
     0
 62
     4
  6
CONTINUOUS
  0
LAYER
  2
ARRANGE
 70
     0
 62
     1
  6
CONTINUOUS
  0
LAYER
  2
FIX
 70
     0
 62
    11
  6
CONTINUOUS
  0
LAYER
  2
ETC
 70
     0
 62
    61
  6
CONTINUOUS
  0
LAYER
  2
0
 70
    64
 62
     7
  6
CONTINUOUS
  0
LAYER
  2
SERVICESPACE
 70
    64
 62
     2
  6
DASHDOT
  0
LAYER
  2
SYMBOLLINE
 70
    64
 62
    15
  6
CONTINUOUS
  0
ENDTAB
  0
TABLE
  2
STYLE
 70
     1
  0
STYLE
  2
STANDARD
 70
     0
 40
0.0
 41
0.9
 50
0.0
 71
     0
 42
64.0
  3
SIMPLEX
  4
BIGFONT
  0
ENDTAB
  0
TABLE
  2
APPID
 70
     5
  0
APPID
  2
ACAD
 70
     0
  0
APPID
  2
ACADANNOTATIVE
 70
     0
  0
APPID
  2
ACAD_EXEMPT_FROM_CAD_STANDARDS
 70
     0
  0
APPID
  2
ACAD_NAV_VCDISPLAY
 70
     0
  0
APPID
  2
ACAD_MLEADERVER
 70
     0
  0
ENDTAB
  0
TABLE
  2
DIMSTYLE
 70
     1
  0
DIMSTYLE
  2
STANDARD
 70
     0
  3

  4

  5

  6

  7

 40
1.0
 41
0.18
 42
0.0625
 43
0.38
 44
0.18
 45
0.0
 46
0.0
 47
0.0
 48
0.0
140
0.18
141
0.09
142
0.0
143
25.399999999999999
144
1.0
145
0.0
146
1.0
147
0.09
 71
     0
 72
     0
 73
     1
 74
     1
 75
     0
 76
     0
 77
     0
 78
     0
170
     0
171
     2
172
     0
173
     0
174
     0
175
     0
176
     7
177
     7
178
     7
  0
ENDTAB
  0
TABLE
  2
VIEW
 70
     1
  0
VIEW
  2
ALL
 70
     0
 40
4282.6198079999986
 10
0.0
 20
41.309904000000003
 41
5940.0
 11
0.0
 21
0.0
 31
1.0
 12
0.0
 22
0.0
 32
0.0
 42
50.0
 43
0.0
 44
0.0
 50
0.0
 71
     0
  0
ENDTAB
  0
TABLE
  2
UCS
 70
     0
  0
ENDTAB
  0
TABLE
  2
VPORT
 70
     1
  0
VPORT
  2
*ACTIVE
 70
     0
 10
0.0
 20
0.0
 11
1.0
 21
1.0
 12
1165.7423161379511
 22
316.87604151257602
 13
0.0
 23
0.0
 14
50.0
 24
50.0
 15
400.0
 25
400.0
 16
0.0
 26
0.0
 36
1.0
 17
0.0
 27
0.0
 37
0.0
 40
2691.24637559538
 41
1.767337807606264
 42
50.0
 43
0.0
 44
0.0
 50
0.0
 51
0.0
 71
     0
 72
   500
 73
     1
 74
     0
 75
     0
 76
     0
 77
     0
 78
     0
  0
ENDTAB
  0
ENDSEC
  0
SECTION
  2
BLOCKS
  0
ENDSEC
  0
SECTION
  2
ENTITIES
  0
LINE
  8
OUTLINE
  6
CONTINUOUS
 62
     3
 10
-97.000000999999997
 20
126.99999800000001
 30
0.0
 11
96.999999000000003
 21
126.99999800000001
 31
0.0
  0
LINE
  8
OUTLINE
  6
CONTINUOUS
 62
     3
 10
-97.000000999999997
 20
-127.00000199999999
 30
0.0
 11
96.999999000000003
 21
-127.00000199999999
 31
0.0
  0
LINE
  8
SIZE
  6
CONTINUOUS
 62
    30
 10
-116.0
 20
-157.19476900000001
 30
0.0
 11
-116.0
 21
-325.49425200000002
 31
0.0
  0
LINE
  8
SIZE
  6
CONTINUOUS
 62
    30
 10
0.0
 20
-187.63016999999999
 30
0.0
 11
0.0
 21
-325.49425200000002
 31
0.0
  0
LINE
  8
SIZE
  6
CONTINUOUS
 62
    30
 10
-114.0
 20
-295.49425200000002
 30
0.0
 11
-2.0
 21
-295.49425200000002
 31
0.0
  0
TEXT
  8
SIZE
  6
CONTINUOUS
 62
    30
 10
-281.98804971428569
 20
-289.26189799999997
 30
0.0
 40
64.0
  1
116
 41
0.9
 72
     1
 11
-220.273764
 21
-289.26189799999997
 31
0.0
  0
CIRCLE
  8
SIZE
  6
CONTINUOUS
 62
    30
 10
-116.0
 20
-295.49425200000002
 30
0.0
 40
6.0
  0
CIRCLE
  8
SIZE
  6
CONTINUOUS
 62
    30
 10
0.0
 20
-295.49425200000002
 30
0.0
 40
6.0
  0
POINT
  8
DEFPOINTS
  6
CONTINUOUS
 62
    30
 10
-116.0
 20
-137.19476900000001
 30
0.0
 50
180.0
  0
POINT
  8
DEFPOINTS
  6
CONTINUOUS
 62
    30
 10
0.0
 20
-167.63016999999999
 30
0.0
 50
180.0
  0
POINT
  8
DEFPOINTS
  6
CONTINUOUS
 62
    30
 10
0.0
 20
-295.49425200000002
 30
0.0
 50
180.0
  0
LINE
  8
SIZE
  6
CONTINUOUS
 62
    30
 10
-106.0
 20
-146.0
 30
0.0
 11
-106.0
 21
-488.250541
 31
0.0
  0
LINE
  8
SIZE
  6
CONTINUOUS
 62
    30
 10
106.0
 20
-145.61817600000001
 30
0.0
 11
106.0
 21
-488.250541
 31
0.0
  0
LINE
  8
SIZE
  6
CONTINUOUS
 62
    30
 10
-104.0
 20
-458.250541
 30
0.0
 11
104.0
 21
-458.250541
 31
0.0
  0
TEXT
  8
SIZE
  6
CONTINUOUS
 62
    30
 10
-67.608987571428571
 20
-440.28986900000012
 30
0.0
 40
64.0
  1
212
 41
0.9
 72
     1
 11
0.9624409999999984
 21
-440.28986900000012
 31
0.0
  0
CIRCLE
  8
SIZE
  6
CONTINUOUS
 62
    30
 10
-106.0
 20
-458.250541
 30
0.0
 40
6.0
  0
CIRCLE
  8
SIZE
  6
CONTINUOUS
 62
    30
 10
106.0
 20
-458.250541
 30
0.0
 40
6.0
  0
POINT
  8
DEFPOINTS
  6
CONTINUOUS
 62
    30
 10
-106.0
 20
-126.0
 30
0.0
 50
180.0
  0
POINT
  8
DEFPOINTS
  6
CONTINUOUS
 62
    30
 10
106.0
 20
-125.61817600000001
 30
0.0
 50
180.0
  0
POINT
  8
DEFPOINTS
  6
CONTINUOUS
 62
    30
 10
106.0
 20
-458.250541
 30
0.0
 50
180.0
  0
LINE
  8
SIZE
  6
CONTINUOUS
 62
    30
 10
127.0
 20
-126.0
 30
0.0
 11
127.0
 21
-647.77036199999998
 31
0.0
  0
LINE
  8
SIZE
  6
CONTINUOUS
 62
    30
 10
-127.0
 20
-126.0
 30
0.0
 11
-127.0
 21
-647.77036199999998
 31
0.0
  0
LINE
  8
SIZE
  6
CONTINUOUS
 62
    30
 10
125.0
 20
-617.77036199999998
 30
0.0
 11
-125.0
 21
-617.77036199999998
 31
0.0
  0
TEXT
  8
SIZE
  6
CONTINUOUS
 62
    30
 10
-122.1506334285714
 20
-588.54053099999999
 30
0.0
 40
64.0
  1
□254
 41
0.9
 72
     1
 11
-10.242062000000001
 21
-588.54053099999999
 31
0.0
  0
CIRCLE
  8
SIZE
  6
CONTINUOUS
 62
    30
 10
127.0
 20
-617.77036199999998
 30
0.0
 40
6.0
  0
CIRCLE
  8
SIZE
  6
CONTINUOUS
 62
    30
 10
-127.0
 20
-617.77036199999998
 30
0.0
 40
6.0
  0
POINT
  8
DEFPOINTS
  6
CONTINUOUS
 62
    30
 10
-127.0
 20
-106.0
 30
0.0
 50
180.0
  0
POINT
  8
DEFPOINTS
  6
CONTINUOUS
 62
    30
 10
-127.0
 20
-617.77036199999998
 30
0.0
 50
180.0
  0
LINE
  8
DETAIL
  6
CONTINUOUS
 62
     5
 10
-97.0
 20
-127.0
 30
0.0
 11
97.0
 21
-127.0
 31
0.0
  0
LINE
  8
DETAIL
  6
CONTINUOUS
 62
     5
 10
-97.0
 20
127.0
 30
0.0
 11
97.0
 21
127.0
 31
0.0
  0
POINT
  8
ARRANGE
  6
CONTINUOUS
 62
     1
 10
0.0
 20
0.0
 30
0.0
 50
180.0
  0
LINE
  8
BASIS
  6
DASHDOT
 62
     6
 10
131.464427
 20
0.0
 30
0.0
 11
-127.0
 21
0.0
 31
0.0
  0
LINE
  8
OUTLINE
  6
CONTINUOUS
 62
     3
 10
126.999999
 20
-97.000001999999995
 30
0.0
 11
126.999999
 21
96.999998000000005
 31
0.0
  0
POINT
  8
DEFPOINTS
  6
CONTINUOUS
 62
    30
 10
125.61817600000001
 20
106.0
 30
0.0
 50
180.0
  0
POINT
  8
DEFPOINTS
  6
CONTINUOUS
 62
    30
 10
125.61817600000001
 20
-106.0
 30
0.0
 50
180.0
  0
LINE
  8
DETAIL
  6
CONTINUOUS
 62
     5
 10
127.0
 20
-97.0
 30
0.0
 11
127.0
 21
97.0
 31
0.0
  0
LINE
  8
BASIS
  6
DASHDOT
 62
     6
 10
0.0
 20
119.9816
 30
0.0
 11
0.0
 21
-153.13318200000001
 31
0.0
  0
ARC
  8
OUTLINE
  6
CONTINUOUS
 62
     3
 10
96.999999000000003
 20
-97.000001999999995
 30
0.0
 40
30.0
 50
270.0
 51
0.000000000000007
  0
ARC
  8
DETAIL
  6
CONTINUOUS
 62
     5
 10
97.0
 20
-97.0
 30
0.0
 40
30.0
 50
270.0
 51
0.000000000000007
  0
LINE
  8
NOTE
  6
CONTINUOUS
 62
     4
 10
126.0
 20
-106.0
 30
0.0
 11
86.0
 21
-106.0
 31
0.0
  0
ARC
  8
FIX
  6
DASHED
 62
    11
 10
105.934449
 20
-106.000011
 30
0.0
 40
2.0018729999999998
 50
179.99969100000001
 51
359.99998299999999
  0
ARC
  8
FIX
  6
DASHED
 62
    11
 10
105.934449
 20
-105.994381
 30
0.0
 40
2.0018729999999998
 50
359.99992800000012
 51
180.0
  0
LINE
  8
NOTE
  6
CONTINUOUS
 62
     4
 10
106.0
 20
-86.0
 30
0.0
 11
106.0
 21
-126.0
 31
0.0
  0
LINE
  8
NOTE
  6
CONTINUOUS
 62
     4
 10
114.511315
 20
87.274946
 30
0.0
 11
100.000001
 21
49.999998999999988
 31
0.0
  0
LINE
  8
NOTE
  6
CONTINUOUS
 62
     4
 10
100.000001
 20
49.999998999999988
 30
0.0
 11
131.20464200000001
 21
75.025393999999977
 31
0.0
  0
LINE
  8
NOTE
  6
CONTINUOUS
 62
     4
 10
100.000001
 20
50.0
 30
0.0
 11
252.38844700000001
 21
281.94310999999999
 31
0.0
  0
ARC
  8
OUTLINE
  6
CONTINUOUS
 62
     3
 10
96.999999000000003
 20
96.999998000000005
 30
0.0
 40
30.0
 50
0.000000000000007
 51
90.0
  0
LINE
  8
NOTE
  6
CONTINUOUS
 62
     4
 10
126.0
 20
106.0
 30
0.0
 11
86.0
 21
106.0
 31
0.0
  0
ARC
  8
DETAIL
  6
CONTINUOUS
 62
     5
 10
97.0
 20
97.0
 30
0.0
 40
30.0
 50
0.000000000000007
 51
90.0
  0
ARC
  8
FIX
  6
DASHED
 62
    11
 10
105.934449
 20
106.005619
 30
0.0
 40
2.0018729999999998
 50
359.99992800000012
 51
180.0
  0
ARC
  8
FIX
  6
DASHED
 62
    11
 10
105.934449
 20
105.999989
 30
0.0
 40
2.0018729999999998
 50
179.99969100000001
 51
359.99998299999999
  0
LINE
  8
NOTE
  6
CONTINUOUS
 62
     4
 10
106.0
 20
126.0
 30
0.0
 11
106.0
 21
86.0
 31
0.0
  0
LINE
  8
NOTE
  6
CONTINUOUS
 62
     4
 10
0.0
 20
106.99999800000001
 30
0.0
 11
0.0
 21
146.99999800000001
 31
0.0
  0
LINE
  8
OUTLINE
  6
CONTINUOUS
 62
     3
 10
-127.000001
 20
-97.000001999999995
 30
0.0
 11
-127.000001
 21
96.999998000000005
 31
0.0
  0
LINE
  8
DETAIL
  6
CONTINUOUS
 62
     5
 10
-127.0
 20
-97.0
 30
0.0
 11
-127.0
 21
97.0
 31
0.0
  0
ARC
  8
OUTLINE
  6
CONTINUOUS
 62
     3
 10
-97.000000999999997
 20
-97.000001999999995
 30
0.0
 40
30.0
 50
180.0
 51
270.0
  0
ARC
  8
DETAIL
  6
CONTINUOUS
 62
     5
 10
-97.0
 20
-97.0
 30
0.0
 40
30.0
 50
180.0
 51
270.0
  0
LINE
  8
NOTE
  6
CONTINUOUS
 62
     4
 10
-86.0
 20
-106.0
 30
0.0
 11
-126.0
 21
-106.0
 31
0.0
  0
ARC
  8
FIX
  6
DASHED
 62
    11
 10
-106.065551
 20
-106.000011
 30
0.0
 40
2.0018729999999998
 50
179.99969100000001
 51
359.99998299999999
  0
ARC
  8
FIX
  6
DASHED
 62
    11
 10
-106.065551
 20
-105.994381
 30
0.0
 40
2.0018729999999998
 50
359.99992800000012
 51
180.0
  0
LINE
  8
NOTE
  6
CONTINUOUS
 62
     4
 10
-106.0
 20
-86.0
 30
0.0
 11
-106.0
 21
-126.0
 31
0.0
  0
ARC
  8
OUTLINE
  6
CONTINUOUS
 62
     3
 10
-97.000000999999997
 20
96.999998000000005
 30
0.0
 40
30.0
 50
90.0
 51
180.0
  0
ARC
  8
FIX
  6
DASHED
 62
    11
 10
-116.065551
 20
39.999988999999999
 30
0.0
 40
2.0018729999999998
 50
179.99969100000001
 51
359.99998299999999
  0
ARC
  8
FIX
  6
DASHED
 62
    11
 10
-116.065551
 20
40.005619000000003
 30
0.0
 40
2.0018729999999998
 50
359.99992800000012
 51
180.0
  0
LINE
  8
NOTE
  6
CONTINUOUS
 62
     4
 10
-96.0
 20
40.0
 30
0.0
 11
-136.0
 21
40.0
 31
0.0
  0
ARC
  8
DETAIL
  6
CONTINUOUS
 62
     5
 10
-97.0
 20
97.0
 30
0.0
 40
30.0
 50
90.0
 51
180.0
  0
LINE
  8
NOTE
  6
CONTINUOUS
 62
     4
 10
-116.0
 20
60.0
 30
0.0
 11
-116.0
 21
20.0
 31
0.0
  0
TEXT
  8
NOTE
  6
CONTINUOUS
 62
     4
 10
265.85249657142862
 20
297.86047000000002
 30
0.0
 40
64.0
  1
EL
 41
0.9
  0
LINE
  8
NOTE
  6
CONTINUOUS
 62
     4
 10
359.07391400000012
 20
281.94310999999999
 30
0.0
 11
252.38844700000001
 21
281.94310999999999
 31
0.0
  0
LINE
  8
NOTE
  6
CONTINUOUS
 62
     4
 10
102.47885571236471
 20
144.363867
 30
0.0
 11
105.934449
 21
106.005618
 31
0.0
  0
LINE
  8
NOTE
  6
CONTINUOUS
 62
     4
 10
105.934449
 20
106.005618
 30
0.0
 11
119.8090048871436
 21
141.24734053287011
 31
0.0
  0
LINE
  8
NOTE
  6
CONTINUOUS
 62
     4
 10
105.934449
 20
106.005619
 30
0.0
 11
151.077212
 21
406.45593294284572
 31
0.0
  0
CIRCLE
  8
DETAIL
  6
CONTINUOUS
 62
     5
 10
0.0
 20
-6.0
 30
0.0
 40
31.5
  0
CIRCLE
  8
DETAIL
  6
CONTINUOUS
 62
     5
 10
0.0
 20
-6.0
 30
0.0
 40
98.5
  0
LINE
  8
SIZE
  6
CONTINUOUS
 62
    30
 10
-98.5
 20
20.0
 30
0.0
 11
-98.5
 21
508.14406100000002
 31
0.0
  0
LINE
  8
SIZE
  6
CONTINUOUS
 62
    30
 10
98.5
 20
20.0
 30
0.0
 11
98.5
 21
508.14406100000002
 31
0.0
  0
LINE
  8
SIZE
  6
CONTINUOUS
 62
    30
 10
-96.5
 20
478.14406100000002
 30
0.0
 11
96.5
 21
478.14406100000002
 31
0.0
  0
CIRCLE
  8
SIZE
  6
CONTINUOUS
 62
    30
 10
-98.5
 20
478.14406100000002
 30
0.0
 40
6.0
  0
CIRCLE
  8
SIZE
  6
CONTINUOUS
 62
    30
 10
98.5
 20
478.14406100000002
 30
0.0
 40
6.0
  0
TEXT
  8
SIZE
  6
CONTINUOUS
 62
    30
 10
-108.89142857142861
 20
503.51873980751088
 30
0.0
 40
64.0
  1
φ197
 41
0.9
 72
     1
 11
0.0
 21
503.51873980751088
 31
0.0
  0
POINT
  8
DEFPOINTS
  6
CONTINUOUS
 62
    30
 10
-98.5
 20
0.0
 30
0.0
 50
180.0
  0
POINT
  8
DEFPOINTS
  6
CONTINUOUS
 62
    30
 10
98.5
 20
0.0
 30
0.0
 50
180.0
  0
POINT
  8
DEFPOINTS
  6
CONTINUOUS
 62
    30
 10
98.5
 20
478.14406100000002
 30
0.0
 50
180.0
  0
POINT
  8
DEFPOINTS
  6
CONTINUOUS
 62
    30
 10
31.0
 20
41.401048000000003
 30
0.0
 50
180.0
  0
POINT
  8
DEFPOINTS
  6
CONTINUOUS
 62
    30
 10
-31.0
 20
39.614455999999997
 30
0.0
 50
180.0
  0
LINE
  8
SIZE
  6
CONTINUOUS
 62
    30
 10
-116.0
 20
-295.49425200000002
 30
0.0
 11
-320.98091399999998
 21
-295.49425200000002
 31
0.0
  0
LINE
  8
NOTE
  6
CONTINUOUS
 62
     4
 10
151.077212
 20
406.45593294284572
 30
0.0
 11
767.15295000000003
 21
405.9106639428457
 31
0.0
  0
TEXT
  8
NOTE
  6
CONTINUOUS
 62
     4
 10
248.64617542857141
 20
444.11528394284579
 30
0.0
 40
64.0
  1
4-φ5据付用穴
 41
0.9
  0
POINT
  8
DEFPOINTS
  6
CONTINUOUS
 62
    30
 10
-116.0
 20
40.0
 30
0.0
 50
180.0
  0
POINT
  8
DEFPOINTS
  6
CONTINUOUS
 62
    30
 10
-116.0
 20
0.0
 30
0.0
 50
180.0
  0
CIRCLE
  8
ARRANGE
  6
CONTINUOUS
 62
     1
 10
0.0
 20
0.0
 30
0.0
 40
40.0
  0
LINE
  8
BASIS
  6
DASHDOT
 62
     6
 10
131.464427
 20
-6.0
 30
0.0
 11
-127.0
 21
-6.0
 31
0.0
  0
LINE
  8
BASIS
  6
DASHDOT
 62
     6
 10
0.0
 20
113.9816
 30
0.0
 11
0.0
 21
-159.13318200000001
 31
0.0
  0
TEXT
  8
ETC
  6
CONTINUOUS
 62
    61
 10
256.03209527862282
 20
838.61083399669292
 30
0.0
 40
64.0
  1
V-20PXSD5_3
 41
0.9
  0
TEXT
  8
ETC
  6
CONTINUOUS
 62
    61
 10
251.8461012786224
 20
720.65552398186173
 30
0.0
 40
64.0
  1
換気扇
 41
0.9
  0
TEXT
  8
ETC
  6
CONTINUOUS
 62
    61
 10
302.54749952717839
 20
612.50675109563656
 30
0.0
 40
40.0
  1
V-20PXSD5
 41
0.9
  0
LINE
  8
SIZE
  6
CONTINUOUS
 62
    30
 10
31.5
 20
14.0
 30
0.0
 11
31.500000000000021
 21
363.34751459804062
 31
0.0
  0
LINE
  8
SIZE
  6
CONTINUOUS
 62
    30
 10
-31.5
 20
14.0
 30
0.0
 11
-31.499999999999979
 21
363.34751459804062
 31
0.0
  0
LINE
  8
SIZE
  6
CONTINUOUS
 62
    30
 10
19.500000000000021
 20
333.34751459804062
 30
0.0
 11
-19.499999999999979
 21
333.34751459804062
 31
0.0
  0
CIRCLE
  8
SIZE
  6
CONTINUOUS
 62
    30
 10
31.500000000000021
 20
333.34751459804062
 30
0.0
 40
6.0
  0
LINE
  8
SIZE
  6
CONTINUOUS
 62
    30
 10
25.500000000000021
 20
333.34751459804062
 30
0.0
 11
19.500000000000021
 21
333.34751459804062
 31
0.0
  0
CIRCLE
  8
SIZE
  6
CONTINUOUS
 62
    30
 10
-31.499999999999979
 20
333.34751459804062
 30
0.0
 40
6.0
  0
LINE
  8
SIZE
  6
CONTINUOUS
 62
    30
 10
-25.499999999999979
 20
333.34751459804062
 30
0.0
 11
-19.499999999999979
 21
333.34751459804062
 31
0.0
  0
TEXT
  8
SIZE
  6
CONTINUOUS
 62
    30
 10
-86.948571428571412
 20
344.10418126470722
 30
0.0
 40
64.0
  1
φ63
 41
0.9
 72
     1
 11
0.0000000000000284
 21
344.10418126470722
 31
0.0
  0
POINT
  8
DEFPOINTS
  6
CONTINUOUS
 62
    30
 10
31.5
 20
-6.0
 30
0.0
  0
POINT
  8
DEFPOINTS
  6
CONTINUOUS
 62
    30
 10
-31.5
 20
-6.0
 30
0.0
  0
POINT
  8
DEFPOINTS
  6
CONTINUOUS
 62
    30
 10
-31.499999999999979
 20
333.34751459804062
 30
0.0
  0
LINE
  8
BASIS
  6
DASHDOT
 62
     6
 10
0.0
 20
13.9816
 30
0.0
 11
0.0
 21
-259.13318199999998
 31
0.0
  0
LINE
  8
BASIS
  6
DASHDOT
 62
     6
 10
0.0
 20
106.99999800000001
 30
0.0
 11
0.0
 21
-166.11478399999999
 31
0.0
  0
LINE
  8
NOTE
  6
CONTINUOUS
 62
     4
 10
100.0
 20
63.916888187978657
 30
0.0
 11
100.0
 21
38.29065945959973
 31
0.0
  0
LINE
  8
NOTE
  6
CONTINUOUS
 62
     4
 10
112.19252169649189
 20
50.0
 30
0.0
 11
87.64603477949457
 21
50.0
 31
0.0
  0
LINE
  8
SIZE
  6
CONTINUOUS
 62
    30
 10
-147.0
 20
0.0000000000000057
 30
0.0
 11
-265.37666575436089
 21
0.0000000000000392
 31
0.0
  0
LINE
  8
SIZE
  6
CONTINUOUS
 62
    30
 10
-147.000001
 20
-5.9999999999999947
 30
0.0
 11
-265.37666575436089
 21
-5.9999999999999609
 31
0.0
  0
LINE
  8
SIZE
  6
CONTINUOUS
 62
    30
 10
-235.37666575436091
 20
12.00000000000003
 30
0.0
 11
-235.37666575436091
 21
24.000000000000028
 31
0.0
  0
LINE
  8
SIZE
  6
CONTINUOUS
 62
    30
 10
-235.37666575436091
 20
-17.999999999999979
 30
0.0
 11
-235.37666575436091
 21
-115.6571428571428
 31
0.0
  0
LINE
  8
SIZE
  6
CONTINUOUS
 62
    30
 10
-235.37666575436091
 20
0.0000000000000307
 30
0.0
 11
-235.37666575436091
 21
-5.9999999999999698
 31
0.0
  0
CIRCLE
  8
SIZE
  6
CONTINUOUS
 62
    30
 10
-235.37666575436091
 20
0.0000000000000307
 30
0.0
 40
6.0
  0
LINE
  8
SIZE
  6
CONTINUOUS
 62
    30
 10
-235.37666575436091
 20
0.0000000000000307
 30
0.0
 11
-235.37666575436091
 21
12.00000000000003
 31
0.0
  0
CIRCLE
  8
SIZE
  6
CONTINUOUS
 62
    30
 10
-235.37666575436091
 20
-5.9999999999999698
 30
0.0
 40
6.0
  0
LINE
  8
SIZE
  6
CONTINUOUS
 62
    30
 10
-235.37666575436091
 20
-5.9999999999999698
 30
0.0
 11
-235.37666575436091
 21
-17.999999999999979
 31
0.0
  0
TEXT
  8
SIZE
  6
CONTINUOUS
 62
    30
 10
-260.37666575436089
 20
-90.657142857142844
 30
0.0
 40
64.0
  1
6
 50
90.0
 41
0.9
 72
     1
 11
-260.37666575436089
 21
-72.828571428571422
 31
0.0
  0
POINT
  8
DEFPOINTS
  6
CONTINUOUS
 62
    30
 10
-127.0
 20
0.0
 30
0.0
  0
POINT
  8
DEFPOINTS
  6
CONTINUOUS
 62
    30
 10
-127.000001
 20
-6.0
 30
0.0
  0
POINT
  8
DEFPOINTS
  6
CONTINUOUS
 62
    30
 10
-235.37666575436091
 20
-5.9999999999999698
 30
0.0
  0
LINE
  8
SIZE
  6
CONTINUOUS
 62
    30
 10
-147.0
 20
0.0000000000000057
 30
0.0
 11
-265.37666575436089
 21
0.0000000000000392
 31
0.0
  0
LINE
  8
SIZE
  6
CONTINUOUS
 62
    30
 10
-156.0
 20
40.000000000000007
 30
0.0
 11
-265.37666575436089
 21
40.000000000000043
 31
0.0
  0
LINE
  8
SIZE
  6
CONTINUOUS
 62
    30
 10
-235.37666575436091
 20
-11.99999999999997
 30
0.0
 11
-235.37666575436091
 21
-23.999999999999972
 31
0.0
  0
LINE
  8
SIZE
  6
CONTINUOUS
 62
    30
 10
-235.37666575436091
 20
52.000000000000021
 30
0.0
 11
-235.37666575436091
 21
207.2571428571429
 31
0.0
  0
LINE
  8
SIZE
  6
CONTINUOUS
 62
    30
 10
-235.37666575436091
 20
0.0000000000000307
 30
0.0
 11
-235.37666575436091
 21
40.000000000000021
 31
0.0
  0
CIRCLE
  8
SIZE
  6
CONTINUOUS
 62
    30
 10
-235.37666575436091
 20
0.0000000000000307
 30
0.0
 40
6.0
  0
LINE
  8
SIZE
  6
CONTINUOUS
 62
    30
 10
-235.37666575436091
 20
0.0000000000000307
 30
0.0
 11
-235.37666575436091
 21
-11.99999999999997
 31
0.0
  0
CIRCLE
  8
SIZE
  6
CONTINUOUS
 62
    30
 10
-235.37666575436091
 20
40.000000000000021
 30
0.0
 40
6.0
  0
LINE
  8
SIZE
  6
CONTINUOUS
 62
    30
 10
-235.37666575436091
 20
40.000000000000021
 30
0.0
 11
-235.37666575436091
 21
52.000000000000021
 31
0.0
  0
TEXT
  8
SIZE
  6
CONTINUOUS
 62
    30
 10
-260.37666575436089
 20
89.000000000000043
 30
0.0
 40
64.0
  1
40
 50
90.0
 41
0.9
 72
     1
 11
-260.37666575436089
 21
135.62857142857149
 31
0.0
  0
POINT
  8
DEFPOINTS
  6
CONTINUOUS
 62
    30
 10
-127.0
 20
0.0
 30
0.0
  0
POINT
  8
DEFPOINTS
  6
CONTINUOUS
 62
    30
 10
-136.0
 20
40.0
 30
0.0
  0
POINT
  8
DEFPOINTS
  6
CONTINUOUS
 62
    30
 10
-235.37666575436091
 20
40.000000000000021
 30
0.0
  0
LINE
  8
SIZE
  6
CONTINUOUS
 62
    30
 10
146.0
 20
-106.0
 30
0.0
 11
307.37616808580071
 21
-106.0000000000001
 31
0.0
  0
LINE
  8
SIZE
  6
CONTINUOUS
 62
    30
 10
146.0
 20
106.0
 30
0.0
 11
307.37616808580071
 21
105.9999999999999
 31
0.0
  0
LINE
  8
SIZE
  6
CONTINUOUS
 62
    30
 10
277.3761680858006
 20
-94.000000000000043
 30
0.0
 11
277.3761680858006
 21
93.999999999999957
 31
0.0
  0
CIRCLE
  8
SIZE
  6
CONTINUOUS
 62
    30
 10
277.3761680858006
 20
-106.0
 30
0.0
 40
6.0
  0
LINE
  8
SIZE
  6
CONTINUOUS
 62
    30
 10
277.3761680858006
 20
-106.0
 30
0.0
 11
277.3761680858006
 21
-94.0
 31
0.0
  0
CIRCLE
  8
SIZE
  6
CONTINUOUS
 62
    30
 10
277.3761680858006
 20
106.0
 30
0.0
 40
6.0
  0
LINE
  8
SIZE
  6
CONTINUOUS
 62
    30
 10
277.3761680858006
 20
106.0
 30
0.0
 11
277.3761680858006
 21
94.0
 31
0.0
  0
TEXT
  8
SIZE
  6
CONTINUOUS
 62
    30
 10
252.3761680858006
 20
-68.571428571428569
 30
0.0
 40
64.0
  1
212
 50
90.0
 41
0.9
 72
     1
 11
252.3761680858006
 21
0.0000000000000022
 31
0.0
  0
POINT
  8
DEFPOINTS
  6
CONTINUOUS
 62
    30
 10
126.0
 20
-106.0
 30
0.0
  0
POINT
  8
DEFPOINTS
  6
CONTINUOUS
 62
    30
 10
126.0
 20
106.0
 30
0.0
  0
POINT
  8
DEFPOINTS
  6
CONTINUOUS
 62
    30
 10
277.3761680858006
 20
106.0
 30
0.0
  0
ENDSEC
  0
EOF
