  0
SECTION
  2
HEADER
  9
$ACADVER
  1
AC1009
  9
$DWGCODEPAGE
  3
dos932
  9
$INSBASE
 10
0.0
 20
0.0
 30
0.0
  9
$EXTMIN
 10
-928.124984
 20
-602.416981
 30
0.0
  9
$EXTMAX
 10
1013.777172
 20
484.817513
 30
0.0
  9
$LIMMIN
 10
-2970.0
 20
-2100.0
  9
$LIMMAX
 10
2970.0
 20
2100.0
  9
$ORTHOMODE
 70
     1
  9
$REGENMODE
 70
     1
  9
$FILLMODE
 70
     1
  9
$QTEXTMODE
 70
     0
  9
$MIRRTEXT
 70
     0
  9
$DRAGMODE
 70
     2
  9
$LTSCALE
 40
20.0
  9
$OSMODE
 70
    37
  9
$ATTMODE
 70
     1
  9
$TEXTSIZE
 40
64.0
  9
$TRACEWID
 40
0.05
  9
$TEXTSTYLE
  7
STANDARD
  9
$CLAYER
  8
SIZE
  9
$CELTYPE
  6
CONTINUOUS
  9
$CECOLOR
 62
     7
  9
$DIMSCALE
 40
1.0
  9
$DIMASZ
 40
2.0
  9
$DIMEXO
 40
20.0
  9
$DIMDLI
 40
200.0
  9
$DIMRND
 40
0.0
  9
$DIMDLE
 40
0.0
  9
$DIMEXE
 40
30.0
  9
$DIMTP
 40
0.0
  9
$DIMTM
 40
0.0
  9
$DIMTXT
 40
64.0
  9
$DIMCEN
 40
0.09
  9
$DIMTSZ
 40
0.0
  9
$DIMTOL
 70
     0
  9
$DIMLIM
 70
     0
  9
$DIMTIH
 70
     0
  9
$DIMTOH
 70
     0
  9
$DIMSE1
 70
     0
  9
$DIMSE2
 70
     0
  9
$DIMTAD
 70
     1
  9
$DIMZIN
 70
     8
  9
$DIMBLK
  1
DOT1
  9
$DIMASO
 70
     1
  9
$DIMSHO
 70
     0
  9
$DIMPOST
  1

  9
$DIMAPOST
  1

  9
$DIMALT
 70
     0
  9
$DIMALTD
 70
     2
  9
$DIMALTF
 40
25.4
  9
$DIMLFAC
 40
1.0
  9
$DIMTOFL
 70
     1
  9
$DIMTVP
 40
0.0
  9
$DIMTIX
 70
     1
  9
$DIMSOXD
 70
     0
  9
$DIMSAH
 70
     0
  9
$DIMBLK1
  1

  9
$DIMBLK2
  1

  9
$DIMSTYLE
  2
STANDARD
  9
$DIMCLRD
 70
     7
  9
$DIMCLRE
 70
     7
  9
$DIMCLRT
 70
     7
  9
$DIMTFAC
 40
1.0
  9
$DIMGAP
 40
0.09
  9
$LUNITS
 70
     2
  9
$LUPREC
 70
     4
  9
$SKETCHINC
 40
0.1
  9
$FILLETRAD
 40
5.0
  9
$AUNITS
 70
     1
  9
$AUPREC
 70
     3
  9
$MENU
  1
ACAD
  9
$ELEVATION
 40
0.0
  9
$PELEVATION
 40
0.0
  9
$THICKNESS
 40
0.0
  9
$LIMCHECK
 70
     0
  9
$CHAMFERA
 40
0.0
  9
$CHAMFERB
 40
0.0
  9
$SKPOLY
 70
     0
  9
$TDCREATE
 40
2450074.382430544
  9
$TDUPDATE
 40
2457485.587610567
  9
$TDINDWG
 40
0.0470713194
  9
$TDUSRTIMER
 40
0.0470713194
  9
$USRTIMER
 70
     1
  9
$ANGBASE
 50
0.0
  9
$ANGDIR
 70
     0
  9
$PDMODE
 70
     3
  9
$PDSIZE
 40
-2.0
  9
$PLINEWID
 40
0.0
  9
$COORDS
 70
     1
  9
$SPLFRAME
 70
     0
  9
$SPLINETYPE
 70
     6
  9
$SPLINESEGS
 70
     8
  9
$ATTDIA
 70
     0
  9
$ATTREQ
 70
     1
  9
$HANDLING
 70
     1
  9
$HANDSEED
  5
5FF
  9
$SURFTAB1
 70
     6
  9
$SURFTAB2
 70
     6
  9
$SURFTYPE
 70
     6
  9
$SURFU
 70
     6
  9
$SURFV
 70
     6
  9
$UCSNAME
  2

  9
$UCSORG
 10
0.0
 20
0.0
 30
0.0
  9
$UCSXDIR
 10
1.0
 20
0.0
 30
0.0
  9
$UCSYDIR
 10
0.0
 20
1.0
 30
0.0
  9
$PUCSNAME
  2

  9
$PUCSORG
 10
0.0
 20
0.0
 30
0.0
  9
$PUCSXDIR
 10
1.0
 20
0.0
 30
0.0
  9
$PUCSYDIR
 10
0.0
 20
1.0
 30
0.0
  9
$USERI1
 70
     0
  9
$USERI2
 70
     0
  9
$USERI3
 70
     0
  9
$USERI4
 70
     0
  9
$USERI5
 70
     0
  9
$USERR1
 40
20.0
  9
$USERR2
 40
0.0
  9
$USERR3
 40
0.0
  9
$USERR4
 40
0.0
  9
$USERR5
 40
0.0
  9
$WORLDVIEW
 70
     1
  9
$SHADEDGE
 70
     3
  9
$SHADEDIF
 70
    70
  9
$TILEMODE
 70
     1
  9
$MAXACTVP
 70
    48
  9
$PLIMCHECK
 70
     0
  9
$PEXTMIN
 10
-1.000000000000000E+20
 20
-1.000000000000000E+20
 30
-1.000000000000000E+20
  9
$PEXTMAX
 10
1.000000000000000E+20
 20
1.000000000000000E+20
 30
1.000000000000000E+20
  9
$PLIMMIN
 10
0.0
 20
0.0
  9
$PLIMMAX
 10
12.0
 20
9.0
  9
$UNITMODE
 70
     0
  9
$VISRETAIN
 70
     0
  9
$PLINEGEN
 70
     0
  9
$PSLTSCALE
 70
     0
  0
ENDSEC
  0
SECTION
  2
TABLES
  0
TABLE
  2
VPORT
 70
     1
  0
VPORT
  2
*ACTIVE
 70
     0
 10
0.0
 20
0.0
 11
1.0
 21
1.0
 12
42.826094
 22
-58.799734
 13
0.0
 23
0.0
 14
200.0
 24
200.0
 15
200.0
 25
200.0
 16
0.0
 26
0.0
 36
1.0
 17
0.0
 27
0.0
 37
0.0
 40
1178.941235
 41
1.658444
 42
50.0
 43
0.0
 44
0.0
 50
0.0
 51
0.0
 71
     0
 72
   500
 73
     1
 74
     0
 75
     0
 76
     0
 77
     0
 78
     1
  0
ENDTAB
  0
TABLE
  2
LTYPE
 70
     2
  0
LTYPE
  2
CONTINUOUS
 70
     0
  3
実線
 72
    65
 73
     0
 40
0.0
  0
LTYPE
  2
DASHDOT
 70
     0
  3
____ _ ____ _ ____ _ ____ _ ____ _ ____ _ ____
 72
    65
 73
     4
 40
5.5
 49
4.0
 49
-0.6
 49
0.3
 49
-0.6
  0
ENDTAB
  0
TABLE
  2
LAYER
 70
    12
  0
LAYER
  2
0
 70
     0
 62
     7
  6
CONTINUOUS
  0
LAYER
  2
OUTLINE
 70
     0
 62
     3
  6
CONTINUOUS
  0
LAYER
  2
DETAIL
 70
     0
 62
     5
  6
CONTINUOUS
  0
LAYER
  2
BASIS
 70
     0
 62
     6
  6
DASHDOT
  0
LAYER
  2
SIZE
 70
     0
 62
    30
  6
CONTINUOUS
  0
LAYER
  2
NOTE
 70
     0
 62
     4
  6
CONTINUOUS
  0
LAYER
  2
ARRANGE
 70
     0
 62
     1
  6
CONTINUOUS
  0
LAYER
  2
DEFPOINTS
 70
     0
 62
     7
  6
CONTINUOUS
  0
LAYER
  2
FIX
 70
     0
 62
    11
  6
CONTINUOUS
  0
LAYER
  2
ETC
 70
     0
 62
    61
  6
CONTINUOUS
  0
LAYER
  2
SERVICESPACE
 70
     0
 62
     2
  6
DASHDOT
  0
LAYER
  2
SYMBOLLINE
 70
     0
 62
    15
  6
CONTINUOUS
  0
ENDTAB
  0
TABLE
  2
STYLE
 70
     1
  0
STYLE
  2
STANDARD
 70
     0
 40
0.0
 41
0.9
 50
0.0
 71
     0
 42
64.0
  3
SIMPLEX
  4
BIGFONT
  0
ENDTAB
  0
TABLE
  2
VIEW
 70
     1
  0
VIEW
  2
ALL
 70
     0
 40
4282.619808
 10
0.0
 20
41.309904
 41
5940.0
 11
0.0
 21
0.0
 31
1.0
 12
0.0
 22
0.0
 32
0.0
 42
50.0
 43
0.0
 44
0.0
 50
0.0
 71
     0
  0
ENDTAB
  0
TABLE
  2
UCS
 70
     0
  0
ENDTAB
  0
TABLE
  2
APPID
 70
     1
  0
APPID
  2
ACAD
 70
     0
  0
ENDTAB
  0
TABLE
  2
DIMSTYLE
 70
     1
  0
DIMSTYLE
  2
STANDARD
 70
     0
  3

  4

  5

  6

  7

 40
1.0
 41
0.18
 42
0.0625
 43
0.38
 44
0.18
 45
0.0
 46
0.0
 47
0.0
 48
0.0
140
0.18
141
0.09
142
0.0
143
25.4
144
1.0
145
0.0
146
1.0
147
0.09
 71
     0
 72
     0
 73
     1
 74
     1
 75
     0
 76
     0
 77
     0
 78
     0
170
     0
171
     2
172
     0
173
     0
174
     0
175
     0
176
     7
177
     7
178
     7
  0
ENDTAB
  0
ENDSEC
  0
SECTION
  2
BLOCKS
  0
BLOCK
  8
0
  2
$MODEL_SPACE
 70
     0
 10
0.0
 20
0.0
 30
0.0
  3
$MODEL_SPACE
  1

  0
ENDBLK
  5
5D7
  8
0
  0
BLOCK
 67
     1
  8
0
  2
$PAPER_SPACE
 70
     0
 10
0.0
 20
0.0
 30
0.0
  3
$PAPER_SPACE
  1

  0
ENDBLK
  5
5D9
 67
     1
  8
0
  0
BLOCK
  8
OUTLINE
  2
DOT1
 70
     0
 10
0.0
 20
0.0
 30
0.0
  3
DOT1
  1

  0
CIRCLE
  5
4ED
  8
SIZE
  6
CONTINUOUS
 62
     7
 10
0.0
 20
0.0
 30
0.0
 40
3.0
  0
ENDBLK
  5
4EE
  8
OUTLINE
  0
ENDSEC
  0
SECTION
  2
ENTITIES
  0
TEXT
  5
4EF
  8
ETC
  6
CONTINUOUS
 62
    61
 10
572.4468999999999
 20
385.203714
 30
0.0
 40
40.0
  1
V-20ZM5_2
 41
0.9
  0
LINE
  5
4F0
  8
BASIS
  6
DASHDOT
 62
     6
 10
-197.55258
 20
-137.4806
 30
0.0
 11
200.747417
 21
-137.4806
 31
0.0
  0
LINE
  5
4F1
  8
DETAIL
  6
CONTINUOUS
 62
     5
 10
138.982369
 20
-0.4806
 30
0.0
 11
-141.017631
 21
-0.4806
 31
0.0
  0
LINE
  5
4F2
  8
DETAIL
  6
CONTINUOUS
 62
     5
 10
138.982369
 20
-227.4806
 30
0.0
 11
138.982369
 21
-0.4806
 31
0.0
  0
LINE
  5
4F3
  8
DETAIL
  6
CONTINUOUS
 62
     5
 10
128.982369
 20
-237.4806
 30
0.0
 11
-15.195078
 21
-237.4806
 31
0.0
  0
LINE
  5
4F4
  8
DETAIL
  6
CONTINUOUS
 62
     5
 10
-141.017631
 20
-227.4806
 30
0.0
 11
-141.017631
 21
-0.4806
 31
0.0
  0
LINE
  5
4F5
  8
BASIS
  6
DASHDOT
 62
     6
 10
-1.017631
 20
-283.376747
 30
0.0
 11
-1.017631
 21
25.669766
 31
0.0
  0
CIRCLE
  5
4F6
  8
DETAIL
  6
CONTINUOUS
 62
     5
 10
-1.017631
 20
-137.4806
 30
0.0
 40
71.0
  0
CIRCLE
  5
4F7
  8
DETAIL
  6
CONTINUOUS
 62
     5
 10
-1.017631
 20
-137.4806
 30
0.0
 40
80.0
  0
LINE
  5
4F8
  8
DETAIL
  6
CONTINUOUS
 62
     5
 10
60.982369
 20
-237.152261
 30
0.0
 11
60.982369
 21
-272.4806
 31
0.0
  0
LINE
  5
4F9
  8
BASIS
  6
DASHDOT
 62
     6
 10
19.982369
 20
-292.85997
 30
0.0
 11
19.982369
 21
-227.549835
 31
0.0
  0
LINE
  5
4FA
  8
DETAIL
  6
DASHDOT
 62
     5
 10
-94.68650699999999
 20
-275.4806
 30
0.0
 11
-94.68650699999999
 21
-237.4806
 31
0.0
  0
LINE
  5
4FB
  8
DETAIL
  6
DASHDOT
 62
     5
 10
-5.686507
 20
-237.4806
 30
0.0
 11
-5.686507
 21
-277.4806
 31
0.0
  0
LINE
  5
4FC
  8
DETAIL
  6
CONTINUOUS
 62
     5
 10
-15.195078
 20
-237.4806
 30
0.0
 11
-131.017631
 21
-237.4806
 31
0.0
  0
TEXT
  5
4FD
  8
NOTE
  6
CONTINUOUS
 62
     4
 10
-918.3984360000001
 20
96.100509
 30
0.0
 40
64.0
  1
AH 4ヶ所×19×12
 41
0.9
  0
LINE
  5
4FE
  8
NOTE
  6
CONTINUOUS
 62
     4
 10
-170.09378
 20
-13.577759
 30
0.0
 11
-247.863889
 21
70.425393
 31
0.0
  0
LINE
  5
4FF
  8
NOTE
  6
CONTINUOUS
 62
     4
 10
-204.813518
 20
6.285266
 30
0.0
 11
-170.09378
 21
-13.577759
 31
0.0
  0
LINE
  5
500
  8
NOTE
  6
CONTINUOUS
 62
     4
 10
-170.09378
 20
-13.577759
 30
0.0
 11
-190.230443
 21
20.983995
 31
0.0
  0
TEXT
  5
501
  8
NOTE
  6
CONTINUOUS
 62
     4
 10
-245.371152
 20
-343.905725
 30
0.0
 40
64.0
  1
EL
 41
0.9
  0
LINE
  5
502
  8
NOTE
  6
CONTINUOUS
 62
     4
 10
-23.307259
 20
-258.469427
 30
0.0
 11
-165.288463
 21
-357.599838
 31
0.0
  0
LINE
  5
503
  8
NOTE
  6
CONTINUOUS
 62
     4
 10
-49.448111
 20
-288.745752
 30
0.0
 11
-23.307259
 21
-258.469427
 31
0.0
  0
LINE
  5
504
  8
NOTE
  6
CONTINUOUS
 62
     4
 10
-23.307259
 20
-258.469427
 30
0.0
 11
-61.08406400000001
 21
-271.619067
 31
0.0
  0
LINE
  5
505
  8
DETAIL
  6
CONTINUOUS
 62
     5
 10
-183.517631
 20
-16.9806
 30
0.0
 11
-183.517631
 21
-18.9806
 31
0.0
  0
LINE
  5
506
  8
DETAIL
  6
CONTINUOUS
 62
     5
 10
-183.517631
 20
-18.9806
 30
0.0
 11
-143.017631
 21
-18.9806
 31
0.0
  0
LINE
  5
507
  8
DETAIL
  6
CONTINUOUS
 62
     5
 10
-183.517631
 20
-16.9806
 30
0.0
 11
-141.017631
 21
-16.9806
 31
0.0
  0
LINE
  5
508
  8
DETAIL
  6
CONTINUOUS
 62
     5
 10
-143.017631
 20
-18.9806
 30
0.0
 11
-143.017631
 21
-56.9806
 31
0.0
  0
LINE
  5
509
  8
DETAIL
  6
CONTINUOUS
 62
     5
 10
-141.017631
 20
-16.9806
 30
0.0
 11
-141.017631
 21
-56.9806
 31
0.0
  0
LINE
  5
50A
  8
DETAIL
  6
CONTINUOUS
 62
     5
 10
-143.017631
 20
-56.9806
 30
0.0
 11
-141.017631
 21
-56.9806
 31
0.0
  0
LINE
  5
50B
  8
DETAIL
  6
CONTINUOUS
 62
     5
 10
140.982369
 20
-56.9806
 30
0.0
 11
138.982369
 21
-56.9806
 31
0.0
  0
LINE
  5
50C
  8
DETAIL
  6
CONTINUOUS
 62
     5
 10
138.982369
 20
-16.9806
 30
0.0
 11
138.982369
 21
-56.9806
 31
0.0
  0
LINE
  5
50D
  8
DETAIL
  6
CONTINUOUS
 62
     5
 10
140.982369
 20
-18.9806
 30
0.0
 11
140.982369
 21
-56.9806
 31
0.0
  0
LINE
  5
50E
  8
DETAIL
  6
CONTINUOUS
 62
     5
 10
181.482369
 20
-16.9806
 30
0.0
 11
138.982369
 21
-16.9806
 31
0.0
  0
LINE
  5
50F
  8
DETAIL
  6
CONTINUOUS
 62
     5
 10
181.482369
 20
-18.9806
 30
0.0
 11
140.982369
 21
-18.9806
 31
0.0
  0
LINE
  5
510
  8
DETAIL
  6
CONTINUOUS
 62
     5
 10
181.482369
 20
-16.9806
 30
0.0
 11
181.482369
 21
-18.9806
 31
0.0
  0
LINE
  5
511
  8
NOTE
  6
CONTINUOUS
 62
     4
 10
-247.863889
 20
70.425393
 30
0.0
 11
-928.985533
 21
70.425393
 31
0.0
  0
LINE
  5
512
  8
NOTE
  6
CONTINUOUS
 62
     4
 10
-165.288463
 20
-357.599838
 30
0.0
 11
-252.717423
 21
-357.599838
 31
0.0
  0
LINE
  5
513
  8
SIZE
  6
CONTINUOUS
 62
    30
 10
138.982369
 20
19.5194
 30
0.0
 11
138.982369
 21
161.924289
 31
0.0
  0
LINE
  5
514
  8
SIZE
  6
CONTINUOUS
 62
    30
 10
-141.017631
 20
19.5194
 30
0.0
 11
-141.017631
 21
161.924289
 31
0.0
  0
LINE
  5
515
  8
SIZE
  6
CONTINUOUS
 62
    30
 10
136.982369
 20
131.924289
 30
0.0
 11
-139.017631
 21
131.924289
 31
0.0
  0
TEXT
  5
516
  8
SIZE
  6
CONTINUOUS
 62
    30
 10
-81.568742
 20
149.840029
 30
0.0
 40
64.0
  1
280
 41
0.9
 72
     1
 11
-0.611942
 21
149.840029
 31
0.0
  0
CIRCLE
  5
517
  8
SIZE
  6
CONTINUOUS
 62
    30
 10
138.982369
 20
131.924289
 30
0.0
 40
6.0
  0
CIRCLE
  5
518
  8
SIZE
  6
CONTINUOUS
 62
    30
 10
-141.017631
 20
131.924289
 30
0.0
 40
6.0
  0
POINT
  5
519
  8
DEFPOINTS
  6
CONTINUOUS
 62
    30
 10
138.982369
 20
-0.4806
 30
0.0
  0
POINT
  5
51A
  8
DEFPOINTS
  6
CONTINUOUS
 62
    30
 10
-141.017631
 20
-0.4806
 30
0.0
  0
POINT
  5
51B
  8
DEFPOINTS
  6
CONTINUOUS
 62
    30
 10
-141.017631
 20
131.924289
 30
0.0
  0
LINE
  5
51C
  8
SIZE
  6
CONTINUOUS
 62
    30
 10
163.982369
 20
22.0194
 30
0.0
 11
163.982369
 21
276.730489
 31
0.0
  0
LINE
  5
51D
  8
SIZE
  6
CONTINUOUS
 62
    30
 10
-166.017631
 20
22.0194
 30
0.0
 11
-166.017631
 21
276.730489
 31
0.0
  0
LINE
  5
51E
  8
SIZE
  6
CONTINUOUS
 62
    30
 10
161.982369
 20
246.730489
 30
0.0
 11
-164.017631
 21
246.730489
 31
0.0
  0
TEXT
  5
51F
  8
SIZE
  6
CONTINUOUS
 62
    30
 10
-82.567559
 20
265.644539
 30
0.0
 40
64.0
  1
330
 41
0.9
 72
     1
 11
-1.610759
 21
265.644539
 31
0.0
  0
CIRCLE
  5
520
  8
SIZE
  6
CONTINUOUS
 62
    30
 10
163.982369
 20
246.730489
 30
0.0
 40
6.0
  0
CIRCLE
  5
521
  8
SIZE
  6
CONTINUOUS
 62
    30
 10
-166.017631
 20
246.730489
 30
0.0
 40
6.0
  0
POINT
  5
522
  8
DEFPOINTS
  6
CONTINUOUS
 62
    30
 10
163.982369
 20
2.0194
 30
0.0
  0
POINT
  5
523
  8
DEFPOINTS
  6
CONTINUOUS
 62
    30
 10
-166.017631
 20
2.0194
 30
0.0
  0
POINT
  5
524
  8
DEFPOINTS
  6
CONTINUOUS
 62
    30
 10
-166.017631
 20
246.730489
 30
0.0
  0
LINE
  5
525
  8
SIZE
  6
CONTINUOUS
 62
    30
 10
181.482369
 20
3.0194
 30
0.0
 11
181.482369
 21
407.220458
 31
0.0
  0
LINE
  5
526
  8
SIZE
  6
CONTINUOUS
 62
    30
 10
-183.517631
 20
3.0194
 30
0.0
 11
-183.517631
 21
407.220458
 31
0.0
  0
LINE
  5
527
  8
SIZE
  6
CONTINUOUS
 62
    30
 10
179.482369
 20
377.220458
 30
0.0
 11
-181.517631
 21
377.220458
 31
0.0
  0
TEXT
  5
528
  8
SIZE
  6
CONTINUOUS
 62
    30
 10
-79.134257
 20
389.406869
 30
0.0
 40
64.0
  1
365
 41
0.9
 72
     1
 11
1.822543
 21
389.406869
 31
0.0
  0
CIRCLE
  5
529
  8
SIZE
  6
CONTINUOUS
 62
    30
 10
181.482369
 20
377.220458
 30
0.0
 40
6.0
  0
CIRCLE
  5
52A
  8
SIZE
  6
CONTINUOUS
 62
    30
 10
-183.517631
 20
377.220458
 30
0.0
 40
6.0
  0
POINT
  5
52B
  8
DEFPOINTS
  6
CONTINUOUS
 62
    30
 10
181.482369
 20
-16.9806
 30
0.0
  0
POINT
  5
52C
  8
DEFPOINTS
  6
CONTINUOUS
 62
    30
 10
-183.517631
 20
-16.9806
 30
0.0
  0
POINT
  5
52D
  8
DEFPOINTS
  6
CONTINUOUS
 62
    30
 10
-183.517631
 20
377.220458
 30
0.0
  0
LINE
  5
52E
  8
SIZE
  6
CONTINUOUS
 62
    30
 10
158.982369
 20
-0.4806
 30
0.0
 11
727.6072399999999
 21
-0.4806
 31
0.0
  0
LINE
  5
52F
  8
SIZE
  6
CONTINUOUS
 62
    30
 10
203.982369
 20
-17.9806
 30
0.0
 11
727.6072399999999
 21
-17.9806
 31
0.0
  0
LINE
  5
530
  8
SIZE
  6
CONTINUOUS
 62
    30
 10
697.6072399999999
 20
-2.4806
 30
0.0
 11
697.6072399999999
 21
-15.9806
 31
0.0
  0
TEXT
  5
531
  8
SIZE
  6
CONTINUOUS
 62
    30
 10
673.2573349999999
 20
-199.897969
 30
0.0
 40
64.0
  1
17.5
 50
90.0
 41
0.9
 72
     1
 11
673.2573349999999
 21
-110.934769
 31
0.0
  0
CIRCLE
  5
532
  8
SIZE
  6
CONTINUOUS
 62
    30
 10
697.6072399999999
 20
-0.4806
 30
0.0
 40
6.0
  0
CIRCLE
  5
533
  8
SIZE
  6
CONTINUOUS
 62
    30
 10
697.6072399999999
 20
-17.9806
 30
0.0
 40
6.0
  0
POINT
  5
534
  8
DEFPOINTS
  6
CONTINUOUS
 62
    30
 10
138.982369
 20
-0.4806
 30
0.0
  0
POINT
  5
535
  8
DEFPOINTS
  6
CONTINUOUS
 62
    30
 10
183.982369
 20
-17.9806
 30
0.0
  0
POINT
  5
536
  8
DEFPOINTS
  6
CONTINUOUS
 62
    30
 10
697.6072399999999
 20
-17.9806
 30
0.0
  0
LINE
  5
537
  8
SIZE
  6
CONTINUOUS
 62
    30
 10
158.982369
 20
-0.4806
 30
0.0
 11
866.79167
 21
-0.4806
 31
0.0
  0
LINE
  5
538
  8
SIZE
  6
CONTINUOUS
 62
    30
 10
148.982369
 20
-237.4806
 30
0.0
 11
866.79167
 21
-237.4806
 31
0.0
  0
LINE
  5
539
  8
SIZE
  6
CONTINUOUS
 62
    30
 10
836.79167
 20
-2.4806
 30
0.0
 11
836.79167
 21
-235.4806
 31
0.0
  0
TEXT
  5
53A
  8
SIZE
  6
CONTINUOUS
 62
    30
 10
819.640221
 20
-197.302604
 30
0.0
 40
64.0
  1
237
 50
90.0
 41
0.9
 72
     1
 11
819.640221
 21
-116.345804
 31
0.0
  0
CIRCLE
  5
53B
  8
SIZE
  6
CONTINUOUS
 62
    30
 10
836.79167
 20
-0.4806
 30
0.0
 40
6.0
  0
CIRCLE
  5
53C
  8
SIZE
  6
CONTINUOUS
 62
    30
 10
836.79167
 20
-237.4806
 30
0.0
 40
6.0
  0
POINT
  5
53D
  8
DEFPOINTS
  6
CONTINUOUS
 62
    30
 10
138.982369
 20
-0.4806
 30
0.0
  0
POINT
  5
53E
  8
DEFPOINTS
  6
CONTINUOUS
 62
    30
 10
128.982369
 20
-237.4806
 30
0.0
  0
POINT
  5
53F
  8
DEFPOINTS
  6
CONTINUOUS
 62
    30
 10
836.79167
 20
-237.4806
 30
0.0
  0
LINE
  5
540
  8
DETAIL
  6
CONTINUOUS
 62
     5
 10
55.982369
 20
-277.4806
 30
0.0
 11
-5.686507
 21
-277.4806
 31
0.0
  0
LINE
  5
541
  8
DETAIL
  6
CONTINUOUS
 62
     5
 10
-5.686507
 20
-275.4806
 30
0.0
 11
-94.68650699999999
 21
-275.4806
 31
0.0
  0
LINE
  5
542
  8
SIZE
  6
CONTINUOUS
 62
    30
 10
158.982369
 20
-0.4806
 30
0.0
 11
1012.60764
 21
-0.4806
 31
0.0
  0
LINE
  5
543
  8
SIZE
  6
CONTINUOUS
 62
    30
 10
80.982369
 20
-277.4806
 30
0.0
 11
1012.60764
 21
-277.4806
 31
0.0
  0
LINE
  5
544
  8
SIZE
  6
CONTINUOUS
 62
    30
 10
982.60764
 20
-2.4806
 30
0.0
 11
982.60764
 21
-275.4806
 31
0.0
  0
TEXT
  5
545
  8
SIZE
  6
CONTINUOUS
 62
    30
 10
944.1572319999999
 20
-212.040589
 30
0.0
 40
64.0
  1
277
 50
90.0
 41
0.9
 72
     1
 11
944.1572319999999
 21
-131.083789
 31
0.0
  0
CIRCLE
  5
546
  8
SIZE
  6
CONTINUOUS
 62
    30
 10
982.60764
 20
-0.4806
 30
0.0
 40
6.0
  0
CIRCLE
  5
547
  8
SIZE
  6
CONTINUOUS
 62
    30
 10
982.60764
 20
-277.4806
 30
0.0
 40
6.0
  0
POINT
  5
548
  8
DEFPOINTS
  6
CONTINUOUS
 62
    30
 10
138.982369
 20
-0.4806
 30
0.0
  0
POINT
  5
549
  8
DEFPOINTS
  6
CONTINUOUS
 62
    30
 10
60.982369
 20
-277.4806
 30
0.0
  0
POINT
  5
54A
  8
DEFPOINTS
  6
CONTINUOUS
 62
    30
 10
982.60764
 20
-277.4806
 30
0.0
  0
LINE
  5
54B
  8
SIZE
  6
CONTINUOUS
 62
    30
 10
-161.017631
 20
-0.4806
 30
0.0
 11
-318.063274
 21
-0.4806
 31
0.0
  0
LINE
  5
54C
  8
SIZE
  6
CONTINUOUS
 62
    30
 10
-58.017631
 20
-275.4806
 30
0.0
 11
-318.063274
 21
-275.4806
 31
0.0
  0
LINE
  5
54D
  8
SIZE
  6
CONTINUOUS
 62
    30
 10
-288.063274
 20
-2.4806
 30
0.0
 11
-288.063274
 21
-273.4806
 31
0.0
  0
TEXT
  5
54E
  8
SIZE
  6
CONTINUOUS
 62
    30
 10
-310.695914
 20
-222.042666
 30
0.0
 40
64.0
  1
275
 50
90.0
 41
0.9
 72
     1
 11
-310.695914
 21
-141.085866
 31
0.0
  0
CIRCLE
  5
54F
  8
SIZE
  6
CONTINUOUS
 62
    30
 10
-288.063274
 20
-0.4806
 30
0.0
 40
6.0
  0
CIRCLE
  5
550
  8
SIZE
  6
CONTINUOUS
 62
    30
 10
-288.063274
 20
-275.4806
 30
0.0
 40
6.0
  0
POINT
  5
551
  8
DEFPOINTS
  6
CONTINUOUS
 62
    30
 10
-141.017631
 20
-0.4806
 30
0.0
  0
POINT
  5
552
  8
DEFPOINTS
  6
CONTINUOUS
 62
    30
 10
-38.017631
 20
-275.4806
 30
0.0
  0
POINT
  5
553
  8
DEFPOINTS
  6
CONTINUOUS
 62
    30
 10
-288.063274
 20
-275.4806
 30
0.0
  0
LINE
  5
554
  8
SIZE
  6
CONTINUOUS
 62
    30
 10
697.6072399999999
 20
-15.9806
 30
0.0
 11
697.6072399999999
 21
-211.434646
 31
0.0
  0
LINE
  5
555
  8
SIZE
  6
CONTINUOUS
 62
    30
 10
-1.017631
 20
-303.376747
 30
0.0
 11
-1.017631
 21
-507.907795
 31
0.0
  0
LINE
  5
556
  8
SIZE
  6
CONTINUOUS
 62
    30
 10
19.982369
 20
-312.85997
 30
0.0
 11
19.982369
 21
-507.907795
 31
0.0
  0
LINE
  5
557
  8
SIZE
  6
CONTINUOUS
 62
    30
 10
0.982369
 20
-477.907795
 30
0.0
 11
17.982369
 21
-477.907795
 31
0.0
  0
TEXT
  5
558
  8
SIZE
  6
CONTINUOUS
 62
    30
 10
27.233161
 20
-469.417651
 30
0.0
 40
64.0
  1
21
 41
0.9
 72
     1
 11
75.789961
 21
-469.417651
 31
0.0
  0
CIRCLE
  5
559
  8
SIZE
  6
CONTINUOUS
 62
    30
 10
-1.017631
 20
-477.907795
 30
0.0
 40
6.0
  0
CIRCLE
  5
55A
  8
SIZE
  6
CONTINUOUS
 62
    30
 10
19.982369
 20
-477.907795
 30
0.0
 40
6.0
  0
POINT
  5
55B
  8
DEFPOINTS
  6
CONTINUOUS
 62
    30
 10
-1.017631
 20
-283.376747
 30
0.0
  0
POINT
  5
55C
  8
DEFPOINTS
  6
CONTINUOUS
 62
    30
 10
19.982369
 20
-292.85997
 30
0.0
  0
POINT
  5
55D
  8
DEFPOINTS
  6
CONTINUOUS
 62
    30
 10
19.982369
 20
-477.907795
 30
0.0
  0
LINE
  5
55E
  8
SIZE
  6
CONTINUOUS
 62
    30
 10
-225.704554
 20
-572.660845
 30
0.0
 11
-92.68650699999999
 21
-572.660845
 31
0.0
  0
LINE
  5
55F
  8
NOTE
  6
CONTINUOUS
 62
     4
 10
143.982369
 20
-17.9806
 30
0.0
 11
183.982369
 21
-17.9806
 31
0.0
  0
LINE
  5
560
  8
NOTE
  6
CONTINUOUS
 62
     4
 10
163.982369
 20
-37.9806
 30
0.0
 11
163.982369
 21
2.0194
 31
0.0
  0
LINE
  5
561
  8
NOTE
  6
CONTINUOUS
 62
     4
 10
-186.017631
 20
-17.9806
 30
0.0
 11
-146.017631
 21
-17.9806
 31
0.0
  0
LINE
  5
562
  8
NOTE
  6
CONTINUOUS
 62
     4
 10
-166.017631
 20
-37.9806
 30
0.0
 11
-166.017631
 21
2.0194
 31
0.0
  0
TEXT
  5
563
  8
ETC
  6
CONTINUOUS
 62
    61
 10
577.197874
 20
444.237916
 30
0.0
 40
40.0
  1
換気扇
 41
0.9
  0
CIRCLE
  5
564
  8
ARRANGE
  6
CONTINUOUS
 62
     1
 10
0.0
 20
0.0
 30
0.0
 40
40.0
  0
POINT
  5
565
  8
ARRANGE
  6
CONTINUOUS
 62
     1
 10
-1.017631
 20
-0.4806
 30
0.0
  0
CIRCLE
  5
566
  8
FIX
  6
CONTINUOUS
 62
    11
 10
-166.017631
 20
-17.9806
 30
0.0
 40
6.0
  0
CIRCLE
  5
567
  8
FIX
  6
CONTINUOUS
 62
    11
 10
163.982369
 20
-17.9806
 30
0.0
 40
6.0
  0
LINE
  5
568
  8
SIZE
  6
CONTINUOUS
 62
    30
 10
-75.806585
 20
-159.63037
 30
0.0
 11
73.77132300000001
 21
-115.33083
 31
0.0
  0
TEXT
  5
569
  8
SIZE
  6
CONTINUOUS
 62
    30
 10
473.3818513230314
 20
75.22133570740644
 30
0.0
 40
64.0
  1
φ160
 50
16.497348
 41
0.9
 72
     1
 11
569.203774
 21
103.600258
 31
0.0
  0
CIRCLE
  5
56A
  8
SIZE
  6
CONTINUOUS
 62
    30
 10
-77.724251
 20
-160.198313
 30
0.0
 40
6.0
  0
CIRCLE
  5
56B
  8
SIZE
  6
CONTINUOUS
 62
    30
 10
75.688989
 20
-114.762887
 30
0.0
 40
6.0
  0
POINT
  5
56C
  8
DEFPOINTS
  6
CONTINUOUS
 62
    30
 10
75.688989
 20
-114.762887
 30
0.0
  0
POINT
  5
56D
  8
DEFPOINTS
  6
CONTINUOUS
 62
    30
 10
-77.724251
 20
-160.198313
 30
0.0
  0
LINE
  5
56E
  8
SIZE
  6
CONTINUOUS
 62
    30
 10
73.77132300000001
 20
-115.33083
 30
0.0
 11
674.394024
 21
110.651304
 31
0.0
  0
LINE
  5
56F
  8
SIZE
  6
CONTINUOUS
 62
    30
 10
-70.01156399999999
 20
-136.565633
 30
0.0
 11
67.976302
 21
-138.395567
 31
0.0
  0
TEXT
  5
570
  8
SIZE
  6
CONTINUOUS
 62
    30
 10
379.6396931327595
 20
-130.0794411667779
 30
0.0
 40
64.00000000000001
  1
φ142
 50
359.2402359999996
 41
0.9
 72
     1
 11
479.566907
 21
-131.404592
 31
0.0
  0
CIRCLE
  5
571
  8
SIZE
  6
CONTINUOUS
 62
    30
 10
-72.011388
 20
-136.539112
 30
0.0
 40
6.0
  0
CIRCLE
  5
572
  8
SIZE
  6
CONTINUOUS
 62
    30
 10
69.97612600000001
 20
-138.422088
 30
0.0
 40
6.0
  0
POINT
  5
573
  8
DEFPOINTS
  6
CONTINUOUS
 62
    30
 10
69.97612600000001
 20
-138.422088
 30
0.0
  0
POINT
  5
574
  8
DEFPOINTS
  6
CONTINUOUS
 62
    30
 10
-72.011388
 20
-136.539112
 30
0.0
  0
LINE
  5
575
  8
SIZE
  6
CONTINUOUS
 62
    30
 10
67.976302
 20
-138.395567
 30
0.0
 11
581.1332259999999
 21
-151.922085
 31
0.0
  0
TEXT
  5
576
  8
NOTE
  6
CONTINUOUS
 62
     4
 10
-41.773218
 20
-160.944885
 30
0.0
 40
64.0
  1
RA
 41
0.9
  0
LINE
  5
577
  8
DETAIL
  6
CONTINUOUS
 62
     5
 10
-136.017631
 20
-5.4806
 30
0.0
 11
-136.017631
 21
-232.4806
 31
0.0
  0
LINE
  5
578
  8
DETAIL
  6
CONTINUOUS
 62
     5
 10
-141.017631
 20
-5.4806
 30
0.0
 11
138.982369
 21
-5.4806
 31
0.0
  0
LINE
  5
579
  8
DETAIL
  6
CONTINUOUS
 62
     5
 10
133.982369
 20
-5.4806
 30
0.0
 11
133.982369
 21
-232.4806
 31
0.0
  0
LINE
  5
57A
  8
DETAIL
  6
CONTINUOUS
 62
     5
 10
138.982369
 20
-227.4806
 30
0.0
 11
133.982369
 21
-227.4806
 31
0.0
  0
ARC
  5
57B
  8
DETAIL
  6
CONTINUOUS
 62
     5
 10
128.982369
 20
-232.4806
 30
0.0
 40
5.0
 50
270.0
 51
0.0
  0
ARC
  5
57C
  8
DETAIL
  6
CONTINUOUS
 62
     5
 10
-131.017631
 20
-232.4806
 30
0.0
 40
5.0
 50
180.0
 51
270.0
  0
LINE
  5
57D
  8
DETAIL
  6
CONTINUOUS
 62
     5
 10
-141.017631
 20
-227.4806
 30
0.0
 11
-136.017631
 21
-227.4806
 31
0.0
  0
LINE
  5
57E
  8
OUTLINE
  6
CONTINUOUS
 62
     3
 10
138.982369
 20
-0.4806
 30
0.0
 11
-141.017631
 21
-0.4806
 31
0.0
  0
LINE
  5
57F
  8
OUTLINE
  6
CONTINUOUS
 62
     3
 10
-141.017631
 20
-227.4806
 30
0.0
 11
-141.017631
 21
-0.4806
 31
0.0
  0
LINE
  5
580
  8
OUTLINE
  6
CONTINUOUS
 62
     3
 10
-15.195078
 20
-237.4806
 30
0.0
 11
-131.017631
 21
-237.4806
 31
0.0
  0
LINE
  5
581
  8
OUTLINE
  6
CONTINUOUS
 62
     3
 10
-141.017631
 20
-227.4806
 30
0.0
 11
-136.017631
 21
-227.4806
 31
0.0
  0
ARC
  5
582
  8
OUTLINE
  6
CONTINUOUS
 62
     3
 10
-131.017631
 20
-232.4806
 30
0.0
 40
5.0
 50
180.0
 51
270.0
  0
LINE
  5
583
  8
OUTLINE
  6
CONTINUOUS
 62
     3
 10
138.982369
 20
-227.4806
 30
0.0
 11
138.982369
 21
-0.4806
 31
0.0
  0
LINE
  5
584
  8
OUTLINE
  6
CONTINUOUS
 62
     3
 10
128.982369
 20
-237.4806
 30
0.0
 11
-15.195078
 21
-237.4806
 31
0.0
  0
ARC
  5
585
  8
OUTLINE
  6
CONTINUOUS
 62
     3
 10
128.982369
 20
-232.4806
 30
0.0
 40
5.0
 50
270.0
 51
0.0
  0
LINE
  5
586
  8
OUTLINE
  6
CONTINUOUS
 62
     3
 10
138.982369
 20
-227.4806
 30
0.0
 11
133.982369
 21
-227.4806
 31
0.0
  0
LINE
  5
587
  8
OUTLINE
  6
CONTINUOUS
 62
     3
 10
-136.017631
 20
-227.4806
 30
0.0
 11
-136.017631
 21
-232.4806
 31
0.0
  0
LINE
  5
588
  8
OUTLINE
  6
CONTINUOUS
 62
     3
 10
133.982369
 20
-227.4806
 30
0.0
 11
133.982369
 21
-232.4806
 31
0.0
  0
ARC
  5
589
  8
DETAIL
  6
CONTINUOUS
 62
     5
 10
55.982369
 20
-272.4806
 30
0.0
 40
5.0
 50
270.0
 51
0.0
  0
LINE
  5
58A
  8
DETAIL
  6
CONTINUOUS
 62
     5
 10
-20.686507
 20
-237.4806
 30
0.0
 11
-20.686507
 21
-275.4806
 31
0.0
  0
LINE
  5
58B
  8
DETAIL
  6
CONTINUOUS
 62
     5
 10
-5.686507
 20
-242.77672
 30
0.0
 11
60.982369
 21
-242.77672
 31
0.0
  0
LINE
  5
58C
  8
SIZE
  6
CONTINUOUS
 62
    30
 10
-20.686507
 20
-295.4806
 30
0.0
 11
-20.686507
 21
-602.660845
 31
0.0
  0
LINE
  5
58D
  8
SIZE
  6
CONTINUOUS
 62
    30
 10
-94.68650699999999
 20
-295.4806
 30
0.0
 11
-94.68650699999999
 21
-602.660845
 31
0.0
  0
LINE
  5
58E
  8
SIZE
  6
CONTINUOUS
 62
    30
 10
-22.686507
 20
-572.660845
 30
0.0
 11
-92.68650699999999
 21
-572.660845
 31
0.0
  0
TEXT
  5
58F
  8
SIZE
  6
CONTINUOUS
 62
    30
 10
-210.173576
 20
-563.1561389999999
 30
0.0
 40
64.0
  1
74
 41
0.9
 72
     1
 11
-156.202376
 21
-563.1561389999999
 31
0.0
  0
CIRCLE
  5
590
  8
SIZE
  6
CONTINUOUS
 62
    30
 10
-20.686507
 20
-572.660845
 30
0.0
 40
6.0
  0
CIRCLE
  5
591
  8
SIZE
  6
CONTINUOUS
 62
    30
 10
-94.68650699999999
 20
-572.660845
 30
0.0
 40
6.0
  0
POINT
  5
592
  8
DEFPOINTS
  6
CONTINUOUS
 62
    30
 10
-20.686507
 20
-275.4806
 30
0.0
  0
POINT
  5
593
  8
DEFPOINTS
  6
CONTINUOUS
 62
    30
 10
-94.68650699999999
 20
-275.4806
 30
0.0
  0
POINT
  5
594
  8
DEFPOINTS
  6
CONTINUOUS
 62
    30
 10
-94.68650699999999
 20
-572.660845
 30
0.0
  0
LINE
  5
595
  8
SIZE
  6
CONTINUOUS
 62
    30
 10
-20.686507
 20
-295.4806
 30
0.0
 11
-20.686507
 21
-473.294335
 31
0.0
  0
LINE
  5
596
  8
SIZE
  6
CONTINUOUS
 62
    30
 10
-5.686507
 20
-295.4806
 30
0.0
 11
-5.686507
 21
-473.294335
 31
0.0
  0
LINE
  5
597
  8
SIZE
  6
CONTINUOUS
 62
    30
 10
-18.686507
 20
-443.294335
 30
0.0
 11
-7.686507
 21
-443.294335
 31
0.0
  0
TEXT
  5
598
  8
SIZE
  6
CONTINUOUS
 62
    30
 10
-187.573407
 20
-436.468782
 30
0.0
 40
64.0
  1
15
 41
0.9
 72
     1
 11
-139.016607
 21
-436.468782
 31
0.0
  0
CIRCLE
  5
599
  8
SIZE
  6
CONTINUOUS
 62
    30
 10
-20.686507
 20
-443.294335
 30
0.0
 40
6.0
  0
CIRCLE
  5
59A
  8
SIZE
  6
CONTINUOUS
 62
    30
 10
-5.686507
 20
-443.294335
 30
0.0
 40
6.0
  0
POINT
  5
59B
  8
DEFPOINTS
  6
CONTINUOUS
 62
    30
 10
-20.686507
 20
-275.4806
 30
0.0
  0
POINT
  5
59C
  8
DEFPOINTS
  6
CONTINUOUS
 62
    30
 10
-5.686507
 20
-275.4806
 30
0.0
  0
POINT
  5
59D
  8
DEFPOINTS
  6
CONTINUOUS
 62
    30
 10
-5.686507
 20
-443.294335
 30
0.0
  0
LINE
  5
59E
  8
SIZE
  6
CONTINUOUS
 62
    30
 10
-180.573308
 20
-443.294335
 30
0.0
 11
-18.686507
 21
-443.294335
 31
0.0
  0
LINE
  5
59F
  8
SIZE
  6
CONTINUOUS
 62
    30
 10
19.982369
 20
-477.907795
 30
0.0
 11
118.368891
 21
-477.907795
 31
0.0
  0
LINE
  5
5A0
  8
SIZE
  6
CONTINUOUS
 62
    30
 10
158.982369
 20
-0.4806
 30
0.0
 11
360.215864
 21
-0.4806
 31
0.0
  0
LINE
  5
5A1
  8
SIZE
  6
CONTINUOUS
 62
    30
 10
158.982369
 20
-137.4806
 30
0.0
 11
360.215864
 21
-137.4806
 31
0.0
  0
LINE
  5
5A2
  8
SIZE
  6
CONTINUOUS
 62
    30
 10
330.215864
 20
-2.4806
 30
0.0
 11
330.215864
 21
-135.4806
 31
0.0
  0
TEXT
  5
5A3
  8
SIZE
  6
CONTINUOUS
 62
    30
 10
310.379221
 20
23.83639500000001
 30
0.0
 40
64.0
  1
137
 50
90.0
 41
0.9
 72
     1
 11
310.379221
 21
99.37879500000001
 31
0.0
  0
CIRCLE
  5
5A4
  8
SIZE
  6
CONTINUOUS
 62
    30
 10
330.215864
 20
-0.4806
 30
0.0
 40
6.0
  0
CIRCLE
  5
5A5
  8
SIZE
  6
CONTINUOUS
 62
    30
 10
330.215864
 20
-137.4806
 30
0.0
 40
6.0
  0
POINT
  5
5A6
  8
DEFPOINTS
  6
CONTINUOUS
 62
    30
 10
138.982369
 20
-0.4806
 30
0.0
  0
POINT
  5
5A7
  8
DEFPOINTS
  6
CONTINUOUS
 62
    30
 10
138.982369
 20
-137.4806
 30
0.0
  0
POINT
  5
5A8
  8
DEFPOINTS
  6
CONTINUOUS
 62
    30
 10
330.215864
 20
-137.4806
 30
0.0
  0
LINE
  5
5A9
  8
SIZE
  6
CONTINUOUS
 62
    30
 10
330.215864
 20
-2.4806
 30
0.0
 11
330.215864
 21
177.117947
 31
0.0
  0
LINE
  5
5AA
  8
SIZE
  6
CONTINUOUS
 62
    30
 10
158.982369
 20
-137.4806
 30
0.0
 11
360.215864
 21
-137.4806
 31
0.0
  0
LINE
  5
5AB
  8
SIZE
  6
CONTINUOUS
 62
    30
 10
75.982369
 20
-277.4806
 30
0.0
 11
360.215864
 21
-277.4806
 31
0.0
  0
LINE
  5
5AC
  8
SIZE
  6
CONTINUOUS
 62
    30
 10
330.215864
 20
-139.4806
 30
0.0
 11
330.215864
 21
-275.4806
 31
0.0
  0
TEXT
  5
5AD
  8
SIZE
  6
CONTINUOUS
 62
    30
 10
312.201871
 20
-448.608521
 30
0.0
 40
64.0
  1
140
 50
90.0
 41
0.9
 72
     1
 11
312.201871
 21
-373.066121
 31
0.0
  0
CIRCLE
  5
5AE
  8
SIZE
  6
CONTINUOUS
 62
    30
 10
330.215864
 20
-137.4806
 30
0.0
 40
6.0
  0
CIRCLE
  5
5AF
  8
SIZE
  6
CONTINUOUS
 62
    30
 10
330.215864
 20
-277.4806
 30
0.0
 40
6.0
  0
POINT
  5
5B0
  8
DEFPOINTS
  6
CONTINUOUS
 62
    30
 10
138.982369
 20
-137.4806
 30
0.0
  0
POINT
  5
5B1
  8
DEFPOINTS
  6
CONTINUOUS
 62
    30
 10
55.982369
 20
-277.4806
 30
0.0
  0
POINT
  5
5B2
  8
DEFPOINTS
  6
CONTINUOUS
 62
    30
 10
330.215864
 20
-277.4806
 30
0.0
  0
LINE
  5
5B3
  8
SIZE
  6
CONTINUOUS
 62
    30
 10
330.215864
 20
-275.4806
 30
0.0
 11
330.215864
 21
-453.146212
 31
0.0
  0
ENDSEC
  0
EOF
