  0
SECTION
  2
HEADER
  9
$ACADVER
  1
AC1009
  9
$INSBASE
 10
0.0
 20
0.0
 30
0.0
  9
$EXTMIN
 10
-621.29664000000014
 20
-570.24000238365056
 30
0.0
  9
$EXTMAX
 10
1034.7280000000001
 20
765.51736900000014
 30
50.0
  9
$LIMMIN
 10
-2970.0
 20
-2100.0
  9
$LIMMAX
 10
2970.0
 20
2100.0
  9
$ORTHOMODE
 70
     1
  9
$REGENMODE
 70
     0
  9
$FILLMODE
 70
     1
  9
$QTEXTMODE
 70
     0
  9
$MIRRTEXT
 70
     0
  9
$DRAGMODE
 70
     2
  9
$LTSCALE
 40
20.0
  9
$OSMODE
 70
  2223
  9
$ATTMODE
 70
     1
  9
$TEXTSIZE
 40
64.0
  9
$TRACEWID
 40
0.05
  9
$TEXTSTYLE
  7
STANDARD
  9
$CLAYER
  8
SIZE
  9
$CELTYPE
  6
CONTINUOUS
  9
$CECOLOR
 62
    30
  9
$DIMSCALE
 40
1.0
  9
$DIMASZ
 40
12.0
  9
$DIMEXO
 40
20.0
  9
$DIMDLI
 40
200.0
  9
$DIMRND
 40
0.0
  9
$DIMDLE
 40
0.0
  9
$DIMEXE
 40
20.0
  9
$DIMTP
 40
0.0
  9
$DIMTM
 40
0.0
  9
$DIMTXT
 40
64.0
  9
$DIMCEN
 40
0.09
  9
$DIMTSZ
 40
0.0
  9
$DIMTOL
 70
     0
  9
$DIMLIM
 70
     0
  9
$DIMTIH
 70
     0
  9
$DIMTOH
 70
     0
  9
$DIMSE1
 70
     0
  9
$DIMSE2
 70
     0
  9
$DIMTAD
 70
     1
  9
$DIMZIN
 70
     8
  9
$DIMBLK
  1
NONE
  9
$DIMASO
 70
     1
  9
$DIMSHO
 70
     0
  9
$DIMPOST
  1

  9
$DIMAPOST
  1

  9
$DIMALT
 70
     0
  9
$DIMALTD
 70
     2
  9
$DIMALTF
 40
25.399999999999999
  9
$DIMLFAC
 40
1.0
  9
$DIMTOFL
 70
     1
  9
$DIMTVP
 40
0.0
  9
$DIMTIX
 70
     1
  9
$DIMSOXD
 70
     0
  9
$DIMSAH
 70
     0
  9
$DIMBLK1
  1
NONE
  9
$DIMBLK2
  1
ORIGIN
  9
$DIMSTYLE
  2
STANDARD
  9
$DIMCLRD
 70
     0
  9
$DIMCLRE
 70
     0
  9
$DIMCLRT
 70
     0
  9
$DIMTFAC
 40
1.0
  9
$DIMGAP
 40
20.0
  9
$LUNITS
 70
     2
  9
$LUPREC
 70
     4
  9
$SKETCHINC
 40
0.1
  9
$FILLETRAD
 40
6.0
  9
$AUNITS
 70
     1
  9
$AUPREC
 70
     3
  9
$MENU
  1
ACAD
  9
$ELEVATION
 40
0.0
  9
$PELEVATION
 40
0.0
  9
$THICKNESS
 40
50.0
  9
$LIMCHECK
 70
     0
  9
$BLIPMODE
 70
     0
  9
$CHAMFERA
 40
0.0
  9
$CHAMFERB
 40
0.0
  9
$SKPOLY
 70
     0
  9
$TDCREATE
 40
2452321.3961996529
  9
$TDUPDATE
 40
2453775.8915275922
  9
$TDINDWG
 40
0.3586892014
  9
$TDUSRTIMER
 40
0.358688831
  9
$USRTIMER
 70
     1
  9
$ANGBASE
 50
0.0
  9
$ANGDIR
 70
     0
  9
$PDMODE
 70
     3
  9
$PDSIZE
 40
-2.0
  9
$PLINEWID
 40
0.0
  9
$COORDS
 70
     2
  9
$SPLFRAME
 70
     0
  9
$SPLINETYPE
 70
     6
  9
$SPLINESEGS
 70
     8
  9
$ATTDIA
 70
     0
  9
$ATTREQ
 70
     1
  9
$HANDLING
 70
 22529
  9
$HANDSEED
  5
3DD
  9
$SURFTAB1
 70
     6
  9
$SURFTAB2
 70
     6
  9
$SURFTYPE
 70
     6
  9
$SURFU
 70
     6
  9
$SURFV
 70
     6
  9
$UCSNAME
  2

  9
$UCSORG
 10
0.0
 20
0.0
 30
0.0
  9
$UCSXDIR
 10
1.0
 20
0.0
 30
0.0
  9
$UCSYDIR
 10
0.0
 20
1.0
 30
0.0
  9
$PUCSNAME
  2

  9
$PUCSORG
 10
0.0
 20
0.0
 30
0.0
  9
$PUCSXDIR
 10
1.0
 20
0.0
 30
0.0
  9
$PUCSYDIR
 10
0.0
 20
1.0
 30
0.0
  9
$USERI1
 70
     0
  9
$USERI2
 70
     0
  9
$USERI3
 70
     0
  9
$USERI4
 70
     0
  9
$USERI5
 70
     0
  9
$USERR1
 40
20.0
  9
$USERR2
 40
0.0
  9
$USERR3
 40
0.0
  9
$USERR4
 40
0.0
  9
$USERR5
 40
0.0
  9
$WORLDVIEW
 70
     1
  9
$SHADEDGE
 70
     3
  9
$SHADEDIF
 70
    70
  9
$TILEMODE
 70
     1
  9
$MAXACTVP
 70
    64
  9
$PLIMCHECK
 70
     0
  9
$PEXTMIN
 10
1.0000000000000000E+020
 20
1.0000000000000000E+020
 30
1.0000000000000000E+020
  9
$PEXTMAX
 10
-1.0000000000000000E+020
 20
-1.0000000000000000E+020
 30
-1.0000000000000000E+020
  9
$PLIMMIN
 10
0.0
 20
0.0
  9
$PLIMMAX
 10
12.0
 20
9.0
  9
$UNITMODE
 70
     0
  9
$VISRETAIN
 70
     1
  9
$PLINEGEN
 70
     0
  9
$PSLTSCALE
 70
     1
  0
ENDSEC
  0
SECTION
  2
TABLES
  0
TABLE
  2
VPORT
 70
     3
  0
VPORT
  2
*ACTIVE
 70
     0
 10
0.0
 20
0.0
 11
1.0
 21
1.0
 12
56.43314114665781
 22
76.78356437934417
 13
0.0
 23
0.0
 14
1.0
 24
1.0
 15
0.0
 25
0.0
 16
0.0
 26
0.0
 36
1.0
 17
0.0
 27
0.0
 37
0.0
 40
2226.213527764236
 41
1.447268106734434
 42
50.0
 43
0.0
 44
0.0
 50
0.0
 51
0.0
 71
     0
 72
   100
 73
     1
 74
     0
 75
     0
 76
     0
 77
     0
 78
     0
  0
ENDTAB
  0
TABLE
  2
LTYPE
 70
     2
  0
LTYPE
  2
CONTINUOUS
 70
     0
  3
実線
 72
    65
 73
     0
 40
0.0
  0
LTYPE
  2
DASHDOT
 70
     0
  3
____ _ ____ _ ____ _ ____ _ ____ _ ____ _ ____
 72
    65
 73
     4
 40
5.5
 49
4.0
 49
-0.6
 49
0.3
 49
-0.6
  0
ENDTAB
  0
TABLE
  2
LAYER
 70
    12
  0
LAYER
  2
0
 70
     0
 62
     7
  6
CONTINUOUS
  0
LAYER
  2
SIZE
 70
     0
 62
    30
  6
CONTINUOUS
  0
LAYER
  2
BASIS
 70
     0
 62
     6
  6
DASHDOT
  0
LAYER
  2
OUTLINE
 70
     0
 62
     3
  6
CONTINUOUS
  0
LAYER
  2
DETAIL
 70
     0
 62
     5
  6
CONTINUOUS
  0
LAYER
  2
ARRANGE
 70
     0
 62
     1
  6
CONTINUOUS
  0
LAYER
  2
DEFPOINTS
 70
     0
 62
     7
  6
CONTINUOUS
  0
LAYER
  2
ETC
 70
     0
 62
    61
  6
CONTINUOUS
  0
LAYER
  2
FIX
 70
     0
 62
    11
  6
CONTINUOUS
  0
LAYER
  2
NOTE
 70
     0
 62
     4
  6
CONTINUOUS
  0
LAYER
  2
SERVICESPACE
 70
     0
 62
     2
  6
DASHDOT
  0
LAYER
  2
SYMBOLLINE
 70
     0
 62
    15
  6
CONTINUOUS
  0
ENDTAB
  0
TABLE
  2
STYLE
 70
     1
  0
STYLE
  2
STANDARD
 70
     0
 40
64.0
 41
0.9
 50
0.0
 71
     0
 42
64.0
  3
SIMPLEX.shx
  4
BIGFONT.shx
  0
ENDTAB
  0
TABLE
  2
VIEW
 70
     1
  0
VIEW
  2
ALL
 70
     0
 40
4282.6198079999976
 10
0.0
 20
41.309903999999989
 41
5940.0
 11
0.0
 21
0.0
 31
1.0
 12
0.0
 22
0.0
 32
0.0
 42
50.0
 43
0.0
 44
0.0
 50
0.0
 71
     0
  0
ENDTAB
  0
TABLE
  2
UCS
 70
     0
  0
ENDTAB
  0
TABLE
  2
APPID
 70
     1
  0
APPID
  2
ACAD
 70
     0
  0
ENDTAB
  0
TABLE
  2
DIMSTYLE
 70
     1
  0
DIMSTYLE
  2
STANDARD
 70
     0
  3

  4

  5

  6

  7

 40
1.0
 41
0.18
 42
0.0625
 43
0.38
 44
0.18
 45
0.0
 46
0.0
 47
0.0
 48
0.0
140
0.18
141
0.09
142
0.0
143
25.399999999999999
144
1.0
145
0.0
146
1.0
147
0.09
 71
     0
 72
     0
 73
     1
 74
     1
 75
     0
 76
     0
 77
     0
 78
     0
170
     0
171
     2
172
     0
173
     0
174
     0
175
     0
176
     0
177
     0
178
     0
  0
ENDTAB
  0
ENDSEC
  0
SECTION
  2
BLOCKS
  0
BLOCK
  8
0
  2
$MODEL_SPACE
 70
     0
 10
0.0
 20
0.0
 30
0.0
  3
$MODEL_SPACE
  1

  0
ENDBLK
  5
226
  8
0
  0
BLOCK
 67
     1
  8
0
  2
$PAPER_SPACE
 70
     0
 10
0.0
 20
0.0
 30
0.0
  3
$PAPER_SPACE
  1

  0
ENDBLK
  5
222
 67
     1
  8
0
  0
BLOCK
  8
0
  2
DOT1
 70
     0
 10
0.0
 20
0.0
 30
0.0
  3
DOT1
  1

  0
CIRCLE
  5
241
  8
SIZE
  6
CONTINUOUS
 62
     7
 10
0.0
 20
0.0
 30
0.0
 40
3.0
  0
ENDBLK
  5
242
  8
0
  0
BLOCK
  8
0
  2
_ORIGIN
 70
     0
 10
0.0
 20
0.0
 30
0.0
  3
_ORIGIN
  1

  0
CIRCLE
  5
245
  8
0
  6
CONTINUOUS
 62
     7
 10
0.0
 20
0.0
 30
0.0
 40
0.5
  0
LINE
  5
246
  8
0
  6
CONTINUOUS
 62
     7
 10
0.0
 20
0.0
 30
0.0
 11
-1.0
 21
0.0
 31
0.0
  0
ENDBLK
  5
247
  8
0
  0
BLOCK
  8
0
 62
    30
  2
_NONE
 70
     0
 10
0.0
 20
0.0
 30
0.0
  3
_NONE
  1

  0
ENDBLK
  5
24A
  8
0
 62
    30
  0
BLOCK
  8
0
 62
    30
  2
_OPEN30
 70
     0
 10
0.0
 20
0.0
 30
0.0
  3
_OPEN30
  1

  0
LINE
  5
24D
  8
0
  6
BYBLOCK
 62
     0
 10
-1.0
 20
0.26794919
 30
0.0
 11
0.0
 21
0.0
 31
0.0
  0
LINE
  5
24E
  8
0
  6
BYBLOCK
 62
     0
 10
0.0
 20
0.0
 30
0.0
 11
-1.0
 21
-0.26794919
 31
0.0
  0
LINE
  5
24F
  8
0
  6
BYBLOCK
 62
     0
 10
0.0
 20
0.0
 30
0.0
 11
-1.0
 21
0.0
 31
0.0
  0
ENDBLK
  5
250
  8
0
 62
    30
  0
BLOCK
  8
0
 62
    30
  2
*D6
 70
     1
 10
0.0
 20
0.0
 30
0.0
  3
*D6
  1

  0
LINE
  5
253
  8
SIZE
  6
CONTINUOUS
 62
     0
 10
15.0
 20
-295.0
 30
0.0
 11
14.99999999999998
 21
-570.24000238365056
 31
0.0
  0
LINE
  5
254
  8
SIZE
  6
CONTINUOUS
 62
     0
 10
-0.0000000000000012
 20
-339.49295999999993
 30
0.0
 11
-0.0000000000000154
 21
-570.24000238365056
 31
0.0
  0
LINE
  5
255
  8
SIZE
  6
CONTINUOUS
 62
     0
 10
14.99999999999998
 20
-550.24000238365045
 30
0.0
 11
26.999999999999972
 21
-550.24000238365045
 31
0.0
  0
LINE
  5
256
  8
SIZE
  6
CONTINUOUS
 62
     0
 10
-0.0000000000000141
 20
-550.24000238365045
 30
0.0
 11
-146.28571428571411
 21
-550.24000238365045
 31
0.0
  0
LINE
  5
257
  8
SIZE
  6
CONTINUOUS
 62
     0
 10
14.99999999999998
 20
-550.24000238365045
 30
0.0
 11
-0.0000000000000141
 21
-550.24000238365045
 31
0.0
  0
TEXT
  5
258
  8
SIZE
  6
CONTINUOUS
 62
     0
 10
-126.28571428571421
 20
-530.24000238365079
 30
0.0
 40
64.0
  1
15
 41
0.9
  0
POINT
  5
259
  8
DEFPOINTS
  6
CONTINUOUS
 62
     0
 10
15.0
 20
-275.0
 30
0.0
  0
POINT
  5
25A
  8
DEFPOINTS
  6
CONTINUOUS
 62
     0
 10
0.0
 20
-319.49295999999998
 30
0.0
  0
POINT
  5
25B
  8
DEFPOINTS
  6
CONTINUOUS
 62
     0
 10
-0.0000000000000141
 20
-550.24000238365045
 30
0.0
  0
ENDBLK
  5
25C
  8
0
 62
    30
  0
BLOCK
  8
0
 62
    30
  2
*D7
 70
     1
 10
0.0
 20
0.0
 30
0.0
  3
*D7
  1

  0
LINE
  5
25F
  8
SIZE
  6
CONTINUOUS
 62
     0
 10
15.0
 20
-297.0
 30
0.0
 11
14.99999999999998
 21
-570.24000238365056
 31
0.0
  0
LINE
  5
260
  8
SIZE
  6
CONTINUOUS
 62
     0
 10
89.0
 20
-297.0
 30
0.0
 11
88.999999999999986
 21
-570.24000238365056
 31
0.0
  0
LINE
  5
261
  8
SIZE
  6
CONTINUOUS
 62
     0
 10
14.99999999999998
 20
-550.24000238365045
 30
0.0
 11
88.999999999999986
 21
-550.24000238365045
 31
0.0
  0
LINE
  5
262
  8
SIZE
  6
CONTINUOUS
 62
     0
 10
88.999999999999986
 20
-550.24000238365045
 30
0.0
 11
237.0
 21
-550.24000238365045
 31
0.0
  0
TEXT
  5
263
  8
SIZE
  6
CONTINUOUS
 62
     0
 10
121.0
 20
-530.24000238365079
 30
0.0
 40
64.0
  1
74
 41
0.9
  0
POINT
  5
264
  8
DEFPOINTS
  6
CONTINUOUS
 62
     0
 10
15.0
 20
-277.0
 30
0.0
  0
POINT
  5
265
  8
DEFPOINTS
  6
CONTINUOUS
 62
     0
 10
89.0
 20
-277.0
 30
0.0
  0
POINT
  5
266
  8
DEFPOINTS
  6
CONTINUOUS
 62
     0
 10
88.999999999999986
 20
-550.24000238365045
 30
0.0
  0
ENDBLK
  5
267
  8
0
 62
    30
  0
ENDSEC
  0
SECTION
  2
ENTITIES
  0
LINE
  5
268
  8
BASIS
  6
DASHDOT
 62
     6
 10
0.0
 20
-319.49295999999998
 30
0.0
 11
0.0
 21
46.945033000000002
 31
0.0
  0
LINE
  5
269
  8
DETAIL
  6
CONTINUOUS
 62
     5
 39
50.0
 10
140.0
 20
0.0
 30
0.0
 11
-140.0
 21
0.0
 31
0.0
  0
CIRCLE
  5
26A
  8
ARRANGE
  6
CONTINUOUS
 62
     1
 10
0.0
 20
0.0
 30
0.0
 40
40.0
  0
POINT
  5
26B
  8
ARRANGE
  6
CONTINUOUS
 62
     1
 10
0.0
 20
0.0
 30
0.0
  0
LINE
  5
26C
  8
BASIS
  6
DASHDOT
 62
     6
 10
-21.0
 20
-291.25204200000002
 30
0.0
 11
-21.0
 21
-228.97019700000001
 31
0.0
  0
LINE
  5
26D
  8
DETAIL
  6
CONTINUOUS
 62
     5
 39
50.0
 10
-140.0
 20
0.0
 30
0.0
 11
-140.0
 21
-223.0
 31
0.0
  0
LINE
  5
26E
  8
DETAIL
  6
CONTINUOUS
 62
     5
 39
50.0
 10
140.0
 20
0.0
 30
0.0
 11
140.0
 21
-223.0
 31
0.0
  0
LINE
  5
26F
  8
DETAIL
  6
CONTINUOUS
 62
     5
 39
50.0
 10
-70.0
 20
-237.0
 30
0.0
 11
-70.0
 21
-271.0
 31
0.0
  0
LINE
  5
270
  8
DETAIL
  6
CONTINUOUS
 62
     5
 10
123.0
 20
-237.0
 30
0.0
 11
52.621288
 21
-237.0
 31
0.0
  0
LINE
  5
271
  8
DETAIL
  6
CONTINUOUS
 62
     5
 39
50.0
 10
135.0
 20
-5.0
 30
0.0
 11
135.0
 21
-225.0
 31
0.0
  0
LINE
  5
272
  8
DETAIL
  6
CONTINUOUS
 62
     5
 39
50.0
 10
-135.0
 20
-5.0
 30
0.0
 11
-135.0
 21
-225.0
 31
0.0
  0
LINE
  5
273
  8
DETAIL
  6
CONTINUOUS
 62
     5
 39
50.0
 10
140.0
 20
-5.0
 30
0.0
 11
-140.0
 21
-5.0
 31
0.0
  0
ARC
  5
274
  8
DETAIL
  6
CONTINUOUS
 62
     5
 10
123.0
 20
-225.0
 30
0.0
 40
12.0
 50
270.0
 51
0.0
  0
ARC
  5
275
  8
DETAIL
  6
CONTINUOUS
 62
     5
 39
50.0
 10
-123.0
 20
-225.0
 30
0.0
 40
12.0
 50
180.0
 51
270.0
  0
LINE
  5
276
  8
DETAIL
  6
CONTINUOUS
 62
     5
 39
50.0
 10
140.0
 20
-223.0
 30
0.0
 11
135.0
 21
-223.0
 31
0.0
  0
LINE
  5
277
  8
DETAIL
  6
CONTINUOUS
 62
     5
 39
50.0
 10
-135.0
 20
-223.0
 30
0.0
 11
-140.0
 21
-223.0
 31
0.0
  0
LINE
  5
278
  8
BASIS
  6
DASHDOT
 62
     6
 10
124.043378
 20
-137.0
 30
0.0
 11
-122.775944
 21
-137.0
 31
0.0
  0
CIRCLE
  5
279
  8
DETAIL
  6
CONTINUOUS
 62
     5
 39
50.0
 10
0.0
 20
-137.0
 30
0.0
 40
71.0
  0
CIRCLE
  5
27A
  8
DETAIL
  6
CONTINUOUS
 62
     5
 39
50.0
 10
0.0
 20
-137.0
 30
0.0
 40
80.0
  0
ARC
  5
27B
  8
DETAIL
  6
CONTINUOUS
 62
     5
 39
50.0
 10
0.0
 20
-137.0
 30
0.0
 40
113.0
 50
107.107949
 51
252.8920509999999
  0
LINE
  5
27C
  8
DETAIL
  6
CONTINUOUS
 62
     5
 39
50.0
 10
33.241540000000001
 20
-245.0
 30
0.0
 11
-33.241540000000001
 21
-245.0
 31
0.0
  0
LINE
  5
27D
  8
DETAIL
  6
CONTINUOUS
 62
     5
 39
50.0
 10
33.241540000000001
 20
-29.0
 30
0.0
 11
-33.241540000000001
 21
-29.0
 31
0.0
  0
ARC
  5
27E
  8
DETAIL
  6
CONTINUOUS
 62
     5
 39
50.0
 10
0.0
 20
-137.0
 30
0.0
 40
113.0
 50
287.10794899999991
 51
72.892050999999995
  0
LINE
  5
27F
  8
DETAIL
  6
CONTINUOUS
 62
     5
 10
-52.621288
 20
-237.0
 30
0.0
 11
-123.0
 21
-237.0
 31
0.0
  0
LINE
  5
280
  8
DETAIL
  6
CONTINUOUS
 62
     5
 39
50.0
 10
22.0
 20
-277.0
 30
0.0
 11
-64.0
 21
-277.0
 31
0.0
  0
ARC
  5
281
  8
DETAIL
  6
CONTINUOUS
 62
     5
 39
50.0
 10
22.0
 20
-271.0
 30
0.0
 40
6.0
 50
270.0
 51
318.189685
  0
ARC
  5
282
  8
DETAIL
  6
CONTINUOUS
 62
     5
 39
50.0
 10
-64.0
 20
-271.0
 30
0.0
 40
6.0
 50
180.0
 51
270.0
  0
LINE
  5
283
  8
DETAIL
  6
CONTINUOUS
 62
     5
 39
50.0
 10
89.0
 20
-275.0
 30
0.0
 11
15.0
 21
-275.0
 31
0.0
  0
LINE
  5
284
  8
DETAIL
  6
CONTINUOUS
 62
     5
 10
154.0
 20
-30.0
 30
0.0
 11
154.0
 21
-23.0
 31
0.0
  0
LINE
  5
285
  8
DETAIL
  6
CONTINUOUS
 62
     5
 10
176.0
 20
-30.0
 30
0.0
 11
176.0
 21
-23.0
 31
0.0
  0
LINE
  5
286
  8
DETAIL
  6
CONTINUOUS
 62
     5
 10
174.0
 20
-17.5
 30
0.0
 11
174.0
 21
-14.5
 31
0.0
  0
LINE
  5
287
  8
DETAIL
  6
CONTINUOUS
 62
     5
 10
176.0
 20
-14.5
 30
0.0
 11
154.0
 21
-14.5
 31
0.0
  0
LINE
  5
288
  8
DETAIL
  6
CONTINUOUS
 62
     5
 10
176.0
 20
-14.5
 30
0.0
 11
176.0
 21
-9.5
 31
0.0
  0
LINE
  5
289
  8
DETAIL
  6
CONTINUOUS
 62
     5
 10
154.0
 20
-14.5
 30
0.0
 11
154.0
 21
-9.5
 31
0.0
  0
LINE
  5
28A
  8
DETAIL
  6
CONTINUOUS
 62
     5
 10
154.0
 20
-9.5
 30
0.0
 11
176.0
 21
-9.5
 31
0.0
  0
LINE
  5
28B
  8
DETAIL
  6
CONTINUOUS
 62
     5
 10
156.0
 20
-17.5
 30
0.0
 11
156.0
 21
-14.5
 31
0.0
  0
ARC
  5
28C
  8
DETAIL
  6
CONTINUOUS
 62
     5
 10
173.0
 20
-30.0
 30
0.0
 40
3.0
 50
270.0
 51
0.0
  0
LINE
  5
28D
  8
DETAIL
  6
CONTINUOUS
 62
     5
 10
173.0
 20
-33.0
 30
0.0
 11
157.0
 21
-33.0
 31
0.0
  0
ARC
  5
28E
  8
DETAIL
  6
CONTINUOUS
 62
     5
 10
157.0
 20
-30.0
 30
0.0
 40
3.0
 50
180.0
 51
270.0
  0
LINE
  5
28F
  8
DETAIL
  6
CONTINUOUS
 62
     5
 10
154.0
 20
-30.0
 30
0.0
 11
154.0
 21
-23.0
 31
0.0
  0
LINE
  5
290
  8
DETAIL
  6
CONTINUOUS
 62
     5
 10
176.0
 20
-30.0
 30
0.0
 11
176.0
 21
-23.0
 31
0.0
  0
LINE
  5
291
  8
DETAIL
  6
CONTINUOUS
 62
     5
 10
174.0
 20
-17.5
 30
0.0
 11
174.0
 21
-14.5
 31
0.0
  0
LINE
  5
292
  8
DETAIL
  6
CONTINUOUS
 62
     5
 10
176.0
 20
-14.5
 30
0.0
 11
154.0
 21
-14.5
 31
0.0
  0
LINE
  5
293
  8
DETAIL
  6
CONTINUOUS
 62
     5
 10
176.0
 20
-14.5
 30
0.0
 11
176.0
 21
-9.5
 31
0.0
  0
LINE
  5
294
  8
DETAIL
  6
CONTINUOUS
 62
     5
 10
154.0
 20
-14.5
 30
0.0
 11
154.0
 21
-9.5
 31
0.0
  0
LINE
  5
295
  8
DETAIL
  6
CONTINUOUS
 62
     5
 10
154.0
 20
-9.5
 30
0.0
 11
176.0
 21
-9.5
 31
0.0
  0
LINE
  5
296
  8
DETAIL
  6
CONTINUOUS
 62
     5
 10
156.0
 20
-17.5
 30
0.0
 11
156.0
 21
-14.5
 31
0.0
  0
ARC
  5
297
  8
DETAIL
  6
CONTINUOUS
 62
     5
 10
173.0
 20
-30.0
 30
0.0
 40
3.0
 50
270.0
 51
0.0
  0
LINE
  5
298
  8
DETAIL
  6
CONTINUOUS
 62
     5
 10
173.0
 20
-33.0
 30
0.0
 11
157.0
 21
-33.0
 31
0.0
  0
ARC
  5
299
  8
DETAIL
  6
CONTINUOUS
 62
     5
 10
157.0
 20
-30.0
 30
0.0
 40
3.0
 50
180.0
 51
270.0
  0
LINE
  5
29A
  8
DETAIL
  6
CONTINUOUS
 62
     5
 10
182.5
 20
-17.5
 30
0.0
 11
182.5
 21
-22.5
 31
0.0
  0
LINE
  5
29B
  8
DETAIL
  6
CONTINUOUS
 62
     5
 10
182.5
 20
-17.5
 30
0.0
 11
182.5
 21
-22.5
 31
0.0
  0
LINE
  5
29C
  8
DETAIL
  6
CONTINUOUS
 62
     5
 10
182.5
 20
-17.5
 30
0.0
 11
179.86821499999991
 21
-17.5
 31
0.0
  0
LINE
  5
29D
  8
DETAIL
  6
CONTINUOUS
 62
     5
 10
182.5
 20
-22.5
 30
0.0
 11
179.65107499999991
 21
-22.5
 31
0.0
  0
LINE
  5
29E
  8
DETAIL
  6
CONTINUOUS
 62
     5
 10
182.5
 20
-17.5
 30
0.0
 11
182.5
 21
-22.5
 31
0.0
  0
LINE
  5
29F
  8
DETAIL
  6
CONTINUOUS
 62
     5
 10
182.5
 20
-17.5
 30
0.0
 11
148.0
 21
-17.5
 31
0.0
  0
LINE
  5
2A0
  8
DETAIL
  6
CONTINUOUS
 62
     5
 10
182.5
 20
-22.5
 30
0.0
 11
148.0
 21
-22.5
 31
0.0
  0
LINE
  5
2A1
  8
DETAIL
  6
CONTINUOUS
 62
     5
 10
182.5
 20
-17.5
 30
0.0
 11
182.5
 21
-22.5
 31
0.0
  0
LINE
  5
2A2
  8
DETAIL
  6
CONTINUOUS
 62
     5
 10
140.0
 20
-25.5
 30
0.0
 11
140.0
 21
-57.5
 31
0.0
  0
LINE
  5
2A3
  8
DETAIL
  6
CONTINUOUS
 62
     5
 10
140.0
 20
-25.5
 30
0.0
 11
140.0
 21
-57.5
 31
0.0
  0
LINE
  5
2A4
  8
DETAIL
  6
CONTINUOUS
 62
     5
 10
145.0
 20
-57.5
 30
0.0
 11
140.0
 21
-57.5
 31
0.0
  0
LINE
  5
2A5
  8
DETAIL
  6
CONTINUOUS
 62
     5
 10
145.0
 20
-57.5
 30
0.0
 11
140.0
 21
-57.5
 31
0.0
  0
LINE
  5
2A6
  8
DETAIL
  6
CONTINUOUS
 62
     5
 10
145.0
 20
-57.5
 30
0.0
 11
140.0
 21
-57.5
 31
0.0
  0
LINE
  5
2A7
  8
DETAIL
  6
CONTINUOUS
 62
     5
 10
145.0
 20
-57.5
 30
0.0
 11
140.0
 21
-57.5
 31
0.0
  0
ARC
  5
2A8
  8
DETAIL
  6
CONTINUOUS
 62
     5
 10
148.0
 20
-25.5
 30
0.0
 40
3.0
 50
90.0
 51
180.0
  0
ARC
  5
2A9
  8
DETAIL
  6
CONTINUOUS
 62
     5
 10
148.0
 20
-25.5
 30
0.0
 40
8.0
 50
90.0
 51
180.0
  0
ARC
  5
2AA
  8
DETAIL
  6
CONTINUOUS
 62
     5
 10
148.0
 20
-25.5
 30
0.0
 40
3.0
 50
90.0
 51
180.0
  0
ARC
  5
2AB
  8
DETAIL
  6
CONTINUOUS
 62
     5
 10
148.0
 20
-25.5
 30
0.0
 40
8.0
 50
90.0
 51
180.0
  0
LINE
  5
2AC
  8
DETAIL
  6
CONTINUOUS
 62
     5
 10
145.0
 20
-25.5
 30
0.0
 11
145.0
 21
-57.5
 31
0.0
  0
CIRCLE
  5
2AD
  8
FIX
  6
CONTINUOUS
 62
    11
 39
50.0
 10
165.0
 20
-17.5
 30
0.0
 40
6.0
  0
LINE
  5
2AE
  8
NOTE
  6
CONTINUOUS
 62
     4
 10
185.0
 20
-17.5
 30
0.0
 11
145.0
 21
-17.5
 31
0.0
  0
LINE
  5
2AF
  8
NOTE
  6
CONTINUOUS
 62
     4
 10
165.0
 20
-37.5
 30
0.0
 11
165.0
 21
2.5
 31
0.0
  0
CIRCLE
  5
2B0
  8
FIX
  6
CONTINUOUS
 62
    11
 39
50.0
 10
-165.0
 20
-17.5
 30
0.0
 40
6.0
  0
LINE
  5
2B1
  8
NOTE
  6
CONTINUOUS
 62
     4
 10
-185.0
 20
-17.5
 30
0.0
 11
-145.0
 21
-17.5
 31
0.0
  0
LINE
  5
2B2
  8
NOTE
  6
CONTINUOUS
 62
     4
 10
-165.0
 20
-37.5
 30
0.0
 11
-165.0
 21
2.5
 31
0.0
  0
LINE
  5
2B3
  8
DETAIL
  6
CONTINUOUS
 62
     5
 10
-154.0
 20
-9.5
 30
0.0
 11
-176.0
 21
-9.5
 31
0.0
  0
LINE
  5
2B4
  8
DETAIL
  6
CONTINUOUS
 62
     5
 10
-154.0
 20
-9.5
 30
0.0
 11
-176.0
 21
-9.5
 31
0.0
  0
LINE
  5
2B5
  8
DETAIL
  6
CONTINUOUS
 62
     5
 10
-182.5
 20
-22.5
 30
0.0
 11
-148.0
 21
-22.5
 31
0.0
  0
LINE
  5
2B6
  8
DETAIL
  6
CONTINUOUS
 62
     5
 10
-182.5
 20
-17.5
 30
0.0
 11
-148.0
 21
-17.5
 31
0.0
  0
ARC
  5
2B7
  8
DETAIL
  6
CONTINUOUS
 62
     5
 10
-173.0
 20
-30.0
 30
0.0
 40
3.0
 50
180.0
 51
270.0
  0
LINE
  5
2B8
  8
DETAIL
  6
CONTINUOUS
 62
     5
 10
-176.0
 20
-14.5
 30
0.0
 11
-154.0
 21
-14.5
 31
0.0
  0
ARC
  5
2B9
  8
DETAIL
  6
CONTINUOUS
 62
     5
 10
-173.0
 20
-30.0
 30
0.0
 40
3.0
 50
180.0
 51
270.0
  0
LINE
  5
2BA
  8
DETAIL
  6
CONTINUOUS
 62
     5
 10
-176.0
 20
-14.5
 30
0.0
 11
-154.0
 21
-14.5
 31
0.0
  0
LINE
  5
2BB
  8
DETAIL
  6
CONTINUOUS
 62
     5
 10
-182.5
 20
-17.5
 30
0.0
 11
-182.5
 21
-22.5
 31
0.0
  0
LINE
  5
2BC
  8
DETAIL
  6
CONTINUOUS
 62
     5
 10
-182.5
 20
-17.5
 30
0.0
 11
-182.5
 21
-22.5
 31
0.0
  0
LINE
  5
2BD
  8
DETAIL
  6
CONTINUOUS
 62
     5
 10
-182.5
 20
-22.5
 30
0.0
 11
-179.65107499999991
 21
-22.5
 31
0.0
  0
LINE
  5
2BE
  8
DETAIL
  6
CONTINUOUS
 62
     5
 10
-182.5
 20
-17.5
 30
0.0
 11
-179.86821499999991
 21
-17.5
 31
0.0
  0
LINE
  5
2BF
  8
DETAIL
  6
CONTINUOUS
 62
     5
 10
-182.5
 20
-17.5
 30
0.0
 11
-182.5
 21
-22.5
 31
0.0
  0
LINE
  5
2C0
  8
DETAIL
  6
CONTINUOUS
 62
     5
 10
-182.5
 20
-17.5
 30
0.0
 11
-182.5
 21
-22.5
 31
0.0
  0
LINE
  5
2C1
  8
DETAIL
  6
CONTINUOUS
 62
     5
 10
-176.0
 20
-30.0
 30
0.0
 11
-176.0
 21
-23.0
 31
0.0
  0
LINE
  5
2C2
  8
DETAIL
  6
CONTINUOUS
 62
     5
 10
-176.0
 20
-30.0
 30
0.0
 11
-176.0
 21
-23.0
 31
0.0
  0
LINE
  5
2C3
  8
DETAIL
  6
CONTINUOUS
 62
     5
 10
-176.0
 20
-14.5
 30
0.0
 11
-176.0
 21
-9.5
 31
0.0
  0
LINE
  5
2C4
  8
DETAIL
  6
CONTINUOUS
 62
     5
 10
-176.0
 20
-14.5
 30
0.0
 11
-176.0
 21
-9.5
 31
0.0
  0
LINE
  5
2C5
  8
DETAIL
  6
CONTINUOUS
 62
     5
 10
-145.0
 20
-57.5
 30
0.0
 11
-140.0
 21
-57.5
 31
0.0
  0
LINE
  5
2C6
  8
DETAIL
  6
CONTINUOUS
 62
     5
 10
-145.0
 20
-25.5
 30
0.0
 11
-145.0
 21
-57.5
 31
0.0
  0
ARC
  5
2C7
  8
DETAIL
  6
CONTINUOUS
 62
     5
 10
-148.0
 20
-25.5
 30
0.0
 40
8.0
 50
0.0
 51
90.0
  0
ARC
  5
2C8
  8
DETAIL
  6
CONTINUOUS
 62
     5
 10
-148.0
 20
-25.5
 30
0.0
 40
3.0
 50
0.0
 51
90.0
  0
ARC
  5
2C9
  8
DETAIL
  6
CONTINUOUS
 62
     5
 10
-148.0
 20
-25.5
 30
0.0
 40
8.0
 50
0.0
 51
90.0
  0
ARC
  5
2CA
  8
DETAIL
  6
CONTINUOUS
 62
     5
 10
-148.0
 20
-25.5
 30
0.0
 40
3.0
 50
0.0
 51
90.0
  0
LINE
  5
2CB
  8
DETAIL
  6
CONTINUOUS
 62
     5
 10
-145.0
 20
-57.5
 30
0.0
 11
-140.0
 21
-57.5
 31
0.0
  0
LINE
  5
2CC
  8
DETAIL
  6
CONTINUOUS
 62
     5
 10
-145.0
 20
-57.5
 30
0.0
 11
-140.0
 21
-57.5
 31
0.0
  0
LINE
  5
2CD
  8
DETAIL
  6
CONTINUOUS
 62
     5
 10
-145.0
 20
-57.5
 30
0.0
 11
-140.0
 21
-57.5
 31
0.0
  0
LINE
  5
2CE
  8
DETAIL
  6
CONTINUOUS
 62
     5
 10
-140.0
 20
-25.5
 30
0.0
 11
-140.0
 21
-57.5
 31
0.0
  0
LINE
  5
2CF
  8
DETAIL
  6
CONTINUOUS
 62
     5
 10
-140.0
 20
-25.5
 30
0.0
 11
-140.0
 21
-57.5
 31
0.0
  0
ARC
  5
2D0
  8
DETAIL
  6
CONTINUOUS
 62
     5
 10
-157.0
 20
-30.0
 30
0.0
 40
3.0
 50
270.0
 51
0.0
  0
LINE
  5
2D1
  8
DETAIL
  6
CONTINUOUS
 62
     5
 10
-173.0
 20
-33.0
 30
0.0
 11
-157.0
 21
-33.0
 31
0.0
  0
LINE
  5
2D2
  8
DETAIL
  6
CONTINUOUS
 62
     5
 10
-156.0
 20
-17.5
 30
0.0
 11
-156.0
 21
-14.5
 31
0.0
  0
LINE
  5
2D3
  8
DETAIL
  6
CONTINUOUS
 62
     5
 10
-174.0
 20
-17.5
 30
0.0
 11
-174.0
 21
-14.5
 31
0.0
  0
LINE
  5
2D4
  8
DETAIL
  6
CONTINUOUS
 62
     5
 10
-154.0
 20
-30.0
 30
0.0
 11
-154.0
 21
-23.0
 31
0.0
  0
ARC
  5
2D5
  8
DETAIL
  6
CONTINUOUS
 62
     5
 10
-157.0
 20
-30.0
 30
0.0
 40
3.0
 50
270.0
 51
0.0
  0
LINE
  5
2D6
  8
DETAIL
  6
CONTINUOUS
 62
     5
 10
-173.0
 20
-33.0
 30
0.0
 11
-157.0
 21
-33.0
 31
0.0
  0
LINE
  5
2D7
  8
DETAIL
  6
CONTINUOUS
 62
     5
 10
-156.0
 20
-17.5
 30
0.0
 11
-156.0
 21
-14.5
 31
0.0
  0
LINE
  5
2D8
  8
DETAIL
  6
CONTINUOUS
 62
     5
 10
-174.0
 20
-17.5
 30
0.0
 11
-174.0
 21
-14.5
 31
0.0
  0
LINE
  5
2D9
  8
DETAIL
  6
CONTINUOUS
 62
     5
 10
-154.0
 20
-30.0
 30
0.0
 11
-154.0
 21
-23.0
 31
0.0
  0
LINE
  5
2DA
  8
DETAIL
  6
CONTINUOUS
 62
     5
 10
-154.0
 20
-14.5
 30
0.0
 11
-154.0
 21
-9.5
 31
0.0
  0
LINE
  5
2DB
  8
DETAIL
  6
CONTINUOUS
 62
     5
 10
-154.0
 20
-14.5
 30
0.0
 11
-154.0
 21
-9.5
 31
0.0
  0
LINE
  5
2DC
  8
SIZE
  6
CONTINUOUS
 62
    30
 10
-140.0
 20
20.0
 30
0.0
 11
-140.0
 21
477.44185599999992
 31
0.0
  0
LINE
  5
2DD
  8
SIZE
  6
CONTINUOUS
 62
    30
 10
140.0
 20
20.0
 30
0.0
 11
140.0
 21
477.44185599999992
 31
0.0
  0
LINE
  5
2DE
  8
SIZE
  6
CONTINUOUS
 62
    30
 10
-128.0
 20
457.4418559999998
 30
0.0
 11
128.0
 21
457.4418559999998
 31
0.0
  0
CIRCLE
  5
2DF
  8
SIZE
  6
CONTINUOUS
 62
    30
 10
-140.0
 20
457.4418559999998
 30
0.0
 40
6.0
  0
LINE
  5
2E0
  8
SIZE
  6
CONTINUOUS
 62
    30
 10
-140.0
 20
457.4418559999998
 30
0.0
 11
-128.0
 21
457.4418559999998
 31
0.0
  0
CIRCLE
  5
2E1
  8
SIZE
  6
CONTINUOUS
 62
    30
 10
140.0
 20
457.4418559999998
 30
0.0
 40
6.0
  0
LINE
  5
2E2
  8
SIZE
  6
CONTINUOUS
 62
    30
 10
140.0
 20
457.4418559999998
 30
0.0
 11
128.0
 21
457.4418559999998
 31
0.0
  0
TEXT
  5
2E3
  8
SIZE
  6
CONTINUOUS
 62
    30
 10
-74.057142857142836
 20
482.4418559999998
 30
0.0
 40
64.0
  1
280
 41
0.9
 72
     1
 11
0.0
 21
482.4418559999998
 31
0.0
  0
POINT
  5
2E4
  8
DEFPOINTS
  6
CONTINUOUS
 62
    30
 10
-140.0
 20
0.0
 30
0.0
  0
POINT
  5
2E5
  8
DEFPOINTS
  6
CONTINUOUS
 62
    30
 10
140.0
 20
0.0
 30
0.0
  0
POINT
  5
2E6
  8
DEFPOINTS
  6
CONTINUOUS
 62
    30
 10
140.0
 20
457.4418559999998
 30
0.0
  0
LINE
  5
2E7
  8
SIZE
  6
CONTINUOUS
 62
    30
 10
-165.0
 20
22.5
 30
0.0
 11
-165.0
 21
589.65126099999998
 31
0.0
  0
LINE
  5
2E8
  8
SIZE
  6
CONTINUOUS
 62
    30
 10
165.0
 20
22.5
 30
0.0
 11
165.0
 21
589.65126099999998
 31
0.0
  0
LINE
  5
2E9
  8
SIZE
  6
CONTINUOUS
 62
    30
 10
-153.0
 20
569.65126099999998
 30
0.0
 11
153.0
 21
569.65126099999998
 31
0.0
  0
CIRCLE
  5
2EA
  8
SIZE
  6
CONTINUOUS
 62
    30
 10
-165.0
 20
569.65126099999998
 30
0.0
 40
6.0
  0
LINE
  5
2EB
  8
SIZE
  6
CONTINUOUS
 62
    30
 10
-165.0
 20
569.65126099999998
 30
0.0
 11
-153.0
 21
569.65126099999998
 31
0.0
  0
CIRCLE
  5
2EC
  8
SIZE
  6
CONTINUOUS
 62
    30
 10
165.0
 20
569.65126099999998
 30
0.0
 40
6.0
  0
LINE
  5
2ED
  8
SIZE
  6
CONTINUOUS
 62
    30
 10
165.0
 20
569.65126099999998
 30
0.0
 11
153.0
 21
569.65126099999998
 31
0.0
  0
TEXT
  5
2EE
  8
SIZE
  6
CONTINUOUS
 62
    30
 10
-74.057142857142864
 20
594.65126099999998
 30
0.0
 40
64.0
  1
330
 41
0.9
 72
     1
 11
0.0
 21
594.65126099999998
 31
0.0
  0
POINT
  5
2EF
  8
DEFPOINTS
  6
CONTINUOUS
 62
    30
 10
-165.0
 20
2.5
 30
0.0
  0
POINT
  5
2F0
  8
DEFPOINTS
  6
CONTINUOUS
 62
    30
 10
165.0
 20
2.5
 30
0.0
  0
POINT
  5
2F1
  8
DEFPOINTS
  6
CONTINUOUS
 62
    30
 10
165.0
 20
569.65126099999998
 30
0.0
  0
LINE
  5
2F2
  8
SIZE
  6
CONTINUOUS
 62
    30
 10
-182.5
 20
2.5
 30
0.0
 11
-182.5
 21
696.51736900000003
 31
0.0
  0
LINE
  5
2F3
  8
SIZE
  6
CONTINUOUS
 62
    30
 10
182.5
 20
2.5
 30
0.0
 11
182.5
 21
696.51736900000003
 31
0.0
  0
LINE
  5
2F4
  8
SIZE
  6
CONTINUOUS
 62
    30
 10
-170.5
 20
676.51736900000003
 30
0.0
 11
170.5
 21
676.51736900000003
 31
0.0
  0
CIRCLE
  5
2F5
  8
SIZE
  6
CONTINUOUS
 62
    30
 10
-182.5
 20
676.51736900000003
 30
0.0
 40
6.0
  0
LINE
  5
2F6
  8
SIZE
  6
CONTINUOUS
 62
    30
 10
-182.5
 20
676.51736900000003
 30
0.0
 11
-170.5
 21
676.51736900000003
 31
0.0
  0
CIRCLE
  5
2F7
  8
SIZE
  6
CONTINUOUS
 62
    30
 10
182.5
 20
676.51736900000003
 30
0.0
 40
6.0
  0
LINE
  5
2F8
  8
SIZE
  6
CONTINUOUS
 62
    30
 10
182.5
 20
676.51736900000003
 30
0.0
 11
170.5
 21
676.51736900000003
 31
0.0
  0
TEXT
  5
2F9
  8
SIZE
  6
CONTINUOUS
 62
    30
 10
-74.05714285714285
 20
701.51736900000003
 30
0.0
 40
64.0
  1
365
 41
0.9
 72
     1
 11
0.0
 21
701.51736900000003
 31
0.0
  0
POINT
  5
2FA
  8
DEFPOINTS
  6
CONTINUOUS
 62
    30
 10
-182.5
 20
-17.5
 30
0.0
  0
POINT
  5
2FB
  8
DEFPOINTS
  6
CONTINUOUS
 62
    30
 10
182.5
 20
-17.5
 30
0.0
  0
POINT
  5
2FC
  8
DEFPOINTS
  6
CONTINUOUS
 62
    30
 10
182.5
 20
676.51736900000003
 30
0.0
  0
LINE
  5
2FD
  8
SIZE
  6
CONTINUOUS
 62
    30
 10
160.0
 20
0.0
 30
0.0
 11
326.24659300000002
 21
0.0
 31
0.0
  0
LINE
  5
2FE
  8
SIZE
  6
CONTINUOUS
 62
    30
 10
205.0
 20
-17.5
 30
0.0
 11
326.24659300000002
 21
-17.5
 31
0.0
  0
LINE
  5
2FF
  8
SIZE
  6
CONTINUOUS
 62
    30
 10
306.24659300000002
 20
12.0
 30
0.0
 11
306.24659300000002
 21
24.0
 31
0.0
  0
LINE
  5
300
  8
SIZE
  6
CONTINUOUS
 62
    30
 10
306.24659300000002
 20
-29.5
 30
0.0
 11
306.24659300000002
 21
-41.5
 31
0.0
  0
LINE
  5
301
  8
SIZE
  6
CONTINUOUS
 62
    30
 10
306.24659300000002
 20
243.733902
 30
0.0
 11
306.24659300000002
 21
0.0
 31
0.0
  0
TEXT
  5
302
  8
SIZE
  6
CONTINUOUS
 62
    30
 10
281.24659300000002
 20
54.162473714285611
 30
0.0
 40
64.0
  1
17.5
 50
90.0
 41
0.9
 72
     1
 11
281.24659300000002
 21
136.4481879999999
 31
0.0
  0
LINE
  5
303
  8
SIZE
  6
CONTINUOUS
 62
    30
 10
306.24659300000002
 20
0.0
 30
0.0
 11
306.24659300000002
 21
-17.5
 31
0.0
  0
LINE
  5
304
  8
SIZE
  6
CONTINUOUS
 62
    30
 10
306.24659300000002
 20
0.0
 30
0.0
 11
306.24659300000002
 21
-17.5
 31
0.0
  0
CIRCLE
  5
305
  8
SIZE
  6
CONTINUOUS
 62
    30
 10
306.24659300000002
 20
0.0
 30
0.0
 40
6.0
  0
LINE
  5
306
  8
SIZE
  6
CONTINUOUS
 62
    30
 10
306.24659300000002
 20
0.0
 30
0.0
 11
306.24659300000002
 21
12.0
 31
0.0
  0
CIRCLE
  5
307
  8
SIZE
  6
CONTINUOUS
 62
    30
 10
306.24659300000002
 20
-17.5
 30
0.0
 40
6.0
  0
LINE
  5
308
  8
SIZE
  6
CONTINUOUS
 62
    30
 10
306.24659300000002
 20
-17.5
 30
0.0
 11
306.24659300000002
 21
-29.5
 31
0.0
  0
POINT
  5
309
  8
DEFPOINTS
  6
CONTINUOUS
 62
    30
 10
140.0
 20
0.0
 30
0.0
  0
POINT
  5
30A
  8
DEFPOINTS
  6
CONTINUOUS
 62
    30
 10
185.0
 20
-17.5
 30
0.0
  0
POINT
  5
30B
  8
DEFPOINTS
  6
CONTINUOUS
 62
    30
 10
306.24659300000002
 20
-17.5
 30
0.0
  0
LINE
  5
30C
  8
SIZE
  6
CONTINUOUS
 62
    30
 10
-160.0
 20
0.0
 30
0.0
 11
-428.93309699999992
 21
0.0
 31
0.0
  0
LINE
  5
30D
  8
SIZE
  6
CONTINUOUS
 62
    30
 10
-143.0
 20
-237.0
 30
0.0
 11
-428.93309699999992
 21
-237.0
 31
0.0
  0
LINE
  5
30E
  8
SIZE
  6
CONTINUOUS
 62
    30
 10
-408.93309699999992
 20
-12.0
 30
0.0
 11
-408.93309699999992
 21
-225.0
 31
0.0
  0
CIRCLE
  5
30F
  8
SIZE
  6
CONTINUOUS
 62
    30
 10
-408.93309699999992
 20
0.0
 30
0.0
 40
6.0
  0
LINE
  5
310
  8
SIZE
  6
CONTINUOUS
 62
    30
 10
-408.93309699999992
 20
0.0
 30
0.0
 11
-408.93309699999992
 21
-12.0
 31
0.0
  0
CIRCLE
  5
311
  8
SIZE
  6
CONTINUOUS
 62
    30
 10
-408.93309699999992
 20
-237.0
 30
0.0
 40
6.0
  0
LINE
  5
312
  8
SIZE
  6
CONTINUOUS
 62
    30
 10
-408.93309699999992
 20
-237.0
 30
0.0
 11
-408.93309699999992
 21
-225.0
 31
0.0
  0
TEXT
  5
313
  8
SIZE
  6
CONTINUOUS
 62
    30
 10
-433.9330969999998
 20
-192.55714285714279
 30
0.0
 40
64.0
  1
237
 50
90.0
 41
0.9
 72
     1
 11
-433.9330969999998
 21
-118.5
 31
0.0
  0
POINT
  5
314
  8
DEFPOINTS
  6
CONTINUOUS
 62
    30
 10
-140.0
 20
0.0
 30
0.0
  0
POINT
  5
315
  8
DEFPOINTS
  6
CONTINUOUS
 62
    30
 10
-123.0
 20
-237.0
 30
0.0
  0
POINT
  5
316
  8
DEFPOINTS
  6
CONTINUOUS
 62
    30
 10
-408.93309699999992
 20
-237.0
 30
0.0
  0
LINE
  5
317
  8
SIZE
  6
CONTINUOUS
 62
    30
 10
-160.0
 20
0.0
 30
0.0
 11
-552.29664000000002
 21
0.0
 31
0.0
  0
LINE
  5
318
  8
SIZE
  6
CONTINUOUS
 62
    30
 10
-84.0
 20
-277.0
 30
0.0
 11
-552.29664000000002
 21
-277.0
 31
0.0
  0
LINE
  5
319
  8
SIZE
  6
CONTINUOUS
 62
    30
 10
-532.29664000000002
 20
-12.0
 30
0.0
 11
-532.29664000000002
 21
-265.0
 31
0.0
  0
CIRCLE
  5
31A
  8
SIZE
  6
CONTINUOUS
 62
    30
 10
-532.29664000000002
 20
0.0
 30
0.0
 40
6.0
  0
LINE
  5
31B
  8
SIZE
  6
CONTINUOUS
 62
    30
 10
-532.29664000000002
 20
0.0
 30
0.0
 11
-532.29664000000002
 21
-12.0
 31
0.0
  0
CIRCLE
  5
31C
  8
SIZE
  6
CONTINUOUS
 62
    30
 10
-532.29664000000002
 20
-277.0
 30
0.0
 40
6.0
  0
LINE
  5
31D
  8
SIZE
  6
CONTINUOUS
 62
    30
 10
-532.29664000000002
 20
-277.0
 30
0.0
 11
-532.29664000000002
 21
-265.0
 31
0.0
  0
TEXT
  5
31E
  8
SIZE
  6
CONTINUOUS
 62
    30
 10
-557.29664000000002
 20
-212.55714285714279
 30
0.0
 40
64.0
  1
277
 50
90.0
 41
0.9
 72
     1
 11
-557.29664000000002
 21
-138.5
 31
0.0
  0
POINT
  5
31F
  8
DEFPOINTS
  6
CONTINUOUS
 62
    30
 10
-140.0
 20
0.0
 30
0.0
  0
POINT
  5
320
  8
DEFPOINTS
  6
CONTINUOUS
 62
    30
 10
-532.29664000000002
 20
-277.0
 30
0.0
  0
LINE
  5
321
  8
SIZE
  6
CONTINUOUS
 62
    30
 10
160.0
 20
0.0
 30
0.0
 11
436.73248099999989
 21
0.0
 31
0.0
  0
LINE
  5
322
  8
SIZE
  6
CONTINUOUS
 62
    30
 10
110.4135456895564
 20
-275.0
 30
0.0
 11
436.73248099999989
 21
-275.0
 31
0.0
  0
LINE
  5
323
  8
SIZE
  6
CONTINUOUS
 62
    30
 10
416.73248100000001
 20
-12.0
 30
0.0
 11
416.73248100000001
 21
-263.0
 31
0.0
  0
CIRCLE
  5
324
  8
SIZE
  6
CONTINUOUS
 62
    30
 10
416.73248100000001
 20
0.0
 30
0.0
 40
6.0
  0
LINE
  5
325
  8
SIZE
  6
CONTINUOUS
 62
    30
 10
416.73248100000001
 20
0.0
 30
0.0
 11
416.73248100000001
 21
-12.0
 31
0.0
  0
CIRCLE
  5
326
  8
SIZE
  6
CONTINUOUS
 62
    30
 10
416.73248100000001
 20
-275.0
 30
0.0
 40
6.0
  0
LINE
  5
327
  8
SIZE
  6
CONTINUOUS
 62
    30
 10
416.73248100000001
 20
-275.0
 30
0.0
 11
416.73248100000001
 21
-263.0
 31
0.0
  0
TEXT
  5
328
  8
SIZE
  6
CONTINUOUS
 62
    30
 10
391.73248100000001
 20
-211.55714285714279
 30
0.0
 40
64.0
  1
275
 50
90.0
 41
0.9
 72
     1
 11
391.73248100000001
 21
-137.5
 31
0.0
  0
POINT
  5
329
  8
DEFPOINTS
  6
CONTINUOUS
 62
    30
 10
140.0
 20
0.0
 30
0.0
  0
POINT
  5
32A
  8
DEFPOINTS
  6
CONTINUOUS
 62
    30
 10
416.73248100000001
 20
-275.0
 30
0.0
  0
LINE
  5
32B
  8
SIZE
  6
CONTINUOUS
 62
    30
 10
-71.0
 20
-117.0
 30
0.0
 11
-71.0
 21
143.631426
 31
0.0
  0
LINE
  5
32C
  8
SIZE
  6
CONTINUOUS
 62
    30
 10
71.0
 20
-117.0
 30
0.0
 11
71.0
 21
143.631426
 31
0.0
  0
LINE
  5
32D
  8
SIZE
  6
CONTINUOUS
 62
    30
 10
-59.0
 20
123.631426
 30
0.0
 11
59.0
 21
123.631426
 31
0.0
  0
LINE
  5
32E
  8
SIZE
  6
CONTINUOUS
 62
    30
 10
-431.45087199999989
 20
123.631426
 30
0.0
 11
-71.0
 21
123.631426
 31
0.0
  0
TEXT
  5
32F
  8
SIZE
  6
CONTINUOUS
 62
    30
 10
-420.71372857142842
 20
148.631426
 30
0.0
 40
64.0
  1
φ142
 41
0.9
 72
     1
 11
-311.82229999999993
 21
148.631426
 31
0.0
  0
CIRCLE
  5
330
  8
SIZE
  6
CONTINUOUS
 62
    30
 10
-71.0
 20
123.631426
 30
0.0
 40
6.0
  0
LINE
  5
331
  8
SIZE
  6
CONTINUOUS
 62
    30
 10
-71.0
 20
123.631426
 30
0.0
 11
-59.0
 21
123.631426
 31
0.0
  0
CIRCLE
  5
332
  8
SIZE
  6
CONTINUOUS
 62
    30
 10
71.0
 20
123.631426
 30
0.0
 40
6.0
  0
LINE
  5
333
  8
SIZE
  6
CONTINUOUS
 62
    30
 10
71.0
 20
123.631426
 30
0.0
 11
59.0
 21
123.631426
 31
0.0
  0
POINT
  5
334
  8
DEFPOINTS
  6
CONTINUOUS
 62
    30
 10
-71.0
 20
-137.0
 30
0.0
  0
POINT
  5
335
  8
DEFPOINTS
  6
CONTINUOUS
 62
    30
 10
71.0
 20
-137.0
 30
0.0
  0
POINT
  5
336
  8
DEFPOINTS
  6
CONTINUOUS
 62
    30
 10
71.0
 20
123.631426
 30
0.0
  0
LINE
  5
337
  8
SIZE
  6
CONTINUOUS
 62
    30
 10
-80.0
 20
-117.0
 30
0.0
 11
-80.0
 21
241.56874999999999
 31
0.0
  0
LINE
  5
338
  8
SIZE
  6
CONTINUOUS
 62
    30
 10
80.0
 20
-117.0
 30
0.0
 11
80.0
 21
241.56874999999999
 31
0.0
  0
LINE
  5
33B
  8
SIZE
  6
CONTINUOUS
 62
    30
 10
-80.0
 20
221.56874999999999
 30
0.0
 11
80.0
 21
221.56874999999999
 31
0.0
  0
CIRCLE
  5
33C
  8
SIZE
  6
CONTINUOUS
 62
    30
 10
-80.0
 20
221.56874999999999
 30
0.0
 40
6.0
  0
CIRCLE
  5
33E
  8
SIZE
  6
CONTINUOUS
 62
    30
 10
80.0
 20
221.56874999999999
 30
0.0
 40
6.0
  0
TEXT
  5
340
  8
SIZE
  6
CONTINUOUS
 62
    30
 10
-108.89142857142851
 20
246.56874999999999
 30
0.0
 40
64.0
  1
φ160
 41
0.9
 72
     1
 11
0.0
 21
246.56874999999999
 31
0.0
  0
POINT
  5
341
  8
DEFPOINTS
  6
CONTINUOUS
 62
    30
 10
-80.0
 20
-137.0
 30
0.0
  0
POINT
  5
342
  8
DEFPOINTS
  6
CONTINUOUS
 62
    30
 10
80.0
 20
-137.0
 30
0.0
  0
POINT
  5
343
  8
DEFPOINTS
  6
CONTINUOUS
 62
    30
 10
80.0
 20
221.56874999999999
 30
0.0
  0
TEXT
  5
344
  8
NOTE
  6
CONTINUOUS
 62
     4
 10
432.01751599999989
 20
-383.16775699999999
 30
0.0
 40
64.0
  1
AH 4-φ12×19
 41
0.9
  0
LINE
  5
345
  8
NOTE
  6
CONTINUOUS
 62
     4
 10
1034.7280000000001
 20
-409.21572799999979
 30
0.0
 11
417.53439100000003
 21
-409.21572799999979
 31
0.0
  0
LINE
  5
346
  8
NOTE
  6
CONTINUOUS
 62
     4
 10
165.0
 20
-17.5
 30
0.0
 11
417.53439100000003
 21
-409.21572799999979
 31
0.0
  0
LINE
  5
347
  8
NOTE
  6
CONTINUOUS
 62
     4
 10
194.79665900000001
 20
-44.186309000000001
 30
0.0
 11
165.0
 21
-17.5
 31
0.0
  0
LINE
  5
348
  8
NOTE
  6
CONTINUOUS
 62
     4
 10
165.0
 20
-17.5
 30
0.0
 11
177.46150900000001
 21
-55.509352
 31
0.0
  0
LINE
  5
349
  8
OUTLINE
  6
CONTINUOUS
 62
     3
 39
50.0
 10
140.0
 20
0.0
 30
0.0
 11
-140.0
 21
0.0
 31
0.0
  0
LINE
  5
34A
  8
OUTLINE
  6
CONTINUOUS
 62
     3
 39
50.0
 10
140.0
 20
-223.0
 30
0.0
 11
135.0
 21
-223.0
 31
0.0
  0
LINE
  5
34B
  8
OUTLINE
  6
CONTINUOUS
 62
     3
 39
50.0
 10
140.0
 20
0.0
 30
0.0
 11
140.0
 21
-223.0
 31
0.0
  0
LINE
  5
34C
  8
OUTLINE
  6
CONTINUOUS
 62
     3
 39
50.0
 10
135.0
 20
-223.0
 30
0.0
 11
135.0
 21
-225.0
 31
0.0
  0
LINE
  5
34D
  8
OUTLINE
  6
CONTINUOUS
 62
     3
 10
123.0
 20
-237.0
 30
0.0
 11
-123.0
 21
-237.0
 31
0.0
  0
ARC
  5
34E
  8
OUTLINE
  6
CONTINUOUS
 62
     3
 10
123.0
 20
-225.0
 30
0.0
 40
12.0
 50
270.0
 51
0.0
  0
LINE
  5
34F
  8
OUTLINE
  6
CONTINUOUS
 62
     3
 39
50.0
 10
-140.0
 20
0.0
 30
0.0
 11
-140.0
 21
-223.0
 31
0.0
  0
LINE
  5
350
  8
OUTLINE
  6
CONTINUOUS
 62
     3
 39
50.0
 10
-135.0
 20
-223.0
 30
0.0
 11
-140.0
 21
-223.0
 31
0.0
  0
ARC
  5
351
  8
OUTLINE
  6
CONTINUOUS
 62
     3
 39
50.0
 10
-123.0
 20
-225.0
 30
0.0
 40
12.0
 50
180.0
 51
270.0
  0
LINE
  5
352
  8
OUTLINE
  6
CONTINUOUS
 62
     3
 39
50.0
 10
-135.0
 20
-223.0
 30
0.0
 11
-135.0
 21
-225.0
 31
0.0
  0
CIRCLE
  5
353
  8
DETAIL
  6
CONTINUOUS
 62
     5
 39
50.0
 10
0.0
 20
-137.0
 30
0.0
 40
101.0
  0
LINE
  5
354
  8
SIZE
  6
CONTINUOUS
 62
    30
 10
101.0
 20
-117.0
 30
0.0
 11
101.0
 21
361.41655700000001
 31
0.0
  0
LINE
  5
355
  8
SIZE
  6
CONTINUOUS
 62
    30
 10
-101.0
 20
-117.0
 30
0.0
 11
-101.0
 21
361.41655700000001
 31
0.0
  0
LINE
  5
358
  8
SIZE
  6
CONTINUOUS
 62
    30
 10
101.0
 20
341.41655700000001
 30
0.0
 11
-101.0
 21
341.41655700000001
 31
0.0
  0
CIRCLE
  5
359
  8
SIZE
  6
CONTINUOUS
 62
    30
 10
101.0
 20
341.41655700000001
 30
0.0
 40
6.0
  0
CIRCLE
  5
35B
  8
SIZE
  6
CONTINUOUS
 62
    30
 10
-101.0
 20
341.41655700000001
 30
0.0
 40
6.0
  0
TEXT
  5
35D
  8
SIZE
  6
CONTINUOUS
 62
    30
 10
-114.3771428571428
 20
366.41655700000001
 30
0.0
 40
64.0
  1
φ202
 41
0.9
 72
     1
 11
0.0
 21
366.41655700000001
 31
0.0
  0
POINT
  5
35E
  8
DEFPOINTS
  6
CONTINUOUS
 62
    30
 10
101.0
 20
-137.0
 30
0.0
  0
POINT
  5
35F
  8
DEFPOINTS
  6
CONTINUOUS
 62
    30
 10
-101.0
 20
-137.0
 30
0.0
  0
POINT
  5
360
  8
DEFPOINTS
  6
CONTINUOUS
 62
    30
 10
-101.0
 20
341.41655700000001
 30
0.0
  0
LINE
  5
361
  8
SIZE
  6
CONTINUOUS
 62
    30
 10
-160.0
 20
0.0
 30
0.0
 11
-306.45421199999998
 21
0.0
 31
0.0
  0
LINE
  5
362
  8
SIZE
  6
CONTINUOUS
 62
    30
 10
-142.77594399999981
 20
-137.0
 30
0.0
 11
-306.45421199999998
 21
-137.0
 31
0.0
  0
LINE
  5
364
  8
SIZE
  6
CONTINUOUS
 62
    30
 10
-286.45421199999993
 20
-149.0
 30
0.0
 11
-286.45421199999993
 21
-161.0
 31
0.0
  0
LINE
  5
365
  8
SIZE
  6
CONTINUOUS
 62
    30
 10
-286.45421199999993
 20
0.0
 30
0.0
 11
-286.45421199999993
 21
-137.0
 31
0.0
  0
CIRCLE
  5
366
  8
SIZE
  6
CONTINUOUS
 62
    30
 10
-286.45421199999993
 20
0.0
 30
0.0
 40
6.0
  0
CIRCLE
  5
368
  8
SIZE
  6
CONTINUOUS
 62
    30
 10
-286.45421199999993
 20
-137.0
 30
0.0
 40
6.0
  0
LINE
  5
369
  8
SIZE
  6
CONTINUOUS
 62
    30
 10
-286.45421199999993
 20
-137.0
 30
0.0
 11
-286.45421199999993
 21
-149.0
 31
0.0
  0
TEXT
  5
36A
  8
SIZE
  6
CONTINUOUS
 62
    30
 10
-311.45421199999993
 20
-137.0714285714285
 30
0.0
 40
64.0
  1
137
 50
90.0
 41
0.9
 72
     1
 11
-311.45421199999993
 21
-68.5
 31
0.0
  0
POINT
  5
36B
  8
DEFPOINTS
  6
CONTINUOUS
 62
    30
 10
-140.0
 20
0.0
 30
0.0
  0
POINT
  5
36C
  8
DEFPOINTS
  6
CONTINUOUS
 62
    30
 10
-122.775944
 20
-137.0
 30
0.0
  0
POINT
  5
36D
  8
DEFPOINTS
  6
CONTINUOUS
 62
    30
 10
-286.45421199999993
 20
-137.0
 30
0.0
  0
LINE
  5
36E
  8
SIZE
  6
CONTINUOUS
 62
    30
 10
-142.77594399999981
 20
-137.0
 30
0.0
 11
-306.45421199999998
 21
-137.0
 31
0.0
  0
LINE
  5
36F
  8
SIZE
  6
CONTINUOUS
 62
    30
 10
-84.0
 20
-277.0
 30
0.0
 11
-306.45421199999998
 21
-277.0
 31
0.0
  0
LINE
  5
370
  8
SIZE
  6
CONTINUOUS
 62
    30
 10
-286.45421199999993
 20
-149.0
 30
0.0
 11
-286.45421199999993
 21
-265.0
 31
0.0
  0
LINE
  5
371
  8
SIZE
  6
CONTINUOUS
 62
    30
 10
-286.45421199999993
 20
-483.93972199999979
 30
0.0
 11
-286.45421199999993
 21
-277.0
 31
0.0
  0
TEXT
  5
372
  8
SIZE
  6
CONTINUOUS
 62
    30
 10
-311.45421199999993
 20
-458.93972157142849
 30
0.0
 40
64.0
  1
140
 50
90.0
 41
0.9
 72
     1
 11
-311.45421199999993
 21
-390.36829299999999
 31
0.0
  0
CIRCLE
  5
373
  8
SIZE
  6
CONTINUOUS
 62
    30
 10
-286.45421199999993
 20
-137.0
 30
0.0
 40
6.0
  0
LINE
  5
374
  8
SIZE
  6
CONTINUOUS
 62
    30
 10
-286.45421199999993
 20
-137.0
 30
0.0
 11
-286.45421199999993
 21
-149.0
 31
0.0
  0
CIRCLE
  5
375
  8
SIZE
  6
CONTINUOUS
 62
    30
 10
-286.45421199999993
 20
-277.0
 30
0.0
 40
6.0
  0
LINE
  5
376
  8
SIZE
  6
CONTINUOUS
 62
    30
 10
-286.45421199999993
 20
-277.0
 30
0.0
 11
-286.45421199999993
 21
-265.0
 31
0.0
  0
POINT
  5
377
  8
DEFPOINTS
  6
CONTINUOUS
 62
    30
 10
-122.775944
 20
-137.0
 30
0.0
  0
POINT
  5
378
  8
DEFPOINTS
  6
CONTINUOUS
 62
    30
 10
-286.45421199999993
 20
-277.0
 30
0.0
  0
LINE
  5
379
  8
SIZE
  6
CONTINUOUS
 62
    30
 10
0.0
 20
-339.49295999999993
 30
0.0
 11
0.0
 21
-458.78335199999998
 31
0.0
  0
LINE
  5
37A
  8
SIZE
  6
CONTINUOUS
 62
    30
 10
-21.0
 20
-311.25204200000002
 30
0.0
 11
-21.0
 21
-458.78335199999998
 31
0.0
  0
LINE
  5
37B
  8
SIZE
  6
CONTINUOUS
 62
    30
 10
12.0
 20
-438.78335199999998
 30
0.0
 11
24.0
 21
-438.78335199999998
 31
0.0
  0
LINE
  5
37C
  8
SIZE
  6
CONTINUOUS
 62
    30
 10
-33.0
 20
-438.78335199999998
 30
0.0
 11
-45.0
 21
-438.78335199999998
 31
0.0
  0
LINE
  5
37D
  8
SIZE
  6
CONTINUOUS
 62
    30
 10
-177.8563509999999
 20
-438.78335199999998
 30
0.0
 11
-21.0
 21
-438.78335199999998
 31
0.0
  0
TEXT
  5
37E
  8
SIZE
  6
CONTINUOUS
 62
    30
 10
-152.8563502857142
 20
-413.78335199999998
 30
0.0
 40
64.0
  1
21
 41
0.9
 72
     1
 11
-118.57063599999989
 21
-413.78335199999998
 31
0.0
  0
LINE
  5
37F
  8
SIZE
  6
CONTINUOUS
 62
    30
 10
0.0
 20
-438.78335199999998
 30
0.0
 11
-21.0
 21
-438.78335199999998
 31
0.0
  0
LINE
  5
380
  8
SIZE
  6
CONTINUOUS
 62
    30
 10
0.0
 20
-438.78335199999998
 30
0.0
 11
-21.0
 21
-438.78335199999998
 31
0.0
  0
CIRCLE
  5
381
  8
SIZE
  6
CONTINUOUS
 62
    30
 10
0.0
 20
-438.78335199999998
 30
0.0
 40
6.0
  0
LINE
  5
382
  8
SIZE
  6
CONTINUOUS
 62
    30
 10
0.0
 20
-438.78335199999998
 30
0.0
 11
12.0
 21
-438.78335199999998
 31
0.0
  0
CIRCLE
  5
383
  8
SIZE
  6
CONTINUOUS
 62
    30
 10
-21.0
 20
-438.78335199999998
 30
0.0
 40
6.0
  0
LINE
  5
384
  8
SIZE
  6
CONTINUOUS
 62
    30
 10
-21.0
 20
-438.78335199999998
 30
0.0
 11
-33.0
 21
-438.78335199999998
 31
0.0
  0
POINT
  5
385
  8
DEFPOINTS
  6
CONTINUOUS
 62
    30
 10
0.0
 20
-319.49295999999998
 30
0.0
  0
POINT
  5
386
  8
DEFPOINTS
  6
CONTINUOUS
 62
    30
 10
-21.0
 20
-291.25204200000002
 30
0.0
  0
POINT
  5
387
  8
DEFPOINTS
  6
CONTINUOUS
 62
    30
 10
-21.0
 20
-438.78335199999998
 30
0.0
  0
TEXT
  5
388
  8
ETC
  6
CONTINUOUS
 62
    61
 10
520.98293655793975
 20
501.47768525756919
 30
0.0
 40
50.0
  1
V-20ZMSQ2
 41
0.9
  0
TEXT
  5
389
  8
ETC
  6
CONTINUOUS
 62
    61
 10
379.0180879616392
 20
696.14572894006358
 30
0.0
 40
64.0
  1
V-20ZMSQ2_3
 41
0.9
  0
TEXT
  5
38A
  8
ETC
  6
CONTINUOUS
 62
    61
 10
372.86319296163907
 20
592.78050294006357
 30
0.0
 40
64.0
  1
換気扇
 41
0.9
  0
LINE
  5
38B
  8
DETAIL
  6
CONTINUOUS
 62
     5
 39
50.0
 10
89.0
 20
-275.0
 30
0.0
 11
89.0
 21
-237.0
 31
0.0
  0
LINE
  5
38C
  8
DETAIL
  6
CONTINUOUS
 62
     5
 39
50.0
 10
15.0
 20
-277.0
 30
0.0
 11
15.0
 21
-244.9999999999998
 31
0.0
  0
LINE
  5
38D
  8
SIZE
  6
CONTINUOUS
 62
    30
 10
15.0
 20
-295.0
 30
0.0
 11
14.99999999999998
 21
-570.24000238365056
 31
0.0
  0
LINE
  5
38E
  8
SIZE
  6
CONTINUOUS
 62
    30
 10
-0.0000000000000012
 20
-339.49295999999993
 30
0.0
 11
-0.0000000000000154
 21
-570.24000238365056
 31
0.0
  0
LINE
  5
38F
  8
SIZE
  6
CONTINUOUS
 62
    30
 10
14.99999999999998
 20
-550.24000238365045
 30
0.0
 11
26.999999999999972
 21
-550.24000238365045
 31
0.0
  0
LINE
  5
390
  8
SIZE
  6
CONTINUOUS
 62
    30
 10
-0.0000000000000141
 20
-550.24000238365045
 30
0.0
 11
-146.28571428571411
 21
-550.24000238365045
 31
0.0
  0
LINE
  5
391
  8
SIZE
  6
CONTINUOUS
 62
    30
 10
14.99999999999998
 20
-550.24000238365045
 30
0.0
 11
-0.0000000000000141
 21
-550.24000238365045
 31
0.0
  0
LINE
  5
392
  8
SIZE
  6
CONTINUOUS
 62
    30
 10
15.0
 20
-297.0
 30
0.0
 11
14.99999999999998
 21
-570.24000238365056
 31
0.0
  0
LINE
  5
393
  8
SIZE
  6
CONTINUOUS
 62
    30
 10
89.0
 20
-297.0
 30
0.0
 11
88.999999999999986
 21
-570.24000238365056
 31
0.0
  0
LINE
  5
394
  8
SIZE
  6
CONTINUOUS
 62
    30
 10
14.99999999999998
 20
-550.24000238365045
 30
0.0
 11
88.999999999999986
 21
-550.24000238365045
 31
0.0
  0
LINE
  5
395
  8
SIZE
  6
CONTINUOUS
 62
    30
 10
88.999999999999986
 20
-550.24000238365045
 30
0.0
 11
237.0
 21
-550.24000238365045
 31
0.0
  0
TEXT
  5
396
  8
SIZE
  6
CONTINUOUS
 62
    30
 10
-126.28571428571421
 20
-530.24000238365079
 30
0.0
 40
64.0
  1
15
 41
0.9
  0
TEXT
  5
397
  8
SIZE
  6
CONTINUOUS
 62
    30
 10
121.0
 20
-530.24000238365079
 30
0.0
 40
64.0
  1
74
 41
0.9
  0
CIRCLE
  5
398
  8
SIZE
  6
CONTINUOUS
 62
    30
 39
50.0
 10
-0.0000000000000141
 20
-550.24000238365045
 30
0.0
 40
6.0
  0
CIRCLE
  5
399
  8
SIZE
  6
CONTINUOUS
 62
    30
 39
50.0
 10
14.99999999999998
 20
-550.24000238365045
 30
0.0
 40
6.0
  0
CIRCLE
  5
39A
  8
SIZE
  6
CONTINUOUS
 62
    30
 39
50.0
 10
88.999999999999986
 20
-550.24000238365045
 30
0.0
 40
6.0
  0
ENDSEC
  0
EOF
