  0
SECTION
  2
HEADER
  9
$ACADVER
  1
AC1009
  9
$INSBASE
 10
0.0
 20
0.0
 30
0.0
  9
$EXTMIN
 10
-1429.5519999999999
 20
-838.682323
 30
0.0
  9
$EXTMAX
 10
1162.0864294545549
 20
653.23941783451278
 30
50.0
  9
$LIMMIN
 10
-2970.0
 20
-2100.0
  9
$LIMMAX
 10
2970.0
 20
2100.0
  9
$ORTHOMODE
 70
     0
  9
$REGENMODE
 70
     0
  9
$FILLMODE
 70
     1
  9
$QTEXTMODE
 70
     0
  9
$MIRRTEXT
 70
     0
  9
$DRAGMODE
 70
     2
  9
$LTSCALE
 40
20.0
  9
$OSMODE
 70
  2223
  9
$ATTMODE
 70
     1
  9
$TEXTSIZE
 40
64.0
  9
$TRACEWID
 40
0.05
  9
$TEXTSTYLE
  7
STANDARD
  9
$CLAYER
  8
SIZE
  9
$CELTYPE
  6
CONTINUOUS
  9
$CECOLOR
 62
    30
  9
$DIMSCALE
 40
1.0
  9
$DIMASZ
 40
12.0
  9
$DIMEXO
 40
20.0
  9
$DIMDLI
 40
200.0
  9
$DIMRND
 40
0.0
  9
$DIMDLE
 40
0.0
  9
$DIMEXE
 40
20.0
  9
$DIMTP
 40
0.0
  9
$DIMTM
 40
0.0
  9
$DIMTXT
 40
64.0
  9
$DIMCEN
 40
0.09
  9
$DIMTSZ
 40
0.0
  9
$DIMTOL
 70
     0
  9
$DIMLIM
 70
     0
  9
$DIMTIH
 70
     0
  9
$DIMTOH
 70
     0
  9
$DIMSE1
 70
     0
  9
$DIMSE2
 70
     0
  9
$DIMTAD
 70
     1
  9
$DIMZIN
 70
     8
  9
$DIMBLK
  1
DOT1
  9
$DIMASO
 70
     1
  9
$DIMSHO
 70
     0
  9
$DIMPOST
  1

  9
$DIMAPOST
  1

  9
$DIMALT
 70
     0
  9
$DIMALTD
 70
     2
  9
$DIMALTF
 40
25.399999999999999
  9
$DIMLFAC
 40
1.0
  9
$DIMTOFL
 70
     1
  9
$DIMTVP
 40
0.0
  9
$DIMTIX
 70
     1
  9
$DIMSOXD
 70
     0
  9
$DIMSAH
 70
     1
  9
$DIMBLK1
  1
ORIGIN
  9
$DIMBLK2
  1
ORIGIN
  9
$DIMSTYLE
  2
STANDARD
  9
$DIMCLRD
 70
     0
  9
$DIMCLRE
 70
     0
  9
$DIMCLRT
 70
     0
  9
$DIMTFAC
 40
1.0
  9
$DIMGAP
 40
0.09
  9
$LUNITS
 70
     2
  9
$LUPREC
 70
     4
  9
$SKETCHINC
 40
0.1
  9
$FILLETRAD
 40
8.0
  9
$AUNITS
 70
     1
  9
$AUPREC
 70
     3
  9
$MENU
  1
ACAD
  9
$ELEVATION
 40
0.0
  9
$PELEVATION
 40
0.0
  9
$THICKNESS
 40
50.0
  9
$LIMCHECK
 70
     0
  9
$BLIPMODE
 70
     0
  9
$CHAMFERA
 40
0.0
  9
$CHAMFERB
 40
0.0
  9
$SKPOLY
 70
     0
  9
$TDCREATE
 40
2452321.3961996529
  9
$TDUPDATE
 40
2453775.904871956
  9
$TDINDWG
 40
0.3690925231
  9
$TDUSRTIMER
 40
0.3690925231
  9
$USRTIMER
 70
     1
  9
$ANGBASE
 50
0.0
  9
$ANGDIR
 70
     0
  9
$PDMODE
 70
     3
  9
$PDSIZE
 40
-2.0
  9
$PLINEWID
 40
0.0
  9
$COORDS
 70
     2
  9
$SPLFRAME
 70
     0
  9
$SPLINETYPE
 70
     6
  9
$SPLINESEGS
 70
     8
  9
$ATTDIA
 70
     0
  9
$ATTREQ
 70
     1
  9
$HANDLING
 70
 22529
  9
$HANDSEED
  5
5AB
  9
$SURFTAB1
 70
     6
  9
$SURFTAB2
 70
     6
  9
$SURFTYPE
 70
     6
  9
$SURFU
 70
     6
  9
$SURFV
 70
     6
  9
$UCSNAME
  2

  9
$UCSORG
 10
0.0
 20
0.0
 30
0.0
  9
$UCSXDIR
 10
1.0
 20
0.0
 30
0.0
  9
$UCSYDIR
 10
0.0
 20
1.0
 30
0.0
  9
$PUCSNAME
  2

  9
$PUCSORG
 10
0.0
 20
0.0
 30
0.0
  9
$PUCSXDIR
 10
1.0
 20
0.0
 30
0.0
  9
$PUCSYDIR
 10
0.0
 20
1.0
 30
0.0
  9
$USERI1
 70
     0
  9
$USERI2
 70
     0
  9
$USERI3
 70
     0
  9
$USERI4
 70
     0
  9
$USERI5
 70
     0
  9
$USERR1
 40
20.0
  9
$USERR2
 40
0.0
  9
$USERR3
 40
0.0
  9
$USERR4
 40
0.0
  9
$USERR5
 40
0.0
  9
$WORLDVIEW
 70
     1
  9
$SHADEDGE
 70
     3
  9
$SHADEDIF
 70
    70
  9
$TILEMODE
 70
     1
  9
$MAXACTVP
 70
    64
  9
$PLIMCHECK
 70
     0
  9
$PEXTMIN
 10
1.0000000000000000E+020
 20
1.0000000000000000E+020
 30
1.0000000000000000E+020
  9
$PEXTMAX
 10
-1.0000000000000000E+020
 20
-1.0000000000000000E+020
 30
-1.0000000000000000E+020
  9
$PLIMMIN
 10
0.0
 20
0.0
  9
$PLIMMAX
 10
12.0
 20
9.0
  9
$UNITMODE
 70
     0
  9
$VISRETAIN
 70
     1
  9
$PLINEGEN
 70
     0
  9
$PSLTSCALE
 70
     1
  0
ENDSEC
  0
SECTION
  2
TABLES
  0
TABLE
  2
VPORT
 70
     3
  0
VPORT
  2
*ACTIVE
 70
     0
 10
0.0
 20
0.0
 11
1.0
 21
1.0
 12
-215.04866558913429
 22
-111.6019600756821
 13
0.0
 23
0.0
 14
1.0
 24
1.0
 15
0.0
 25
0.0
 16
0.0
 26
0.0
 36
1.0
 17
0.0
 27
0.0
 37
0.0
 40
2409.4081950218392
 41
1.447268106734434
 42
50.0
 43
0.0
 44
0.0
 50
0.0
 51
0.0
 71
     0
 72
   100
 73
     1
 74
     0
 75
     0
 76
     0
 77
     0
 78
     0
  0
ENDTAB
  0
TABLE
  2
LTYPE
 70
     2
  0
LTYPE
  2
CONTINUOUS
 70
     0
  3
Ä└É³
 72
    65
 73
     0
 40
0.0
  0
LTYPE
  2
DASHDOT
 70
     0
  3
____ _ ____ _ ____ _ ____ _ ____ _ ____ _ ____
 72
    65
 73
     4
 40
5.5
 49
4.0
 49
-0.6
 49
0.3
 49
-0.6
  0
ENDTAB
  0
TABLE
  2
LAYER
 70
    12
  0
LAYER
  2
0
 70
     0
 62
     7
  6
CONTINUOUS
  0
LAYER
  2
SIZE
 70
     0
 62
    30
  6
CONTINUOUS
  0
LAYER
  2
BASIS
 70
     0
 62
     6
  6
DASHDOT
  0
LAYER
  2
OUTLINE
 70
     0
 62
     3
  6
CONTINUOUS
  0
LAYER
  2
DETAIL
 70
     0
 62
     5
  6
CONTINUOUS
  0
LAYER
  2
ARRANGE
 70
     0
 62
     1
  6
CONTINUOUS
  0
LAYER
  2
DEFPOINTS
 70
     0
 62
     7
  6
CONTINUOUS
  0
LAYER
  2
ETC
 70
     0
 62
    61
  6
CONTINUOUS
  0
LAYER
  2
FIX
 70
     0
 62
    11
  6
CONTINUOUS
  0
LAYER
  2
NOTE
 70
     0
 62
     4
  6
CONTINUOUS
  0
LAYER
  2
SERVICESPACE
 70
     0
 62
     2
  6
DASHDOT
  0
LAYER
  2
SYMBOLLINE
 70
     0
 62
    15
  6
CONTINUOUS
  0
ENDTAB
  0
TABLE
  2
STYLE
 70
     1
  0
STYLE
  2
STANDARD
 70
     0
 40
64.0
 41
0.9
 50
0.0
 71
     0
 42
64.0
  3
SIMPLEX.shx
  4
BIGFONT.shx
  0
ENDTAB
  0
TABLE
  2
VIEW
 70
     1
  0
VIEW
  2
ALL
 70
     0
 40
4282.6198079999967
 10
0.0
 20
41.309903999999989
 41
5940.0
 11
0.0
 21
0.0
 31
1.0
 12
0.0
 22
0.0
 32
0.0
 42
50.0
 43
0.0
 44
0.0
 50
0.0
 71
     0
  0
ENDTAB
  0
TABLE
  2
UCS
 70
     0
  0
ENDTAB
  0
TABLE
  2
APPID
 70
     1
  0
APPID
  2
ACAD
 70
     0
  0
ENDTAB
  0
TABLE
  2
DIMSTYLE
 70
     1
  0
DIMSTYLE
  2
STANDARD
 70
     0
  3

  4

  5

  6

  7

 40
1.0
 41
0.18
 42
0.0625
 43
0.38
 44
0.18
 45
0.0
 46
0.0
 47
0.0
 48
0.0
140
0.18
141
0.09
142
0.0
143
25.399999999999999
144
1.0
145
0.0
146
1.0
147
0.09
 71
     0
 72
     0
 73
     1
 74
     1
 75
     0
 76
     0
 77
     0
 78
     0
170
     0
171
     2
172
     0
173
     0
174
     0
175
     0
176
     0
177
     0
178
     0
  0
ENDTAB
  0
ENDSEC
  0
SECTION
  2
BLOCKS
  0
BLOCK
  8
0
  2
$MODEL_SPACE
 70
     0
 10
0.0
 20
0.0
 30
0.0
  3
$MODEL_SPACE
  1

  0
ENDBLK
  5
3FB
  8
0
  0
BLOCK
 67
     1
  8
0
  2
$PAPER_SPACE
 70
     0
 10
0.0
 20
0.0
 30
0.0
  3
$PAPER_SPACE
  1

  0
ENDBLK
  5
3F7
 67
     1
  8
0
  0
BLOCK
  8
0
  2
DOT1
 70
     0
 10
0.0
 20
0.0
 30
0.0
  3
DOT1
  1

  0
CIRCLE
  5
416
  8
SIZE
  6
CONTINUOUS
 62
     7
 10
0.0
 20
0.0
 30
0.0
 40
3.0
  0
ENDBLK
  5
417
  8
0
  0
BLOCK
  8
0
  2
_ORIGIN
 70
     0
 10
0.0
 20
0.0
 30
0.0
  3
_ORIGIN
  1

  0
CIRCLE
  5
41A
  8
0
  6
CONTINUOUS
 62
     7
 10
0.0
 20
0.0
 30
0.0
 40
0.5
  0
LINE
  5
41B
  8
0
  6
CONTINUOUS
 62
     7
 10
0.0
 20
0.0
 30
0.0
 11
-1.0
 21
0.0
 31
0.0
  0
ENDBLK
  5
41C
  8
0
  0
BLOCK
  8
0
 62
    30
  2
_NONE
 70
     0
 10
0.0
 20
0.0
 30
0.0
  3
_NONE
  1

  0
ENDBLK
  5
41F
  8
0
 62
    30
  0
BLOCK
  8
0
 62
    30
  2
_OPEN30
 70
     0
 10
0.0
 20
0.0
 30
0.0
  3
_OPEN30
  1

  0
LINE
  5
422
  8
0
  6
BYBLOCK
 62
     0
 10
-1.0
 20
0.26794919
 30
0.0
 11
0.0
 21
0.0
 31
0.0
  0
LINE
  5
423
  8
0
  6
BYBLOCK
 62
     0
 10
0.0
 20
0.0
 30
0.0
 11
-1.0
 21
-0.26794919
 31
0.0
  0
LINE
  5
424
  8
0
  6
BYBLOCK
 62
     0
 10
0.0
 20
0.0
 30
0.0
 11
-1.0
 21
0.0
 31
0.0
  0
ENDBLK
  5
425
  8
0
 62
    30
  0
ENDSEC
  0
SECTION
  2
ENTITIES
  0
LINE
  5
426
  8
BASIS
  6
DASHDOT
 62
     6
 10
0.0
 20
46.781925999999999
 30
0.0
 11
0.0
 21
-323.48821099999998
 31
0.0
  0
LINE
  5
427
  8
BASIS
  6
DASHDOT
 62
     6
 10
-25.0
 20
-200.19463200000001
 30
0.0
 11
-25.0
 21
-319.06331799999992
 31
0.0
  0
TEXT
  5
428
  8
NOTE
  6
CONTINUOUS
 62
     4
 10
401.65813100000003
 20
192.92198099999999
 30
0.0
 40
64.0
  1
AH 4-âË12ü~19
 41
0.9
  0
LINE
  5
429
  8
NOTE
  6
CONTINUOUS
 62
     4
 10
396.89009499999992
 20
166.87400999999991
 30
0.0
 11
1014.083999999999
 21
166.87400999999991
 31
0.0
  0
LINE
  5
42A
  8
DETAIL
  6
CONTINUOUS
 62
     5
 10
250.0
 20
0.0
 30
0.0
 11
250.0
 21
-235.0
 31
0.0
  0
LINE
  5
42B
  8
DETAIL
  6
CONTINUOUS
 62
     5
 10
-230.00000299999999
 20
-257.0
 30
0.0
 11
-230.00000299999999
 21
-243.0
 31
0.0
  0
LINE
  5
42C
  8
DETAIL
  6
CONTINUOUS
 62
     5
 10
-250.0
 20
-235.0
 30
0.0
 11
-250.0
 21
0.0
 31
0.0
  0
LINE
  5
42D
  8
DETAIL
  6
CONTINUOUS
 62
     5
 10
-250.0
 20
0.0
 30
0.0
 11
250.0
 21
0.0
 31
0.0
  0
LINE
  5
42E
  8
DETAIL
  6
CONTINUOUS
 62
     5
 10
-240.00000299999999
 20
-264.0
 30
0.0
 11
-235.0
 21
-264.0
 31
0.0
  0
LINE
  5
42F
  8
BASIS
  6
DASHDOT
 62
     6
 10
-752.58930999999984
 20
-156.0
 30
0.0
 11
348.09340800000001
 21
-156.0
 31
0.0
  0
LINE
  5
430
  8
DETAIL
  6
CONTINUOUS
 62
     5
 10
-635.0
 20
-55.0
 30
0.0
 11
-250.0
 21
-55.0
 31
0.0
  0
LINE
  5
431
  8
DETAIL
  6
CONTINUOUS
 62
     5
 10
-635.0
 20
-257.0
 30
0.0
 11
-240.00000299999999
 21
-257.0
 31
0.0
  0
LINE
  5
432
  8
DETAIL
  6
CONTINUOUS
 62
     5
 10
-240.00000299999999
 20
-264.0
 30
0.0
 11
-240.00000299999999
 21
-243.0
 31
0.0
  0
LINE
  5
433
  8
DETAIL
  6
CONTINUOUS
 62
     5
 10
-695.0
 20
-85.0
 30
0.0
 11
-695.0
 21
-227.0
 31
0.0
  0
LINE
  5
434
  8
DETAIL
  6
CONTINUOUS
 62
     5
 10
-615.0
 20
-55.0
 30
0.0
 11
-615.0
 21
-257.0
 31
0.0
  0
LINE
  5
435
  8
DETAIL
  6
CONTINUOUS
 62
     5
 10
-645.0
 20
-76.0
 30
0.0
 11
-645.0
 21
-236.0
 31
0.0
  0
LINE
  5
436
  8
DETAIL
  6
CONTINUOUS
 62
     5
 10
-672.7777769999999
 20
-231.0
 30
0.0
 11
-645.0
 21
-236.0
 31
0.0
  0
LINE
  5
437
  8
DETAIL
  6
CONTINUOUS
 62
     5
 10
-635.0
 20
-236.0
 30
0.0
 11
-645.0
 21
-236.0
 31
0.0
  0
LINE
  5
438
  8
DETAIL
  6
CONTINUOUS
 62
     5
 10
-705.0
 20
-227.0
 30
0.0
 11
-695.0
 21
-227.0
 31
0.0
  0
LINE
  5
439
  8
DETAIL
  6
CONTINUOUS
 62
     5
 10
-672.7777769999999
 20
-231.0
 30
0.0
 11
-695.0
 21
-227.0
 31
0.0
  0
LINE
  5
43A
  8
DETAIL
  6
CONTINUOUS
 62
     5
 10
-645.0
 20
-76.0
 30
0.0
 11
-672.7777769999999
 21
-81.0
 31
0.0
  0
LINE
  5
43B
  8
DETAIL
  6
CONTINUOUS
 62
     5
 10
-635.0
 20
-76.0
 30
0.0
 11
-645.0
 21
-76.0
 31
0.0
  0
LINE
  5
43C
  8
DETAIL
  6
CONTINUOUS
 62
     5
 10
-672.7777769999999
 20
-81.0
 30
0.0
 11
-695.0
 21
-85.0
 31
0.0
  0
LINE
  5
43D
  8
DETAIL
  6
CONTINUOUS
 62
     5
 10
-242.0
 20
-243.0
 30
0.0
 11
242.0
 21
-243.0
 31
0.0
  0
ARC
  5
43E
  8
DETAIL
  6
CONTINUOUS
 62
     5
 10
-242.0
 20
-235.0
 30
0.0
 40
8.0
 50
180.0
 51
270.0
  0
ARC
  5
43F
  8
DETAIL
  6
CONTINUOUS
 62
     5
 10
242.0
 20
-235.0
 30
0.0
 40
8.0
 50
270.0
 51
0.0
  0
LINE
  5
440
  8
DETAIL
  6
CONTINUOUS
 62
     5
 10
240.00000299999999
 20
-264.0
 30
0.0
 11
240.00000299999999
 21
-243.0
 31
0.0
  0
LINE
  5
441
  8
DETAIL
  6
CONTINUOUS
 62
     5
 10
230.00000299999999
 20
-256.0
 30
0.0
 11
230.00000299999999
 21
-243.0
 31
0.0
  0
LINE
  5
442
  8
DETAIL
  6
CONTINUOUS
 62
     5
 10
240.00000299999999
 20
-264.0
 30
0.0
 11
235.0
 21
-264.0
 31
0.0
  0
LINE
  5
443
  8
DETAIL
  6
CONTINUOUS
 62
     5
 10
305.0
 20
-85.0
 30
0.0
 11
305.0
 21
-227.0
 31
0.0
  0
LINE
  5
444
  8
DETAIL
  6
CONTINUOUS
 62
     5
 10
295.0
 20
-85.0
 30
0.0
 11
295.0
 21
-227.0
 31
0.0
  0
LINE
  5
445
  8
DETAIL
  6
CONTINUOUS
 62
     5
 10
249.922054
 20
-235.1140299999999
 30
0.0
 11
272.77777799999973
 21
-231.0
 31
0.0
  0
LINE
  5
446
  8
DETAIL
  6
CONTINUOUS
 62
     5
 10
305.0
 20
-227.0
 30
0.0
 11
295.0
 21
-227.0
 31
0.0
  0
LINE
  5
447
  8
DETAIL
  6
CONTINUOUS
 62
     5
 10
272.77777799999973
 20
-231.0
 30
0.0
 11
295.0
 21
-227.0
 31
0.0
  0
LINE
  5
448
  8
DETAIL
  6
CONTINUOUS
 62
     5
 10
250.0
 20
-76.900000000000006
 30
0.0
 11
272.77777799999973
 21
-81.0
 31
0.0
  0
LINE
  5
449
  8
DETAIL
  6
CONTINUOUS
 62
     5
 10
305.0
 20
-85.0
 30
0.0
 11
295.0
 21
-85.0
 31
0.0
  0
LINE
  5
44A
  8
DETAIL
  6
CONTINUOUS
 62
     5
 10
272.77777799999973
 20
-81.0
 30
0.0
 11
295.0
 21
-85.0
 31
0.0
  0
ARC
  5
44B
  8
DETAIL
  6
CONTINUOUS
 62
     5
 39
50.0
 10
18.0
 20
-290.0
 30
0.0
 40
6.0
 50
270.0
 51
0.0
  0
LINE
  5
44C
  8
DETAIL
  6
CONTINUOUS
 62
     5
 39
50.0
 10
24.0
 20
-257.0
 30
0.0
 11
24.0
 21
-290.0
 31
0.0
  0
LINE
  5
44D
  8
DETAIL
  6
CONTINUOUS
 62
     5
 39
50.0
 10
-68.0
 20
-296.0
 30
0.0
 11
18.0
 21
-296.0
 31
0.0
  0
ARC
  5
44E
  8
DETAIL
  6
CONTINUOUS
 62
     5
 39
50.0
 10
-68.0
 20
-290.0
 30
0.0
 40
6.0
 50
180.0
 51
270.0
  0
LINE
  5
44F
  8
DETAIL
  6
CONTINUOUS
 62
     5
 39
50.0
 10
-74.0
 20
-257.0
 30
0.0
 11
-74.0
 21
-290.0
 31
0.0
  0
LINE
  5
450
  8
DETAIL
  6
CONTINUOUS
 62
     5
 10
107.000004
 20
-243.0
 30
0.0
 11
107.000004
 21
-248.0
 31
0.0
  0
LINE
  5
451
  8
DETAIL
  6
CONTINUOUS
 62
     5
 10
-156.99999600000001
 20
-243.0
 30
0.0
 11
-156.99999600000001
 21
-248.0
 31
0.0
  0
LINE
  5
452
  8
DETAIL
  6
CONTINUOUS
 62
     5
 10
-156.99999600000001
 20
-248.0
 30
0.0
 11
107.000004
 21
-248.0
 31
0.0
  0
LINE
  5
453
  8
DETAIL
  6
CONTINUOUS
 62
     5
 10
-97.5
 20
-248.0
 30
0.0
 11
-92.940753000000015
 21
-257.0
 31
0.0
  0
LINE
  5
454
  8
DETAIL
  6
CONTINUOUS
 62
     5
 10
-92.940753000000015
 20
-257.0
 30
0.0
 11
42.940753000000001
 21
-257.0
 31
0.0
  0
LINE
  5
455
  8
DETAIL
  6
CONTINUOUS
 62
     5
 10
47.5
 20
-248.0
 30
0.0
 11
42.940753000000001
 21
-257.0
 31
0.0
  0
LINE
  5
456
  8
DETAIL
  6
CONTINUOUS
 62
     5
 10
230.00000299999999
 20
-243.0
 30
0.0
 11
230.00000299999999
 21
-290.0
 31
0.0
  0
LINE
  5
457
  8
DETAIL
  6
CONTINUOUS
 62
     5
 10
108.0
 20
-243.0
 30
0.0
 11
108.0
 21
-290.0
 31
0.0
  0
LINE
  5
458
  8
DETAIL
  6
CONTINUOUS
 62
     5
 10
108.0
 20
-290.0
 30
0.0
 11
230.00000299999999
 21
-290.0
 31
0.0
  0
LINE
  5
459
  8
NOTE
  6
CONTINUOUS
 62
     4
 10
479.73015800000002
 20
-471.14426900000012
 30
0.0
 11
357.66157599999991
 21
-471.14426900000012
 31
0.0
  0
TEXT
  5
45A
  8
NOTE
  6
CONTINUOUS
 62
     4
 10
375.24450099999967
 20
-447.5360349999998
 30
0.0
 40
64.0
  1
EL
 41
0.9
  0
LINE
  5
45B
  8
NOTE
  6
CONTINUOUS
 62
     4
 10
108.0
 20
-261.0
 30
0.0
 11
357.66157599999991
 21
-471.14426900000012
 31
0.0
  0
LINE
  5
45C
  8
NOTE
  6
CONTINUOUS
 62
     4
 10
130.5700379999999
 20
-294.024134
 30
0.0
 11
108.0
 21
-261.0
 31
0.0
  0
LINE
  5
45D
  8
NOTE
  6
CONTINUOUS
 62
     4
 10
108.0
 20
-261.0
 30
0.0
 11
144.05829299999979
 21
-278.31471899999991
 31
0.0
  0
LINE
  5
45E
  8
NOTE
  6
CONTINUOUS
 62
     4
 10
108.0
 20
-281.0
 30
0.0
 11
108.0
 21
-241.0
 31
0.0
  0
LINE
  5
45F
  8
NOTE
  6
CONTINUOUS
 62
     4
 10
128.0
 20
-261.0
 30
0.0
 11
88.0
 21
-261.0
 31
0.0
  0
LINE
  5
460
  8
DETAIL
  6
CONTINUOUS
 62
     5
 10
222.0
 20
-57.5
 30
0.0
 11
178.0
 21
-57.5
 31
0.0
  0
LINE
  5
461
  8
DETAIL
  6
CONTINUOUS
 62
     5
 10
230.0
 20
-17.5
 30
0.0
 11
170.0
 21
-17.5
 31
0.0
  0
LINE
  5
462
  8
DETAIL
  6
CONTINUOUS
 62
     5
 10
211.5541209999999
 20
-33.0
 30
0.0
 11
188.55412100000001
 21
-33.0
 31
0.0
  0
LINE
  5
463
  8
DETAIL
  6
CONTINUOUS
 62
     5
 10
214.55412100000001
 20
-9.5
 30
0.0
 11
185.55412100000001
 21
-9.5
 31
0.0
  0
LINE
  5
464
  8
DETAIL
  6
CONTINUOUS
 62
     5
 10
214.55412100000001
 20
-14.5
 30
0.0
 11
185.55412100000001
 21
-14.5
 31
0.0
  0
LINE
  5
465
  8
DETAIL
  6
CONTINUOUS
 62
     5
 10
230.0
 20
-22.5
 30
0.0
 11
170.0
 21
-22.5
 31
0.0
  0
ARC
  5
466
  8
DETAIL
  6
CONTINUOUS
 62
     5
 10
222.0
 20
-49.5
 30
0.0
 40
8.0
 50
270.0
 51
0.0
  0
LINE
  5
467
  8
DETAIL
  6
CONTINUOUS
 62
     5
 10
221.48492100000001
 20
-36.015073999999998
 30
0.0
 11
218.5150789999999
 21
-38.984926000000002
 31
0.0
  0
LINE
  5
468
  8
DETAIL
  6
CONTINUOUS
 62
     5
 10
218.515074
 20
-36.015079
 30
0.0
 11
221.4849259999998
 21
-38.984921
 31
0.0
  0
CIRCLE
  5
469
  8
DETAIL
  6
CONTINUOUS
 62
     5
 10
220.0
 20
-37.5
 30
0.0
 40
4.7000000000000002
  0
LINE
  5
46A
  8
DETAIL
  6
CONTINUOUS
 62
     5
 10
230.0
 20
-17.5
 30
0.0
 11
230.0
 21
-49.5
 31
0.0
  0
ARC
  5
46B
  8
DETAIL
  6
CONTINUOUS
 62
     5
 10
211.5541209999999
 20
-30.0
 30
0.0
 40
3.0
 50
270.0
 51
0.0
  0
LINE
  5
46C
  8
DETAIL
  6
CONTINUOUS
 62
     5
 10
212.55412100000001
 20
-14.5
 30
0.0
 11
212.55412100000001
 21
-17.5
 31
0.0
  0
LINE
  5
46D
  8
DETAIL
  6
CONTINUOUS
 62
     5
 10
214.55412100000001
 20
-9.5
 30
0.0
 11
214.55412100000001
 21
-14.5
 31
0.0
  0
LINE
  5
46E
  8
DETAIL
  6
CONTINUOUS
 62
     5
 10
214.55412100000001
 20
-22.5
 30
0.0
 11
214.55412100000001
 21
-30.0
 31
0.0
  0
ARC
  5
46F
  8
DETAIL
  6
CONTINUOUS
 62
     5
 10
178.0
 20
-49.5
 30
0.0
 40
8.0
 50
180.0
 51
270.0
  0
LINE
  5
470
  8
DETAIL
  6
CONTINUOUS
 62
     5
 10
181.48492100000001
 20
-36.015073999999998
 30
0.0
 11
178.5150789999999
 21
-38.984926000000002
 31
0.0
  0
LINE
  5
471
  8
DETAIL
  6
CONTINUOUS
 62
     5
 10
178.51507399999991
 20
-36.015079
 30
0.0
 11
181.484926
 21
-38.984921
 31
0.0
  0
CIRCLE
  5
472
  8
DETAIL
  6
CONTINUOUS
 62
     5
 10
180.0
 20
-37.5
 30
0.0
 40
4.7000000000000002
  0
LINE
  5
473
  8
DETAIL
  6
CONTINUOUS
 62
     5
 10
170.0
 20
-17.5
 30
0.0
 11
170.0
 21
-49.5
 31
0.0
  0
ARC
  5
474
  8
DETAIL
  6
CONTINUOUS
 62
     5
 10
188.55412100000001
 20
-30.0
 30
0.0
 40
3.0
 50
180.0
 51
270.0
  0
LINE
  5
475
  8
DETAIL
  6
CONTINUOUS
 62
     5
 10
187.55412100000001
 20
-14.5
 30
0.0
 11
187.55412100000001
 21
-17.5
 31
0.0
  0
LINE
  5
476
  8
DETAIL
  6
CONTINUOUS
 62
     5
 10
185.55412100000001
 20
-9.5
 30
0.0
 11
185.55412100000001
 21
-14.5
 31
0.0
  0
LINE
  5
477
  8
DETAIL
  6
CONTINUOUS
 62
     5
 10
185.55412100000001
 20
-22.5
 30
0.0
 11
185.55412100000001
 21
-30.0
 31
0.0
  0
CIRCLE
  5
478
  8
FIX
  6
CONTINUOUS
 62
    11
 39
50.0
 10
200.0
 20
-17.5
 30
0.0
 40
6.0
  0
LINE
  5
479
  8
NOTE
  6
CONTINUOUS
 62
     4
 10
220.0
 20
-17.5
 30
0.0
 11
180.0
 21
-17.5
 31
0.0
  0
LINE
  5
47A
  8
NOTE
  6
CONTINUOUS
 62
     4
 10
200.0
 20
-37.5
 30
0.0
 11
200.0
 21
2.5
 31
0.0
  0
CIRCLE
  5
47B
  8
FIX
  6
CONTINUOUS
 62
    11
 39
50.0
 10
-200.0
 20
-17.5
 30
0.0
 40
6.0
  0
ARC
  5
47C
  8
DETAIL
  6
CONTINUOUS
 62
     5
 10
-178.0
 20
-49.5
 30
0.0
 40
8.0
 50
270.0
 51
0.0
  0
ARC
  5
47D
  8
DETAIL
  6
CONTINUOUS
 62
     5
 10
-222.0
 20
-49.5
 30
0.0
 40
8.0
 50
180.0
 51
270.0
  0
LINE
  5
47E
  8
DETAIL
  6
CONTINUOUS
 62
     5
 10
-230.0
 20
-22.5
 30
0.0
 11
-170.0
 21
-22.5
 31
0.0
  0
LINE
  5
47F
  8
DETAIL
  6
CONTINUOUS
 62
     5
 10
-214.55412100000001
 20
-14.5
 30
0.0
 11
-185.55412100000001
 21
-14.5
 31
0.0
  0
LINE
  5
480
  8
DETAIL
  6
CONTINUOUS
 62
     5
 10
-214.55412100000001
 20
-9.5
 30
0.0
 11
-185.55412100000001
 21
-9.5
 31
0.0
  0
LINE
  5
481
  8
DETAIL
  6
CONTINUOUS
 62
     5
 10
-211.5541209999999
 20
-33.0
 30
0.0
 11
-188.55412100000001
 21
-33.0
 31
0.0
  0
LINE
  5
482
  8
DETAIL
  6
CONTINUOUS
 62
     5
 10
-230.0
 20
-17.5
 30
0.0
 11
-170.0
 21
-17.5
 31
0.0
  0
LINE
  5
483
  8
NOTE
  6
CONTINUOUS
 62
     4
 10
-220.0
 20
-17.5
 30
0.0
 11
-180.0
 21
-17.5
 31
0.0
  0
LINE
  5
484
  8
NOTE
  6
CONTINUOUS
 62
     4
 10
-200.0
 20
-37.5
 30
0.0
 11
-200.0
 21
2.5
 31
0.0
  0
LINE
  5
485
  8
DETAIL
  6
CONTINUOUS
 62
     5
 10
-222.0
 20
-57.5
 30
0.0
 11
-178.0
 21
-57.5
 31
0.0
  0
LINE
  5
486
  8
DETAIL
  6
CONTINUOUS
 62
     5
 10
-214.55412100000001
 20
-22.5
 30
0.0
 11
-214.55412100000001
 21
-30.0
 31
0.0
  0
LINE
  5
487
  8
DETAIL
  6
CONTINUOUS
 62
     5
 10
-214.55412100000001
 20
-9.5
 30
0.0
 11
-214.55412100000001
 21
-14.5
 31
0.0
  0
LINE
  5
488
  8
DETAIL
  6
CONTINUOUS
 62
     5
 10
-212.55412100000001
 20
-14.5
 30
0.0
 11
-212.55412100000001
 21
-17.5
 31
0.0
  0
ARC
  5
489
  8
DETAIL
  6
CONTINUOUS
 62
     5
 10
-211.5541209999999
 20
-30.0
 30
0.0
 40
3.0
 50
180.0
 51
270.0
  0
CIRCLE
  5
48A
  8
DETAIL
  6
CONTINUOUS
 62
     5
 10
-220.0
 20
-37.5
 30
0.0
 40
4.7000000000000002
  0
LINE
  5
48B
  8
DETAIL
  6
CONTINUOUS
 62
     5
 10
-218.515074
 20
-36.015079
 30
0.0
 11
-221.4849259999998
 21
-38.984921
 31
0.0
  0
LINE
  5
48C
  8
DETAIL
  6
CONTINUOUS
 62
     5
 10
-221.48492100000001
 20
-36.015073999999998
 30
0.0
 11
-218.5150789999999
 21
-38.984926000000002
 31
0.0
  0
LINE
  5
48D
  8
DETAIL
  6
CONTINUOUS
 62
     5
 10
-230.0
 20
-17.5
 30
0.0
 11
-230.0
 21
-49.5
 31
0.0
  0
LINE
  5
48E
  8
DETAIL
  6
CONTINUOUS
 62
     5
 10
-185.55412100000001
 20
-22.5
 30
0.0
 11
-185.55412100000001
 21
-30.0
 31
0.0
  0
LINE
  5
48F
  8
DETAIL
  6
CONTINUOUS
 62
     5
 10
-185.55412100000001
 20
-9.5
 30
0.0
 11
-185.55412100000001
 21
-14.5
 31
0.0
  0
LINE
  5
490
  8
DETAIL
  6
CONTINUOUS
 62
     5
 10
-187.55412100000001
 20
-14.5
 30
0.0
 11
-187.55412100000001
 21
-17.5
 31
0.0
  0
ARC
  5
491
  8
DETAIL
  6
CONTINUOUS
 62
     5
 10
-188.55412100000001
 20
-30.0
 30
0.0
 40
3.0
 50
270.0
 51
0.0
  0
CIRCLE
  5
492
  8
DETAIL
  6
CONTINUOUS
 62
     5
 10
-180.0
 20
-37.5
 30
0.0
 40
4.7000000000000002
  0
LINE
  5
493
  8
DETAIL
  6
CONTINUOUS
 62
     5
 10
-178.51507399999991
 20
-36.015079
 30
0.0
 11
-181.484926
 21
-38.984921
 31
0.0
  0
LINE
  5
494
  8
DETAIL
  6
CONTINUOUS
 62
     5
 10
-181.48492100000001
 20
-36.015073999999998
 30
0.0
 11
-178.5150789999999
 21
-38.984926000000002
 31
0.0
  0
LINE
  5
495
  8
DETAIL
  6
CONTINUOUS
 62
     5
 10
-170.0
 20
-17.5
 30
0.0
 11
-170.0
 21
-49.5
 31
0.0
  0
LINE
  5
496
  8
SIZE
  6
CONTINUOUS
 62
    30
 10
250.0
 20
20.0
 30
0.0
 11
250.0
 21
283.07789700000001
 31
0.0
  0
LINE
  5
497
  8
SIZE
  6
CONTINUOUS
 62
    30
 10
-250.0
 20
20.0
 30
0.0
 11
-250.0
 21
283.07789700000001
 31
0.0
  0
LINE
  5
498
  8
SIZE
  6
CONTINUOUS
 62
    30
 10
305.0
 20
263.07789700000001
 30
0.0
 11
-238.0
 21
263.07789700000001
 31
0.0
  0
CIRCLE
  5
499
  8
SIZE
  6
CONTINUOUS
 62
    30
 10
250.0
 20
263.07789700000001
 30
0.0
 40
6.0
  0
LINE
  5
49A
  8
SIZE
  6
CONTINUOUS
 62
    30
 10
250.0
 20
263.07789700000001
 30
0.0
 11
238.0
 21
263.07789700000001
 31
0.0
  0
CIRCLE
  5
49B
  8
SIZE
  6
CONTINUOUS
 62
    30
 10
-250.0
 20
263.07789700000001
 30
0.0
 40
6.0
  0
LINE
  5
49C
  8
SIZE
  6
CONTINUOUS
 62
    30
 10
-250.0
 20
263.07789700000001
 30
0.0
 11
-238.0
 21
263.07789700000001
 31
0.0
  0
TEXT
  5
49D
  8
SIZE
  6
CONTINUOUS
 62
    30
 10
-74.05714285714285
 20
288.07789700000001
 30
0.0
 40
64.0
  1
500
 41
0.9
 72
     1
 11
0.0
 21
288.07789700000001
 31
0.0
  0
LINE
  5
49E
  8
SIZE
  6
CONTINUOUS
 62
    30
 10
200.0
 20
22.5
 30
0.0
 11
200.0
 21
163.44964299999981
 31
0.0
  0
LINE
  5
49F
  8
SIZE
  6
CONTINUOUS
 62
    30
 10
-200.0
 20
22.5
 30
0.0
 11
-200.0
 21
163.44964299999981
 31
0.0
  0
LINE
  5
4A0
  8
SIZE
  6
CONTINUOUS
 62
    30
 10
188.0
 20
143.44964299999981
 30
0.0
 11
-188.0
 21
143.44964299999981
 31
0.0
  0
CIRCLE
  5
4A1
  8
SIZE
  6
CONTINUOUS
 62
    30
 10
200.0
 20
143.44964299999981
 30
0.0
 40
6.0
  0
LINE
  5
4A2
  8
SIZE
  6
CONTINUOUS
 62
    30
 10
200.0
 20
143.44964299999981
 30
0.0
 11
188.0
 21
143.44964299999981
 31
0.0
  0
CIRCLE
  5
4A3
  8
SIZE
  6
CONTINUOUS
 62
    30
 10
-200.0
 20
143.44964299999981
 30
0.0
 40
6.0
  0
LINE
  5
4A4
  8
SIZE
  6
CONTINUOUS
 62
    30
 10
-200.0
 20
143.44964299999981
 30
0.0
 11
-188.0
 21
143.44964299999981
 31
0.0
  0
TEXT
  5
4A5
  8
SIZE
  6
CONTINUOUS
 62
    30
 10
-74.05714285714285
 20
168.44964299999981
 30
0.0
 40
64.0
  1
400
 41
0.9
 72
     1
 11
0.0
 21
168.44964299999981
 31
0.0
  0
LINE
  5
4A6
  8
DETAIL
  6
CONTINUOUS
 62
     5
 10
-695.0
 20
-85.0
 30
0.0
 11
-705.0
 21
-85.0
 31
0.0
  0
LINE
  5
4A7
  8
DETAIL
  6
CONTINUOUS
 62
     5
 10
235.0
 20
-243.0
 30
0.0
 11
235.0
 21
-264.0
 31
0.0
  0
LINE
  5
4A8
  8
DETAIL
  6
CONTINUOUS
 62
     5
 10
-235.0
 20
-243.0
 30
0.0
 11
-235.0
 21
-264.0
 31
0.0
  0
LINE
  5
4A9
  8
DETAIL
  6
CONTINUOUS
 62
     5
 10
-705.0
 20
-85.0
 30
0.0
 11
-705.0
 21
-227.0
 31
0.0
  0
LINE
  5
4AA
  8
SIZE
  6
CONTINUOUS
 62
    30
 10
305.0
 20
-65.0
 30
0.0
 11
305.0
 21
399.79590099999967
 31
0.0
  0
LINE
  5
4AB
  8
SIZE
  6
CONTINUOUS
 62
    30
 10
-705.0
 20
-65.0
 30
0.0
 11
-705.0
 21
399.79590099999967
 31
0.0
  0
LINE
  5
4AC
  8
SIZE
  6
CONTINUOUS
 62
    30
 10
293.0
 20
379.79590099999967
 30
0.0
 11
-693.0
 21
379.79590099999967
 31
0.0
  0
CIRCLE
  5
4AD
  8
SIZE
  6
CONTINUOUS
 62
    30
 10
305.0
 20
379.79590099999967
 30
0.0
 40
6.0
  0
LINE
  5
4AE
  8
SIZE
  6
CONTINUOUS
 62
    30
 10
305.0
 20
379.79590099999967
 30
0.0
 11
293.0
 21
379.79590099999967
 31
0.0
  0
CIRCLE
  5
4AF
  8
SIZE
  6
CONTINUOUS
 62
    30
 10
-705.0
 20
379.79590099999967
 30
0.0
 40
6.0
  0
LINE
  5
4B0
  8
SIZE
  6
CONTINUOUS
 62
    30
 10
-705.0
 20
379.79590099999967
 30
0.0
 11
-693.0
 21
379.79590099999967
 31
0.0
  0
TEXT
  5
4B1
  8
SIZE
  6
CONTINUOUS
 62
    30
 10
-290.51428571428568
 20
404.79590099999967
 30
0.0
 40
64.0
  1
1010
 41
0.9
 72
     1
 11
-200.0
 21
404.79590099999967
 31
0.0
  0
LINE
  5
4B2
  8
SIZE
  6
CONTINUOUS
 62
    30
 10
-234.73387099999991
 20
0.0
 30
0.0
 11
-1234.5740000000001
 21
0.0
 31
0.0
  0
LINE
  5
4B3
  8
SIZE
  6
CONTINUOUS
 62
    30
 10
-772.58930999999984
 20
-156.0
 30
0.0
 11
-1234.5740000000001
 21
-156.0
 31
0.0
  0
LINE
  5
4B4
  8
SIZE
  6
CONTINUOUS
 62
    30
 10
-1214.573999999998
 20
-12.0
 30
0.0
 11
-1214.573999999998
 21
-144.0
 31
0.0
  0
LINE
  5
4B5
  8
SIZE
  6
CONTINUOUS
 62
    30
 10
-1214.573999999998
 20
225.8071939999999
 30
0.0
 11
-1214.573999999998
 21
0.0
 31
0.0
  0
TEXT
  5
4B6
  8
SIZE
  6
CONTINUOUS
 62
    30
 10
-1239.573999999998
 20
66.407193999999933
 30
0.0
 40
64.0
  1
156
 50
90.0
 41
0.9
 72
     1
 11
-1239.573999999998
 21
133.60719399999991
 31
0.0
  0
CIRCLE
  5
4B7
  8
SIZE
  6
CONTINUOUS
 62
    30
 10
-1214.573999999998
 20
0.0
 30
0.0
 40
6.0
  0
LINE
  5
4B8
  8
SIZE
  6
CONTINUOUS
 62
    30
 10
-1214.573999999998
 20
0.0
 30
0.0
 11
-1214.573999999998
 21
-12.0
 31
0.0
  0
CIRCLE
  5
4B9
  8
SIZE
  6
CONTINUOUS
 62
    30
 10
-1214.573999999998
 20
-156.0
 30
0.0
 40
6.0
  0
LINE
  5
4BA
  8
SIZE
  6
CONTINUOUS
 62
    30
 10
-1214.573999999998
 20
-156.0
 30
0.0
 11
-1214.573999999998
 21
-144.0
 31
0.0
  0
POINT
  5
4BB
  8
DEFPOINTS
  6
CONTINUOUS
 62
    30
 10
-752.58930999999984
 20
-156.0
 30
0.0
  0
LINE
  5
4BC
  8
SIZE
  6
CONTINUOUS
 62
    30
 10
-772.58930999999984
 20
-156.0
 30
0.0
 11
-1234.5740000000001
 21
-156.0
 31
0.0
  0
LINE
  5
4BD
  8
SIZE
  6
CONTINUOUS
 62
    30
 10
-88.0
 20
-296.0
 30
0.0
 11
-1234.5740000000001
 21
-296.0
 31
0.0
  0
LINE
  5
4BE
  8
SIZE
  6
CONTINUOUS
 62
    30
 10
-1214.573999999998
 20
-168.0
 30
0.0
 11
-1214.573999999998
 21
-284.0
 31
0.0
  0
LINE
  5
4BF
  8
SIZE
  6
CONTINUOUS
 62
    30
 10
-1214.573999999998
 20
-495.61313699999999
 30
0.0
 11
-1214.573999999998
 21
-296.0
 31
0.0
  0
TEXT
  5
4C0
  8
SIZE
  6
CONTINUOUS
 62
    30
 10
-1239.573999999998
 20
-470.61313757142841
 30
0.0
 40
64.0
  1
140
 50
90.0
 41
0.9
 72
     1
 11
-1239.573999999998
 21
-402.04170899999991
 31
0.0
  0
CIRCLE
  5
4C1
  8
SIZE
  6
CONTINUOUS
 62
    30
 10
-1214.573999999998
 20
-156.0
 30
0.0
 40
6.0
  0
LINE
  5
4C2
  8
SIZE
  6
CONTINUOUS
 62
    30
 10
-1214.573999999998
 20
-156.0
 30
0.0
 11
-1214.573999999998
 21
-168.0
 31
0.0
  0
CIRCLE
  5
4C3
  8
SIZE
  6
CONTINUOUS
 62
    30
 10
-1214.573999999998
 20
-296.0
 30
0.0
 40
6.0
  0
LINE
  5
4C4
  8
SIZE
  6
CONTINUOUS
 62
    30
 10
-1214.573999999998
 20
-296.0
 30
0.0
 11
-1214.573999999998
 21
-284.0
 31
0.0
  0
POINT
  5
4C5
  8
DEFPOINTS
  6
CONTINUOUS
 62
    30
 10
-752.58930999999984
 20
-156.0
 30
0.0
  0
LINE
  5
4C6
  8
SIZE
  6
CONTINUOUS
 62
    30
 10
-234.73387099999991
 20
0.0
 30
0.0
 11
-1360.551999999999
 21
0.0
 31
0.0
  0
LINE
  5
4C7
  8
SIZE
  6
CONTINUOUS
 62
    30
 10
-88.0
 20
-296.0
 30
0.0
 11
-1360.551999999999
 21
-296.0
 31
0.0
  0
LINE
  5
4C8
  8
SIZE
  6
CONTINUOUS
 62
    30
 10
-1340.551999999999
 20
-12.0
 30
0.0
 11
-1340.551999999999
 21
-284.0
 31
0.0
  0
CIRCLE
  5
4C9
  8
SIZE
  6
CONTINUOUS
 62
    30
 10
-1340.551999999999
 20
0.0
 30
0.0
 40
6.0
  0
LINE
  5
4CA
  8
SIZE
  6
CONTINUOUS
 62
    30
 10
-1340.551999999999
 20
0.0
 30
0.0
 11
-1340.551999999999
 21
-12.0
 31
0.0
  0
CIRCLE
  5
4CB
  8
SIZE
  6
CONTINUOUS
 62
    30
 10
-1340.551999999999
 20
-296.0
 30
0.0
 40
6.0
  0
LINE
  5
4CC
  8
SIZE
  6
CONTINUOUS
 62
    30
 10
-1340.551999999999
 20
-296.0
 30
0.0
 11
-1340.551999999999
 21
-284.0
 31
0.0
  0
TEXT
  5
4CD
  8
SIZE
  6
CONTINUOUS
 62
    30
 10
-1365.5519999999999
 20
-220.68571428571431
 30
0.0
 40
64.0
  1
296
 50
90.0
 41
0.9
 72
     1
 11
-1365.5519999999999
 21
-148.0
 31
0.0
  0
LINE
  5
4CE
  8
SIZE
  6
CONTINUOUS
 62
    30
 10
-725.0
 20
-85.0
 30
0.0
 11
-865.82376699999998
 21
-85.0
 31
0.0
  0
LINE
  5
4CF
  8
SIZE
  6
CONTINUOUS
 62
    30
 10
-725.0
 20
-227.0
 30
0.0
 11
-865.82376699999998
 21
-227.0
 31
0.0
  0
LINE
  5
4D0
  8
SIZE
  6
CONTINUOUS
 62
    30
 10
-845.82376699999986
 20
-97.0
 30
0.0
 11
-845.82376699999986
 21
-215.0
 31
0.0
  0
LINE
  5
4D1
  8
SIZE
  6
CONTINUOUS
 62
    30
 10
-845.82376699999986
 20
245.3002259999999
 30
0.0
 11
-845.82376699999986
 21
-85.0
 31
0.0
  0
TEXT
  5
4D2
  8
SIZE
  6
CONTINUOUS
 62
    30
 10
-870.82376699999998
 20
16.78022642857135
 30
0.0
 40
64.0
  1
âË142
 50
90.0
 41
0.9
 72
     1
 11
-870.82376699999998
 21
125.6716549999999
 31
0.0
  0
CIRCLE
  5
4D3
  8
SIZE
  6
CONTINUOUS
 62
    30
 10
-845.82376699999986
 20
-85.0
 30
0.0
 40
6.0
  0
LINE
  5
4D4
  8
SIZE
  6
CONTINUOUS
 62
    30
 10
-845.82376699999986
 20
-85.0
 30
0.0
 11
-845.82376699999986
 21
-97.0
 31
0.0
  0
CIRCLE
  5
4D5
  8
SIZE
  6
CONTINUOUS
 62
    30
 10
-845.82376699999986
 20
-227.0
 30
0.0
 40
6.0
  0
LINE
  5
4D6
  8
SIZE
  6
CONTINUOUS
 62
    30
 10
-845.82376699999986
 20
-227.0
 30
0.0
 11
-845.82376699999986
 21
-215.0
 31
0.0
  0
LINE
  5
4D7
  8
SIZE
  6
CONTINUOUS
 62
    30
 10
-665.0
 20
-76.0
 30
0.0
 11
-987.29904599999998
 21
-76.0
 31
0.0
  0
LINE
  5
4D8
  8
SIZE
  6
CONTINUOUS
 62
    30
 10
-665.0
 20
-236.0
 30
0.0
 11
-987.29904599999998
 21
-236.0
 31
0.0
  0
LINE
  5
4D9
  8
SIZE
  6
CONTINUOUS
 62
    30
 10
-967.2990460000002
 20
-88.0
 30
0.0
 11
-967.2990460000002
 21
-224.0
 31
0.0
  0
LINE
  5
4DA
  8
SIZE
  6
CONTINUOUS
 62
    30
 10
-967.2990460000002
 20
247.284111
 30
0.0
 11
-967.2990460000002
 21
-76.0
 31
0.0
  0
TEXT
  5
4DB
  8
SIZE
  6
CONTINUOUS
 62
    30
 10
-992.2990460000002
 20
18.764110428571339
 30
0.0
 40
64.0
  1
âË160
 50
90.0
 41
0.9
 72
     1
 11
-992.2990460000002
 21
127.65553899999991
 31
0.0
  0
CIRCLE
  5
4DC
  8
SIZE
  6
CONTINUOUS
 62
    30
 10
-967.2990460000002
 20
-76.0
 30
0.0
 40
6.0
  0
LINE
  5
4DD
  8
SIZE
  6
CONTINUOUS
 62
    30
 10
-967.2990460000002
 20
-76.0
 30
0.0
 11
-967.2990460000002
 21
-88.0
 31
0.0
  0
CIRCLE
  5
4DE
  8
SIZE
  6
CONTINUOUS
 62
    30
 10
-967.2990460000002
 20
-236.0
 30
0.0
 40
6.0
  0
LINE
  5
4DF
  8
SIZE
  6
CONTINUOUS
 62
    30
 10
-967.2990460000002
 20
-236.0
 30
0.0
 11
-967.2990460000002
 21
-224.0
 31
0.0
  0
LINE
  5
4E0
  8
SIZE
  6
CONTINUOUS
 62
    30
 10
-655.0
 20
-55.0
 30
0.0
 11
-1107.1420000000001
 21
-55.0
 31
0.0
  0
LINE
  5
4E1
  8
SIZE
  6
CONTINUOUS
 62
    30
 10
-655.0
 20
-257.0
 30
0.0
 11
-1107.1420000000001
 21
-257.0
 31
0.0
  0
LINE
  5
4E2
  8
SIZE
  6
CONTINUOUS
 62
    30
 10
-1087.1420000000001
 20
-67.0
 30
0.0
 11
-1087.1420000000001
 21
-245.0
 31
0.0
  0
LINE
  5
4E3
  8
SIZE
  6
CONTINUOUS
 62
    30
 10
-1087.1420000000001
 20
252.76982499999991
 30
0.0
 11
-1087.1420000000001
 21
-55.0
 31
0.0
  0
TEXT
  5
4E4
  8
SIZE
  6
CONTINUOUS
 62
    30
 10
-1112.1420000000001
 20
13.27839614285706
 30
0.0
 40
64.0
  1
âË202
 50
90.0
 41
0.9
 72
     1
 11
-1112.1420000000001
 21
127.65553899999991
 31
0.0
  0
CIRCLE
  5
4E5
  8
SIZE
  6
CONTINUOUS
 62
    30
 10
-1087.1420000000001
 20
-55.0
 30
0.0
 40
6.0
  0
LINE
  5
4E6
  8
SIZE
  6
CONTINUOUS
 62
    30
 10
-1087.1420000000001
 20
-55.0
 30
0.0
 11
-1087.1420000000001
 21
-67.0
 31
0.0
  0
CIRCLE
  5
4E7
  8
SIZE
  6
CONTINUOUS
 62
    30
 10
-1087.1420000000001
 20
-257.0
 30
0.0
 40
6.0
  0
LINE
  5
4E8
  8
SIZE
  6
CONTINUOUS
 62
    30
 10
-1087.1420000000001
 20
-257.0
 30
0.0
 11
-1087.1420000000001
 21
-245.0
 31
0.0
  0
LINE
  5
4E9
  8
SIZE
  6
CONTINUOUS
 62
    30
 10
-234.73387099999991
 20
0.0
 30
0.0
 11
-449.36324999999999
 21
0.0
 31
0.0
  0
LINE
  5
4EA
  8
SIZE
  6
CONTINUOUS
 62
    30
 10
-214.73387099999999
 20
-17.5
 30
0.0
 11
-449.36324999999999
 21
-17.5
 31
0.0
  0
LINE
  5
4EB
  8
SIZE
  6
CONTINUOUS
 62
    30
 10
-429.36324999999999
 20
12.0
 30
0.0
 11
-429.36324999999999
 21
24.0
 31
0.0
  0
LINE
  5
4EC
  8
SIZE
  6
CONTINUOUS
 62
    30
 10
-429.36324999999999
 20
-29.5
 30
0.0
 11
-429.36324999999999
 21
-41.5
 31
0.0
  0
LINE
  5
4ED
  8
SIZE
  6
CONTINUOUS
 62
    30
 10
-429.36324999999999
 20
242.74040099999999
 30
0.0
 11
-429.36324999999999
 21
0.0
 31
0.0
  0
TEXT
  5
4EE
  8
SIZE
  6
CONTINUOUS
 62
    30
 10
-454.36324999999999
 20
53.168972714285722
 30
0.0
 40
64.0
  1
17.5
 50
90.0
 41
0.9
 72
     1
 11
-454.36324999999999
 21
135.45468700000001
 31
0.0
  0
LINE
  5
4EF
  8
SIZE
  6
CONTINUOUS
 62
    30
 10
-429.36324999999999
 20
0.0
 30
0.0
 11
-429.36324999999999
 21
-17.5
 31
0.0
  0
LINE
  5
4F0
  8
SIZE
  6
CONTINUOUS
 62
    30
 10
-429.36324999999999
 20
0.0
 30
0.0
 11
-429.36324999999999
 21
-17.5
 31
0.0
  0
CIRCLE
  5
4F1
  8
SIZE
  6
CONTINUOUS
 62
    30
 10
-429.36324999999999
 20
0.0
 30
0.0
 40
6.0
  0
LINE
  5
4F2
  8
SIZE
  6
CONTINUOUS
 62
    30
 10
-429.36324999999999
 20
0.0
 30
0.0
 11
-429.36324999999999
 21
12.0
 31
0.0
  0
CIRCLE
  5
4F3
  8
SIZE
  6
CONTINUOUS
 62
    30
 10
-429.36324999999999
 20
-17.5
 30
0.0
 40
6.0
  0
LINE
  5
4F4
  8
SIZE
  6
CONTINUOUS
 62
    30
 10
-429.36324999999999
 20
-17.5
 30
0.0
 11
-429.36324999999999
 21
-29.5
 31
0.0
  0
LINE
  5
4F5
  8
SIZE
  6
CONTINUOUS
 62
    30
 10
325.0
 20
-85.0
 30
0.0
 11
610.65305699999999
 21
-85.0
 31
0.0
  0
LINE
  5
4F6
  8
SIZE
  6
CONTINUOUS
 62
    30
 10
325.0
 20
-227.0
 30
0.0
 11
610.65305699999999
 21
-227.0
 31
0.0
  0
LINE
  5
4F7
  8
SIZE
  6
CONTINUOUS
 62
    30
 10
590.65305699999999
 20
-97.0
 30
0.0
 11
590.65305699999999
 21
-215.0
 31
0.0
  0
LINE
  5
4F8
  8
SIZE
  6
CONTINUOUS
 62
    30
 10
590.65305699999999
 20
-530.701099
 30
0.0
 11
590.65305699999999
 21
-227.0
 31
0.0
  0
TEXT
  5
4F9
  8
SIZE
  6
CONTINUOUS
 62
    30
 10
565.65305699999999
 20
-519.9639555714283
 30
0.0
 40
64.0
  1
âË142
 50
90.0
 41
0.9
 72
     1
 11
565.65305699999999
 21
-411.07252699999992
 31
0.0
  0
CIRCLE
  5
4FA
  8
SIZE
  6
CONTINUOUS
 62
    30
 10
590.65305699999999
 20
-85.0
 30
0.0
 40
6.0
  0
LINE
  5
4FB
  8
SIZE
  6
CONTINUOUS
 62
    30
 10
590.65305699999999
 20
-85.0
 30
0.0
 11
590.65305699999999
 21
-97.0
 31
0.0
  0
CIRCLE
  5
4FC
  8
SIZE
  6
CONTINUOUS
 62
    30
 10
590.65305699999999
 20
-227.0
 30
0.0
 40
6.0
  0
LINE
  5
4FD
  8
SIZE
  6
CONTINUOUS
 62
    30
 10
590.65305699999999
 20
-227.0
 30
0.0
 11
590.65305699999999
 21
-215.0
 31
0.0
  0
LINE
  5
4FE
  8
SIZE
  6
CONTINUOUS
 62
    30
 10
255.26612900000001
 20
0.0
 30
0.0
 11
732.52456500000005
 21
0.0
 31
0.0
  0
LINE
  5
4FF
  8
SIZE
  6
CONTINUOUS
 62
    30
 10
255.0
 20
-257.0
 30
0.0
 11
732.52456500000005
 21
-257.0
 31
0.0
  0
LINE
  5
500
  8
SIZE
  6
CONTINUOUS
 62
    30
 10
712.52456500000005
 20
-12.0
 30
0.0
 11
712.52456500000005
 21
-245.0
 31
0.0
  0
CIRCLE
  5
501
  8
SIZE
  6
CONTINUOUS
 62
    30
 10
712.52456500000005
 20
0.0
 30
0.0
 40
6.0
  0
LINE
  5
502
  8
SIZE
  6
CONTINUOUS
 62
    30
 10
712.52456500000005
 20
0.0
 30
0.0
 11
712.52456500000005
 21
-12.0
 31
0.0
  0
CIRCLE
  5
503
  8
SIZE
  6
CONTINUOUS
 62
    30
 10
712.52456500000005
 20
-257.0
 30
0.0
 40
6.0
  0
LINE
  5
504
  8
SIZE
  6
CONTINUOUS
 62
    30
 10
712.52456500000005
 20
-257.0
 30
0.0
 11
712.52456500000005
 21
-245.0
 31
0.0
  0
TEXT
  5
505
  8
SIZE
  6
CONTINUOUS
 62
    30
 10
687.52456500000005
 20
-202.55714285714259
 30
0.0
 40
64.0
  1
257
 50
90.0
 41
0.9
 72
     1
 11
687.52456500000005
 21
-128.4999999999998
 31
0.0
  0
LINE
  5
506
  8
SIZE
  6
CONTINUOUS
 62
    30
 10
24.0
 20
-310.0
 30
0.0
 11
24.0
 21
-596.95679400000006
 31
0.0
  0
LINE
  5
507
  8
SIZE
  6
CONTINUOUS
 62
    30
 10
-74.0
 20
-310.0
 30
0.0
 11
-74.0
 21
-596.95679400000006
 31
0.0
  0
LINE
  5
508
  8
SIZE
  6
CONTINUOUS
 62
    30
 10
12.0
 20
-576.95679399999995
 30
0.0
 11
-62.0
 21
-576.95679399999995
 31
0.0
  0
LINE
  5
509
  8
SIZE
  6
CONTINUOUS
 62
    30
 10
-435.83390400000002
 20
-576.95679399999995
 30
0.0
 11
-74.0
 21
-576.95679399999995
 31
0.0
  0
TEXT
  5
50A
  8
SIZE
  6
CONTINUOUS
 62
    30
 10
-425.09676042857109
 20
-551.95679399999995
 30
0.0
 40
64.0
  1
âË98
 41
0.9
 72
     1
 11
-338.14818899999972
 21
-551.95679399999995
 31
0.0
  0
CIRCLE
  5
50B
  8
SIZE
  6
CONTINUOUS
 62
    30
 10
24.0
 20
-576.95679399999995
 30
0.0
 40
6.0
  0
LINE
  5
50C
  8
SIZE
  6
CONTINUOUS
 62
    30
 10
24.0
 20
-576.95679399999995
 30
0.0
 11
12.0
 21
-576.95679399999995
 31
0.0
  0
CIRCLE
  5
50D
  8
SIZE
  6
CONTINUOUS
 62
    30
 10
-74.0
 20
-576.95679399999995
 30
0.0
 40
6.0
  0
LINE
  5
50E
  8
SIZE
  6
CONTINUOUS
 62
    30
 10
-74.0
 20
-576.95679399999995
 30
0.0
 11
-62.0
 21
-576.95679399999995
 31
0.0
  0
POINT
  5
50F
  8
DEFPOINTS
  6
CONTINUOUS
 62
    30
 10
24.0
 20
-290.0
 30
0.0
  0
LINE
  5
510
  8
SIZE
  6
CONTINUOUS
 62
    30
 10
0.0
 20
-343.48821099999992
 30
0.0
 11
0.0
 21
-477.3285399999998
 31
0.0
  0
LINE
  5
511
  8
SIZE
  6
CONTINUOUS
 62
    30
 10
-25.0
 20
-339.06331799999998
 30
0.0
 11
-25.0
 21
-477.3285399999998
 31
0.0
  0
LINE
  5
512
  8
SIZE
  6
CONTINUOUS
 62
    30
 10
12.0
 20
-457.32853999999992
 30
0.0
 11
24.0
 21
-457.32853999999992
 31
0.0
  0
LINE
  5
513
  8
SIZE
  6
CONTINUOUS
 62
    30
 10
-37.0
 20
-457.32853999999992
 30
0.0
 11
-49.0
 21
-457.32853999999992
 31
0.0
  0
LINE
  5
514
  8
SIZE
  6
CONTINUOUS
 62
    30
 10
-397.28517799999992
 20
-457.32853999999992
 30
0.0
 11
-25.0
 21
-457.32853999999992
 31
0.0
  0
TEXT
  5
515
  8
SIZE
  6
CONTINUOUS
 62
    30
 10
-372.28517842857138
 20
-432.32853999999992
 30
0.0
 40
64.0
  1
25
 41
0.9
 72
     1
 11
-325.65660700000001
 21
-432.32853999999992
 31
0.0
  0
LINE
  5
516
  8
SIZE
  6
CONTINUOUS
 62
    30
 10
0.0
 20
-457.32853999999992
 30
0.0
 11
-25.0
 21
-457.32853999999992
 31
0.0
  0
LINE
  5
517
  8
SIZE
  6
CONTINUOUS
 62
    30
 10
0.0
 20
-457.32853999999992
 30
0.0
 11
-25.0
 21
-457.32853999999992
 31
0.0
  0
CIRCLE
  5
518
  8
SIZE
  6
CONTINUOUS
 62
    30
 10
0.0
 20
-457.32853999999992
 30
0.0
 40
6.0
  0
LINE
  5
519
  8
SIZE
  6
CONTINUOUS
 62
    30
 10
0.0
 20
-457.32853999999992
 30
0.0
 11
12.0
 21
-457.32853999999992
 31
0.0
  0
CIRCLE
  5
51A
  8
SIZE
  6
CONTINUOUS
 62
    30
 10
-25.0
 20
-457.32853999999992
 30
0.0
 40
6.0
  0
LINE
  5
51B
  8
SIZE
  6
CONTINUOUS
 62
    30
 10
-25.0
 20
-457.32853999999992
 30
0.0
 11
-37.0
 21
-457.32853999999992
 31
0.0
  0
POINT
  5
51C
  8
DEFPOINTS
  6
CONTINUOUS
 62
    30
 10
0.0
 20
-323.48821099999998
 30
0.0
  0
POINT
  5
51D
  8
DEFPOINTS
  6
CONTINUOUS
 62
    30
 10
-25.0
 20
-319.06331799999992
 30
0.0
  0
LINE
  5
51E
  8
SIZE
  6
CONTINUOUS
 62
    30
 10
-156.99999600000001
 20
-268.0
 30
0.0
 11
-156.99999600000001
 21
-716.58505899999966
 31
0.0
  0
LINE
  5
51F
  8
SIZE
  6
CONTINUOUS
 62
    30
 10
107.000004
 20
-268.0
 30
0.0
 11
107.000004
 21
-716.58505899999966
 31
0.0
  0
LINE
  5
520
  8
SIZE
  6
CONTINUOUS
 62
    30
 10
-144.99999600000001
 20
-696.585059
 30
0.0
 11
95.000004000000004
 21
-696.585059
 31
0.0
  0
CIRCLE
  5
521
  8
SIZE
  6
CONTINUOUS
 62
    30
 10
-156.99999600000001
 20
-696.585059
 30
0.0
 40
6.0
  0
LINE
  5
522
  8
SIZE
  6
CONTINUOUS
 62
    30
 10
-156.99999600000001
 20
-696.585059
 30
0.0
 11
-144.99999600000001
 21
-696.585059
 31
0.0
  0
CIRCLE
  5
523
  8
SIZE
  6
CONTINUOUS
 62
    30
 10
107.000004
 20
-696.585059
 30
0.0
 40
6.0
  0
LINE
  5
524
  8
SIZE
  6
CONTINUOUS
 62
    30
 10
107.000004
 20
-696.585059
 30
0.0
 11
95.000004000000004
 21
-696.585059
 31
0.0
  0
TEXT
  5
525
  8
SIZE
  6
CONTINUOUS
 62
    30
 10
-140.74856742857139
 20
-671.585059
 30
0.0
 40
64.0
  1
âË264
 41
0.9
 72
     1
 11
-24.999995999999999
 21
-671.585059
 31
0.0
  0
LINE
  5
526
  8
SIZE
  6
CONTINUOUS
 62
    30
 10
255.26612900000001
 20
0.0
 30
0.0
 11
855.79002200000002
 21
0.0
 31
0.0
  0
LINE
  5
527
  8
SIZE
  6
CONTINUOUS
 62
    30
 10
250.00000299999991
 20
-290.0
 30
0.0
 11
855.79002200000002
 21
-290.0
 31
0.0
  0
LINE
  5
528
  8
SIZE
  6
CONTINUOUS
 62
    30
 10
835.79002200000014
 20
-12.0
 30
0.0
 11
835.79002200000014
 21
-278.0
 31
0.0
  0
CIRCLE
  5
529
  8
SIZE
  6
CONTINUOUS
 62
    30
 10
835.79002200000014
 20
0.0
 30
0.0
 40
6.0
  0
LINE
  5
52A
  8
SIZE
  6
CONTINUOUS
 62
    30
 10
835.79002200000014
 20
0.0
 30
0.0
 11
835.79002200000014
 21
-12.0
 31
0.0
  0
CIRCLE
  5
52B
  8
SIZE
  6
CONTINUOUS
 62
    30
 10
835.79002200000014
 20
-290.0
 30
0.0
 40
6.0
  0
LINE
  5
52C
  8
SIZE
  6
CONTINUOUS
 62
    30
 10
835.79002200000014
 20
-290.0
 30
0.0
 11
835.79002200000014
 21
-278.0
 31
0.0
  0
TEXT
  5
52D
  8
SIZE
  6
CONTINUOUS
 62
    30
 10
810.79002200000014
 20
-219.05714285714279
 30
0.0
 40
64.0
  1
290
 50
90.0
 41
0.9
 72
     1
 11
810.79002200000014
 21
-145.0
 31
0.0
  0
LINE
  5
52E
  8
SIZE
  6
CONTINUOUS
 62
    30
 10
-235.0
 20
-284.0
 30
0.0
 11
-235.0
 21
-838.682323
 31
0.0
  0
LINE
  5
52F
  8
SIZE
  6
CONTINUOUS
 62
    30
 10
235.0
 20
-284.0
 30
0.0
 11
235.0
 21
-838.682323
 31
0.0
  0
LINE
  5
530
  8
SIZE
  6
CONTINUOUS
 62
    30
 10
-223.0
 20
-818.68232299999988
 30
0.0
 11
223.0
 21
-818.68232299999988
 31
0.0
  0
CIRCLE
  5
531
  8
SIZE
  6
CONTINUOUS
 62
    30
 10
-235.0
 20
-818.68232299999988
 30
0.0
 40
6.0
  0
LINE
  5
532
  8
SIZE
  6
CONTINUOUS
 62
    30
 10
-235.0
 20
-818.68232299999988
 30
0.0
 11
-223.0
 21
-818.68232299999988
 31
0.0
  0
CIRCLE
  5
533
  8
SIZE
  6
CONTINUOUS
 62
    30
 10
235.0
 20
-818.68232299999988
 30
0.0
 40
6.0
  0
LINE
  5
534
  8
SIZE
  6
CONTINUOUS
 62
    30
 10
235.0
 20
-818.68232299999988
 30
0.0
 11
223.0
 21
-818.68232299999988
 31
0.0
  0
TEXT
  5
535
  8
SIZE
  6
CONTINUOUS
 62
    30
 10
-74.05714285714285
 20
-793.68232299999988
 30
0.0
 40
64.0
  1
470
 41
0.9
 72
     1
 11
0.0
 21
-793.68232299999988
 31
0.0
  0
LINE
  5
536
  8
SIZE
  6
CONTINUOUS
 62
    30
 10
-235.0
 20
-284.0
 30
0.0
 11
-235.0
 21
-838.682323
 31
0.0
  0
LINE
  5
537
  8
SIZE
  6
CONTINUOUS
 62
    30
 10
-705.0
 20
-247.0
 30
0.0
 11
-705.0
 21
-838.682323
 31
0.0
  0
LINE
  5
538
  8
SIZE
  6
CONTINUOUS
 62
    30
 10
-247.0
 20
-818.68232299999988
 30
0.0
 11
-693.0
 21
-818.68232299999988
 31
0.0
  0
CIRCLE
  5
539
  8
SIZE
  6
CONTINUOUS
 62
    30
 10
-235.0
 20
-818.68232299999988
 30
0.0
 40
6.0
  0
LINE
  5
53A
  8
SIZE
  6
CONTINUOUS
 62
    30
 10
-235.0
 20
-818.68232299999988
 30
0.0
 11
-247.0
 21
-818.68232299999988
 31
0.0
  0
CIRCLE
  5
53B
  8
SIZE
  6
CONTINUOUS
 62
    30
 10
-705.0
 20
-818.68232299999988
 30
0.0
 40
6.0
  0
LINE
  5
53C
  8
SIZE
  6
CONTINUOUS
 62
    30
 10
-705.0
 20
-818.68232299999988
 30
0.0
 11
-693.0
 21
-818.68232299999988
 31
0.0
  0
TEXT
  5
53D
  8
SIZE
  6
CONTINUOUS
 62
    30
 10
-544.05714285714282
 20
-793.68232299999988
 30
0.0
 40
64.0
  1
470
 41
0.9
 72
     1
 11
-470.0
 21
-793.68232299999988
 31
0.0
  0
LINE
  5
53E
  8
DETAIL
  6
CONTINUOUS
 62
     5
 10
-635.0
 20
-55.0
 30
0.0
 11
-635.0
 21
-257.0
 31
0.0
  0
LINE
  5
53F
  8
SIZE
  6
CONTINUOUS
 62
    30
 10
-705.0
 20
-247.0
 30
0.0
 11
-705.0
 21
-716.58505899999966
 31
0.0
  0
LINE
  5
540
  8
SIZE
  6
CONTINUOUS
 62
    30
 10
-635.0
 20
-277.0
 30
0.0
 11
-635.0
 21
-716.58505899999966
 31
0.0
  0
LINE
  5
541
  8
SIZE
  6
CONTINUOUS
 62
    30
 10
-717.0
 20
-696.585059
 30
0.0
 11
-729.0
 21
-696.585059
 31
0.0
  0
LINE
  5
543
  8
SIZE
  6
CONTINUOUS
 62
    30
 10
-876.93299600000023
 20
-696.585059
 30
0.0
 11
-705.0
 21
-696.585059
 31
0.0
  0
TEXT
  5
544
  8
SIZE
  6
CONTINUOUS
 62
    30
 10
-851.93299542857142
 20
-671.585059
 30
0.0
 40
64.0
  1
70
 41
0.9
 72
     1
 11
-805.30442400000004
 21
-671.585059
 31
0.0
  0
LINE
  5
545
  8
SIZE
  6
CONTINUOUS
 62
    30
 10
-705.0
 20
-696.585059
 30
0.0
 11
-635.0
 21
-696.585059
 31
0.0
  0
LINE
  5
546
  8
SIZE
  6
CONTINUOUS
 62
    30
 10
-705.0
 20
-696.585059
 30
0.0
 11
-635.0
 21
-696.585059
 31
0.0
  0
CIRCLE
  5
547
  8
SIZE
  6
CONTINUOUS
 62
    30
 10
-705.0
 20
-696.585059
 30
0.0
 40
6.0
  0
LINE
  5
548
  8
SIZE
  6
CONTINUOUS
 62
    30
 10
-705.0
 20
-696.585059
 30
0.0
 11
-717.0
 21
-696.585059
 31
0.0
  0
CIRCLE
  5
549
  8
SIZE
  6
CONTINUOUS
 62
    30
 10
-635.0
 20
-696.585059
 30
0.0
 40
6.0
  0
LINE
  5
54B
  8
SIZE
  6
CONTINUOUS
 62
    30
 10
305.0
 20
-247.0
 30
0.0
 11
305.0
 21
-838.682323
 31
0.0
  0
LINE
  5
54C
  8
SIZE
  6
CONTINUOUS
 62
    30
 10
235.0
 20
-284.0
 30
0.0
 11
235.0
 21
-838.682323
 31
0.0
  0
LINE
  5
54D
  8
SIZE
  6
CONTINUOUS
 62
    30
 10
317.0
 20
-818.68232299999988
 30
0.0
 11
329.0
 21
-818.68232299999988
 31
0.0
  0
LINE
  5
54E
  8
SIZE
  6
CONTINUOUS
 62
    30
 10
223.0
 20
-818.68232299999988
 30
0.0
 11
211.0
 21
-818.68232299999988
 31
0.0
  0
LINE
  5
54F
  8
SIZE
  6
CONTINUOUS
 62
    30
 10
480.47700400000002
 20
-818.68232299999988
 30
0.0
 11
305.0
 21
-818.68232299999988
 31
0.0
  0
TEXT
  5
550
  8
SIZE
  6
CONTINUOUS
 62
    30
 10
362.21986057142851
 20
-793.68232299999988
 30
0.0
 40
64.0
  1
70
 41
0.9
 72
     1
 11
408.848432
 21
-793.68232299999988
 31
0.0
  0
LINE
  5
551
  8
SIZE
  6
CONTINUOUS
 62
    30
 10
305.0
 20
-818.68232299999988
 30
0.0
 11
235.0
 21
-818.68232299999988
 31
0.0
  0
LINE
  5
552
  8
SIZE
  6
CONTINUOUS
 62
    30
 10
305.0
 20
-818.68232299999988
 30
0.0
 11
235.0
 21
-818.68232299999988
 31
0.0
  0
CIRCLE
  5
553
  8
SIZE
  6
CONTINUOUS
 62
    30
 10
305.0
 20
-818.68232299999988
 30
0.0
 40
6.0
  0
LINE
  5
554
  8
SIZE
  6
CONTINUOUS
 62
    30
 10
305.0
 20
-818.68232299999988
 30
0.0
 11
317.0
 21
-818.68232299999988
 31
0.0
  0
CIRCLE
  5
555
  8
SIZE
  6
CONTINUOUS
 62
    30
 10
235.0
 20
-818.68232299999988
 30
0.0
 40
6.0
  0
LINE
  5
556
  8
SIZE
  6
CONTINUOUS
 62
    30
 10
235.0
 20
-818.68232299999988
 30
0.0
 11
223.0
 21
-818.68232299999988
 31
0.0
  0
LINE
  5
557
  8
NOTE
  6
CONTINUOUS
 62
     4
 39
50.0
 10
200.0
 20
-17.5
 30
0.0
 11
396.89009499999992
 21
166.87400999999991
 31
0.0
  0
LINE
  5
558
  8
NOTE
  6
CONTINUOUS
 62
     4
 10
235.40785099999991
 20
1.1087100000000001
 30
0.0
 11
200.0
 21
-17.5
 31
0.0
  0
LINE
  5
559
  8
NOTE
  6
CONTINUOUS
 62
     4
 10
200.0
 20
-17.5
 30
0.0
 11
221.35974300000001
 21
16.319541000000001
 31
0.0
  0
LINE
  5
55A
  8
DETAIL
  6
CONTINUOUS
 62
     5
 10
235.0
 20
-257.0
 30
0.0
 11
230.00000299999999
 21
-257.0
 31
0.0
  0
LINE
  5
55B
  8
DETAIL
  6
CONTINUOUS
 62
     5
 10
-235.0
 20
-257.0
 30
0.0
 11
-230.00000299999999
 21
-257.0
 31
0.0
  0
LINE
  5
55C
  8
OUTLINE
  6
CONTINUOUS
 62
     3
 10
-250.0
 20
0.0
 30
0.0
 11
250.0
 21
0.0
 31
0.0
  0
LINE
  5
55D
  8
OUTLINE
  6
CONTINUOUS
 62
     3
 10
250.0
 20
0.0
 30
0.0
 11
250.0
 21
-235.0
 31
0.0
  0
LINE
  5
55E
  8
OUTLINE
  6
CONTINUOUS
 62
     3
 10
-242.0
 20
-243.0
 30
0.0
 11
242.0
 21
-243.0
 31
0.0
  0
LINE
  5
55F
  8
OUTLINE
  6
CONTINUOUS
 62
     3
 10
-250.0
 20
-235.0
 30
0.0
 11
-250.0
 21
0.0
 31
0.0
  0
ARC
  5
560
  8
OUTLINE
  6
CONTINUOUS
 62
     3
 10
-242.0
 20
-235.0
 30
0.0
 40
8.0
 50
180.0
 51
270.0
  0
ARC
  5
561
  8
OUTLINE
  6
CONTINUOUS
 62
     3
 10
242.0
 20
-235.0
 30
0.0
 40
8.0
 50
270.0
 51
0.0
  0
CIRCLE
  5
562
  8
ARRANGE
  6
CONTINUOUS
 62
     1
 39
50.0
 10
0.0
 20
0.0
 30
0.0
 40
40.0
  0
POINT
  5
563
  8
ARRANGE
  6
CONTINUOUS
 62
     1
 10
0.0
 20
0.0
 30
0.0
 39
50.0
  0
TEXT
  5
564
  8
ETC
  6
CONTINUOUS
 62
    61
 10
666.99996366092455
 20
397.92396070148561
 30
0.0
 40
50.0
  1
V-23ZMSQ2
 41
0.9
  0
TEXT
  5
565
  8
ETC
  6
CONTINUOUS
 62
    61
 10
531.22928659741206
 20
589.23941783451244
 30
0.0
 40
64.0
  1
V-23ZMSQ2_5
 41
0.9
  0
TEXT
  5
566
  8
ETC
  6
CONTINUOUS
 62
    61
 10
525.07439159741239
 20
485.87419183451237
 30
0.0
 40
64.0
  1
èÀïCÉ¯
 41
0.9
  0
CIRCLE
  5
567
  8
SIZE
  6
CONTINUOUS
 62
    30
 39
50.0
 10
305.0
 20
263.07789700000001
 30
0.0
 40
6.0
  0
TEXT
  5
568
  8
SIZE
  6
CONTINUOUS
 62
    30
 10
233.06908827158441
 20
281.30280286063942
 30
0.0
 40
64.0
  1
55
 41
0.9
  0
ENDSEC
  0
EOF
