  0
SECTION
  2
HEADER
  9
$ACADVER
  1
AC1009
  9
$INSBASE
 10
0.0
 20
0.0
 30
0.0
  9
$EXTMIN
 10
-833.36852299999998
 20
-976.36440000000005
 30
0.0
  9
$EXTMAX
 10
1102.6555495714281
 20
1162.5823129533351
 30
50.0
  9
$LIMMIN
 10
-2970.0
 20
-2100.0
  9
$LIMMAX
 10
2970.0
 20
2100.0
  9
$ORTHOMODE
 70
     1
  9
$REGENMODE
 70
     0
  9
$FILLMODE
 70
     1
  9
$QTEXTMODE
 70
     0
  9
$MIRRTEXT
 70
     0
  9
$DRAGMODE
 70
     2
  9
$LTSCALE
 40
20.0
  9
$OSMODE
 70
   175
  9
$ATTMODE
 70
     1
  9
$TEXTSIZE
 40
64.0
  9
$TRACEWID
 40
0.05
  9
$TEXTSTYLE
  7
STANDARD
  9
$CLAYER
  8
SIZE
  9
$CELTYPE
  6
CONTINUOUS
  9
$CECOLOR
 62
    30
  9
$DIMSCALE
 40
1.0
  9
$DIMASZ
 40
12.0
  9
$DIMEXO
 40
20.0
  9
$DIMDLI
 40
200.0
  9
$DIMRND
 40
0.0
  9
$DIMDLE
 40
0.0
  9
$DIMEXE
 40
20.0
  9
$DIMTP
 40
0.0
  9
$DIMTM
 40
0.0
  9
$DIMTXT
 40
64.0
  9
$DIMCEN
 40
0.09
  9
$DIMTSZ
 40
0.0
  9
$DIMTOL
 70
     0
  9
$DIMLIM
 70
     0
  9
$DIMTIH
 70
     0
  9
$DIMTOH
 70
     0
  9
$DIMSE1
 70
     0
  9
$DIMSE2
 70
     0
  9
$DIMTAD
 70
     1
  9
$DIMZIN
 70
     8
  9
$DIMBLK
  1
NONE
  9
$DIMASO
 70
     1
  9
$DIMSHO
 70
     0
  9
$DIMPOST
  1

  9
$DIMAPOST
  1

  9
$DIMALT
 70
     0
  9
$DIMALTD
 70
     2
  9
$DIMALTF
 40
25.399999999999999
  9
$DIMLFAC
 40
1.0
  9
$DIMTOFL
 70
     1
  9
$DIMTVP
 40
0.0
  9
$DIMTIX
 70
     1
  9
$DIMSOXD
 70
     0
  9
$DIMSAH
 70
     0
  9
$DIMBLK1
  1

  9
$DIMBLK2
  1

  9
$DIMSTYLE
  2
STANDARD
  9
$DIMCLRD
 70
     0
  9
$DIMCLRE
 70
     0
  9
$DIMCLRT
 70
     0
  9
$DIMTFAC
 40
1.0
  9
$DIMGAP
 40
25.0
  9
$LUNITS
 70
     2
  9
$LUPREC
 70
     4
  9
$SKETCHINC
 40
0.1
  9
$FILLETRAD
 40
4.0
  9
$AUNITS
 70
     1
  9
$AUPREC
 70
     3
  9
$MENU
  1
ACAD
  9
$ELEVATION
 40
0.0
  9
$PELEVATION
 40
0.0
  9
$THICKNESS
 40
50.0
  9
$LIMCHECK
 70
     0
  9
$BLIPMODE
 70
     0
  9
$CHAMFERA
 40
0.0
  9
$CHAMFERB
 40
0.0
  9
$SKPOLY
 70
     0
  9
$TDCREATE
 40
2452321.3961996529
  9
$TDUPDATE
 40
2453778.6787463771
  9
$TDINDWG
 40
0.3776493519
  9
$TDUSRTIMER
 40
0.3776493519
  9
$USRTIMER
 70
     1
  9
$ANGBASE
 50
0.0
  9
$ANGDIR
 70
     0
  9
$PDMODE
 70
     3
  9
$PDSIZE
 40
-2.0
  9
$PLINEWID
 40
0.0
  9
$COORDS
 70
     2
  9
$SPLFRAME
 70
     0
  9
$SPLINETYPE
 70
     6
  9
$SPLINESEGS
 70
     8
  9
$ATTDIA
 70
     0
  9
$ATTREQ
 70
     1
  9
$HANDLING
 70
 22529
  9
$HANDSEED
  5
6D1
  9
$SURFTAB1
 70
     6
  9
$SURFTAB2
 70
     6
  9
$SURFTYPE
 70
     6
  9
$SURFU
 70
     6
  9
$SURFV
 70
     6
  9
$UCSNAME
  2

  9
$UCSORG
 10
0.0
 20
0.0
 30
0.0
  9
$UCSXDIR
 10
1.0
 20
0.0
 30
0.0
  9
$UCSYDIR
 10
0.0
 20
1.0
 30
0.0
  9
$PUCSNAME
  2

  9
$PUCSORG
 10
0.0
 20
0.0
 30
0.0
  9
$PUCSXDIR
 10
1.0
 20
0.0
 30
0.0
  9
$PUCSYDIR
 10
0.0
 20
1.0
 30
0.0
  9
$USERI1
 70
     0
  9
$USERI2
 70
     0
  9
$USERI3
 70
     0
  9
$USERI4
 70
     0
  9
$USERI5
 70
     0
  9
$USERR1
 40
20.0
  9
$USERR2
 40
0.0
  9
$USERR3
 40
0.0
  9
$USERR4
 40
0.0
  9
$USERR5
 40
0.0
  9
$WORLDVIEW
 70
     1
  9
$SHADEDGE
 70
     3
  9
$SHADEDIF
 70
    70
  9
$TILEMODE
 70
     1
  9
$MAXACTVP
 70
    64
  9
$PLIMCHECK
 70
     0
  9
$PEXTMIN
 10
1.0000000000000000E+020
 20
1.0000000000000000E+020
 30
1.0000000000000000E+020
  9
$PEXTMAX
 10
-1.0000000000000000E+020
 20
-1.0000000000000000E+020
 30
-1.0000000000000000E+020
  9
$PLIMMIN
 10
0.0
 20
0.0
  9
$PLIMMAX
 10
12.0
 20
9.0
  9
$UNITMODE
 70
     0
  9
$VISRETAIN
 70
     1
  9
$PLINEGEN
 70
     0
  9
$PSLTSCALE
 70
     1
  0
ENDSEC
  0
SECTION
  2
TABLES
  0
TABLE
  2
VPORT
 70
     3
  0
VPORT
  2
*ACTIVE
 70
     0
 10
0.0
 20
0.0
 11
1.0
 21
1.0
 12
-21.526322999998449
 22
99.867864269351685
 13
0.0
 23
0.0
 14
1.0
 24
1.0
 15
0.0
 25
0.0
 16
0.0
 26
0.0
 36
1.0
 17
0.0
 27
0.0
 37
0.0
 40
2474.2368478550029
 41
1.447268106734434
 42
50.0
 43
0.0
 44
0.0
 50
0.0
 51
0.0
 71
     0
 72
   100
 73
     1
 74
     0
 75
     0
 76
     0
 77
     0
 78
     0
  0
ENDTAB
  0
TABLE
  2
LTYPE
 70
     2
  0
LTYPE
  2
CONTINUOUS
 70
     0
  3
Ä└É³
 72
    65
 73
     0
 40
0.0
  0
LTYPE
  2
DASHDOT
 70
     0
  3
____ _ ____ _ ____ _ ____ _ ____ _ ____ _ ____
 72
    65
 73
     4
 40
5.5
 49
4.0
 49
-0.6
 49
0.3
 49
-0.6
  0
ENDTAB
  0
TABLE
  2
LAYER
 70
    12
  0
LAYER
  2
0
 70
     0
 62
     7
  6
CONTINUOUS
  0
LAYER
  2
SIZE
 70
     0
 62
    30
  6
CONTINUOUS
  0
LAYER
  2
OUTLINE
 70
     0
 62
     3
  6
CONTINUOUS
  0
LAYER
  2
BASIS
 70
     0
 62
     6
  6
DASHDOT
  0
LAYER
  2
DETAIL
 70
     0
 62
     5
  6
CONTINUOUS
  0
LAYER
  2
ARRANGE
 70
     0
 62
     1
  6
CONTINUOUS
  0
LAYER
  2
DEFPOINTS
 70
     0
 62
     7
  6
CONTINUOUS
  0
LAYER
  2
ETC
 70
     0
 62
    61
  6
CONTINUOUS
  0
LAYER
  2
FIX
 70
     0
 62
    11
  6
CONTINUOUS
  0
LAYER
  2
NOTE
 70
     0
 62
     4
  6
CONTINUOUS
  0
LAYER
  2
SERVICESPACE
 70
     0
 62
     2
  6
DASHDOT
  0
LAYER
  2
SYMBOLLINE
 70
     0
 62
    15
  6
CONTINUOUS
  0
ENDTAB
  0
TABLE
  2
STYLE
 70
     1
  0
STYLE
  2
STANDARD
 70
     0
 40
64.0
 41
0.9
 50
0.0
 71
     0
 42
64.0
  3
SIMPLEX.shx
  4
BIGFONT.shx
  0
ENDTAB
  0
TABLE
  2
VIEW
 70
     1
  0
VIEW
  2
ALL
 70
     0
 40
4282.6198079999967
 10
0.0
 20
41.309903999999989
 41
5940.0
 11
0.0
 21
0.0
 31
1.0
 12
0.0
 22
0.0
 32
0.0
 42
50.0
 43
0.0
 44
0.0
 50
0.0
 71
     0
  0
ENDTAB
  0
TABLE
  2
UCS
 70
     0
  0
ENDTAB
  0
TABLE
  2
APPID
 70
     1
  0
APPID
  2
ACAD
 70
     0
  0
ENDTAB
  0
TABLE
  2
DIMSTYLE
 70
     1
  0
DIMSTYLE
  2
STANDARD
 70
     0
  3

  4

  5

  6

  7

 40
1.0
 41
0.18
 42
0.0625
 43
0.38
 44
0.18
 45
0.0
 46
0.0
 47
0.0
 48
0.0
140
0.18
141
0.09
142
0.0
143
25.399999999999999
144
1.0
145
0.0
146
1.0
147
0.09
 71
     0
 72
     0
 73
     1
 74
     1
 75
     0
 76
     0
 77
     0
 78
     0
170
     0
171
     2
172
     0
173
     0
174
     0
175
     0
176
     0
177
     0
178
     0
  0
ENDTAB
  0
ENDSEC
  0
SECTION
  2
BLOCKS
  0
BLOCK
  8
0
  2
$MODEL_SPACE
 70
     0
 10
0.0
 20
0.0
 30
0.0
  3
$MODEL_SPACE
  1

  0
ENDBLK
  5
562
  8
0
  0
BLOCK
 67
     1
  8
0
  2
$PAPER_SPACE
 70
     0
 10
0.0
 20
0.0
 30
0.0
  3
$PAPER_SPACE
  1

  0
ENDBLK
  5
55E
 67
     1
  8
0
  0
BLOCK
  8
0
  2
DOT1
 70
     0
 10
0.0
 20
0.0
 30
0.0
  3
DOT1
  1

  0
CIRCLE
  5
57D
  8
SIZE
  6
CONTINUOUS
 62
     7
 10
0.0
 20
0.0
 30
0.0
 40
3.0
  0
ENDBLK
  5
57E
  8
0
  0
BLOCK
  8
0
  2
_ORIGIN
 70
     0
 10
0.0
 20
0.0
 30
0.0
  3
_ORIGIN
  1

  0
CIRCLE
  5
581
  8
0
  6
CONTINUOUS
 62
     7
 10
0.0
 20
0.0
 30
0.0
 40
0.5
  0
LINE
  5
582
  8
0
  6
CONTINUOUS
 62
     7
 10
0.0
 20
0.0
 30
0.0
 11
-1.0
 21
0.0
 31
0.0
  0
ENDBLK
  5
583
  8
0
  0
BLOCK
  8
0
 62
    30
  2
_NONE
 70
     0
 10
0.0
 20
0.0
 30
0.0
  3
_NONE
  1

  0
ENDBLK
  5
586
  8
0
 62
    30
  0
BLOCK
  8
0
 62
    30
  2
_OPEN30
 70
     0
 10
0.0
 20
0.0
 30
0.0
  3
_OPEN30
  1

  0
LINE
  5
589
  8
0
  6
BYBLOCK
 62
     0
 10
-1.0
 20
0.26794919
 30
0.0
 11
0.0
 21
0.0
 31
0.0
  0
LINE
  5
58A
  8
0
  6
BYBLOCK
 62
     0
 10
0.0
 20
0.0
 30
0.0
 11
-1.0
 21
-0.26794919
 31
0.0
  0
LINE
  5
58B
  8
0
  6
BYBLOCK
 62
     0
 10
0.0
 20
0.0
 30
0.0
 11
-1.0
 21
0.0
 31
0.0
  0
ENDBLK
  5
58C
  8
0
 62
    30
  0
BLOCK
  8
0
 62
    30
  2
*D6
 70
     1
 10
0.0
 20
0.0
 30
0.0
  3
*D6
  1

  0
LINE
  5
58F
  8
SIZE
  6
CONTINUOUS
 62
     0
 10
-180.0
 20
-250.0
 30
0.0
 11
-445.04679168981238
 21
-249.99999999999989
 31
0.0
  0
LINE
  5
590
  8
SIZE
  6
CONTINUOUS
 62
     0
 10
-136.0
 20
-319.99999999999972
 30
0.0
 11
-445.04679168981238
 21
-319.99999999999972
 31
0.0
  0
LINE
  5
591
  8
SIZE
  6
CONTINUOUS
 62
     0
 10
-425.04679168981238
 20
-249.99999999999989
 30
0.0
 11
-425.04679168981238
 21
-237.99999999999989
 31
0.0
  0
LINE
  5
592
  8
SIZE
  6
CONTINUOUS
 62
     0
 10
-425.04679168981238
 20
-319.99999999999972
 30
0.0
 11
-425.04679168981238
 21
-331.99999999999972
 31
0.0
  0
LINE
  5
593
  8
SIZE
  6
CONTINUOUS
 62
     0
 10
-425.04679168981238
 20
-249.99999999999989
 30
0.0
 11
-425.04679168981238
 21
-319.99999999999972
 31
0.0
  0
TEXT
  5
594
  8
OUTLINE
  6
CONTINUOUS
 62
     0
 10
-445.04679168981232
 20
-331.62857142857121
 30
0.0
 40
64.0
  1
70
 50
90.0
 41
0.9
  0
POINT
  5
595
  8
DEFPOINTS
  6
CONTINUOUS
 62
     0
 10
-160.0
 20
-250.0
 30
0.0
  0
POINT
  5
596
  8
DEFPOINTS
  6
CONTINUOUS
 62
     0
 10
-116.0
 20
-320.0
 30
0.0
  0
POINT
  5
597
  8
DEFPOINTS
  6
CONTINUOUS
 62
     0
 10
-425.04679168981238
 20
-319.99999999999972
 30
0.0
  0
ENDBLK
  5
598
  8
0
 62
    30
  0
BLOCK
  8
0
 62
    30
  2
*D7
 70
     1
 10
0.0
 20
0.0
 30
0.0
  3
*D7
  1

  0
LINE
  5
59B
  8
SIZE
  6
CONTINUOUS
 62
     0
 10
245.0
 20
-280.0
 30
0.0
 11
540.31797676655685
 21
-280.0
 31
0.0
  0
LINE
  5
59C
  8
SIZE
  6
CONTINUOUS
 62
     0
 10
245.0
 20
170.0
 30
0.0
 11
540.31797676655685
 21
169.9999999999998
 31
0.0
  0
LINE
  5
59D
  8
SIZE
  6
CONTINUOUS
 62
     0
 10
520.31797676655685
 20
-280.0
 30
0.0
 11
520.31797676655685
 21
169.9999999999998
 31
0.0
  0
TEXT
  5
59E
  8
SIZE
  6
CONTINUOUS
 62
     0
 10
495.3179767665568
 20
-129.05714285714279
 30
0.0
 40
64.0
  1
450
 50
90.0
 41
0.9
  0
POINT
  5
59F
  8
DEFPOINTS
  6
CONTINUOUS
 62
     0
 10
225.0
 20
-280.0
 30
0.0
  0
POINT
  5
5A0
  8
DEFPOINTS
  6
CONTINUOUS
 62
     0
 10
225.0
 20
170.0
 30
0.0
  0
POINT
  5
5A1
  8
DEFPOINTS
  6
CONTINUOUS
 62
     0
 10
520.31797676655685
 20
169.9999999999998
 30
0.0
  0
ENDBLK
  5
5A2
  8
0
 62
    30
  0
ENDSEC
  0
SECTION
  2
ENTITIES
  0
LINE
  5
5A3
  8
BASIS
  6
DASHDOT
 62
     6
 10
0.0
 20
-386.66412300000002
 30
0.0
 11
0.0
 21
835.25945999999988
 31
0.0
  0
LINE
  5
5A4
  8
BASIS
  6
DASHDOT
 62
     6
 10
-206.78192599999991
 20
0.0
 30
0.0
 11
203.48821100000001
 21
0.000004
 31
0.0
  0
CIRCLE
  5
5A5
  8
ARRANGE
  6
CONTINUOUS
 62
     1
 10
0.0
 20
0.0
 30
0.0
 40
40.0
  0
POINT
  5
5A6
  8
ARRANGE
  6
CONTINUOUS
 62
     1
 10
0.0
 20
0.0
 30
0.0
  0
TEXT
  5
5A7
  8
ETC
  6
CONTINUOUS
 62
    61
 10
496.48412100000002
 20
1034.01
 30
0.0
 40
64.0
  1
V-25ZMSQ2_1
 41
0.9
  0
TEXT
  5
5A8
  8
ETC
  6
CONTINUOUS
 62
    61
 10
490.32922599999989
 20
930.64470500000004
 30
0.0
 40
64.0
  1
èÀïCÉ¯
 41
0.9
  0
LINE
  5
5A9
  8
DETAIL
  6
CONTINUOUS
 62
     5
 10
-160.0
 20
250.0
 30
0.0
 11
-160.0
 21
-250.0
 31
0.0
  0
LINE
  5
5AA
  8
DETAIL
  6
CONTINUOUS
 62
     5
 10
160.0
 20
-250.0
 30
0.0
 11
160.0
 21
250.0
 31
0.0
  0
LINE
  5
5AB
  8
DETAIL
  6
CONTINUOUS
 62
     5
 10
-126.0
 20
635.0
 30
0.0
 11
-126.0
 21
250.0
 31
0.0
  0
LINE
  5
5AC
  8
DETAIL
  6
CONTINUOUS
 62
     5
 10
126.0
 20
635.0
 30
0.0
 11
126.0
 21
250.0
 31
0.0
  0
LINE
  5
5AD
  8
DETAIL
  6
CONTINUOUS
 62
     5
 10
-126.0
 20
635.0
 30
0.0
 11
126.0
 21
635.0
 31
0.0
  0
LINE
  5
5AE
  8
DETAIL
  6
CONTINUOUS
 62
     5
 10
-104.0
 20
645.0
 30
0.0
 11
104.0
 21
645.0
 31
0.0
  0
LINE
  5
5AF
  8
DETAIL
  6
CONTINUOUS
 62
     5
 10
-104.0
 20
635.0
 30
0.0
 11
-104.0
 21
645.0
 31
0.0
  0
LINE
  5
5B0
  8
DETAIL
  6
CONTINUOUS
 62
     5
 10
104.0
 20
635.0
 30
0.0
 11
104.0
 21
645.0
 31
0.0
  0
LINE
  5
5B1
  8
DETAIL
  6
CONTINUOUS
 62
     5
 10
-96.0
 20
710.0
 30
0.0
 11
96.0
 21
710.0
 31
0.0
  0
LINE
  5
5B2
  8
DETAIL
  6
CONTINUOUS
 62
     5
 10
-96.0
 20
720.0
 30
0.0
 11
-96.0
 21
710.0
 31
0.0
  0
LINE
  5
5B3
  8
DETAIL
  6
CONTINUOUS
 62
     5
 10
96.0
 20
720.0
 30
0.0
 11
96.0
 21
710.0
 31
0.0
  0
LINE
  5
5B4
  8
DETAIL
  6
CONTINUOUS
 62
     5
 10
-202.49999999999989
 20
222.0
 30
0.0
 11
-202.49999999999989
 21
178.0
 31
0.0
  0
LINE
  5
5B5
  8
DETAIL
  6
CONTINUOUS
 62
     5
 10
-160.0
 20
170.0
 30
0.0
 11
-160.0
 21
230.0
 31
0.0
  0
LINE
  5
5B6
  8
DETAIL
  6
CONTINUOUS
 62
     5
 10
-191.0
 20
192.688661
 30
0.0
 11
-191.0
 21
207.41958099999991
 31
0.0
  0
LINE
  5
5B7
  8
DETAIL
  6
CONTINUOUS
 62
     5
 10
-179.0
 20
192.688661
 30
0.0
 11
-179.0
 21
207.41958099999991
 31
0.0
  0
LINE
  5
5B8
  8
DETAIL
  6
CONTINUOUS
 62
     5
 10
-196.0
 20
190.60689899999991
 30
0.0
 11
-196.0
 21
209.50134299999991
 31
0.0
  0
LINE
  5
5B9
  8
DETAIL
  6
CONTINUOUS
 62
     5
 10
-174.0
 20
190.60689899999991
 30
0.0
 11
-174.0
 21
209.50134299999991
 31
0.0
  0
LINE
  5
5BA
  8
DETAIL
  6
CONTINUOUS
 62
     5
 10
-165.0
 20
170.0
 30
0.0
 11
-165.0
 21
230.0
 31
0.0
  0
LINE
  5
5BB
  8
DETAIL
  6
CONTINUOUS
 62
     5
 10
-160.0
 20
170.0
 30
0.0
 11
-194.5
 21
170.0
 31
0.0
  0
ARC
  5
5BC
  8
DETAIL
  6
CONTINUOUS
 62
     5
 10
-185.0
 20
200.05412100000001
 30
0.0
 40
9.5
 50
230.83328899999989
 51
309.16671099999991
  0
ARC
  5
5BD
  8
DETAIL
  6
CONTINUOUS
 62
     5
 10
-185.0
 20
200.05412100000001
 30
0.0
 40
14.5
 50
220.65724899999981
 51
319.34275099999991
  0
ARC
  5
5BE
  8
DETAIL
  6
CONTINUOUS
 62
     5
 10
-194.5
 20
178.0
 30
0.0
 40
8.0
 50
180.0
 51
270.0
  0
LINE
  5
5BF
  8
DETAIL
  6
CONTINUOUS
 62
     5
 10
-160.0
 20
230.0
 30
0.0
 11
-194.5
 21
230.0
 31
0.0
  0
ARC
  5
5C0
  8
DETAIL
  6
CONTINUOUS
 62
     5
 10
-185.0
 20
200.05412100000001
 30
0.0
 40
9.5
 50
50.833289000000001
 51
129.16671099999991
  0
ARC
  5
5C1
  8
DETAIL
  6
CONTINUOUS
 62
     5
 10
-185.0
 20
200.05412100000001
 30
0.0
 40
14.5
 50
40.657249
 51
139.34275099999991
  0
ARC
  5
5C2
  8
DETAIL
  6
CONTINUOUS
 62
     5
 10
-194.5
 20
222.0
 30
0.0
 40
8.0
 50
90.0
 51
180.0
  0
LINE
  5
5C3
  8
NOTE
  6
CONTINUOUS
 62
     4
 10
-205.0
 20
200.0
 30
0.0
 11
-165.0
 21
200.0
 31
0.0
  0
LINE
  5
5C4
  8
NOTE
  6
CONTINUOUS
 62
     4
 10
-185.0
 20
220.0
 30
0.0
 11
-185.0
 21
180.0
 31
0.0
  0
CIRCLE
  5
5C5
  8
FIX
  6
CONTINUOUS
 62
    11
 39
50.0
 10
-185.0
 20
200.0
 30
0.0
 40
6.0
  0
CIRCLE
  5
5C6
  8
FIX
  6
CONTINUOUS
 62
    11
 39
50.0
 10
185.0
 20
200.0000039999999
 30
0.0
 40
6.0
  0
LINE
  5
5C7
  8
DETAIL
  6
CONTINUOUS
 62
     5
 10
165.0
 20
170.0000039999999
 30
0.0
 11
165.0
 21
230.00000399999999
 31
0.0
  0
LINE
  5
5C8
  8
DETAIL
  6
CONTINUOUS
 62
     5
 10
160.0
 20
170.0000039999999
 30
0.0
 11
160.0
 21
230.00000399999999
 31
0.0
  0
LINE
  5
5C9
  8
DETAIL
  6
CONTINUOUS
 62
     5
 10
202.49999999999989
 20
222.0000039999999
 30
0.0
 11
202.49999999999989
 21
178.00000399999999
 31
0.0
  0
ARC
  5
5CA
  8
DETAIL
  6
CONTINUOUS
 62
     5
 10
185.0
 20
200.05412399999989
 30
0.0
 40
14.5
 50
220.65724899999981
 51
319.34275099999991
  0
LINE
  5
5CB
  8
NOTE
  6
CONTINUOUS
 62
     4
 10
205.0
 20
200.0000039999999
 30
0.0
 11
165.0
 21
200.0000039999999
 31
0.0
  0
LINE
  5
5CC
  8
NOTE
  6
CONTINUOUS
 62
     4
 10
185.0
 20
220.0000039999999
 30
0.0
 11
185.0
 21
180.00000399999999
 31
0.0
  0
LINE
  5
5CD
  8
DETAIL
  6
CONTINUOUS
 62
     5
 10
160.0
 20
170.0000039999999
 30
0.0
 11
194.5
 21
170.0000039999999
 31
0.0
  0
ARC
  5
5CE
  8
DETAIL
  6
CONTINUOUS
 62
     5
 10
194.5
 20
178.00000399999999
 30
0.0
 40
8.0
 50
270.0
 51
0.0
  0
ARC
  5
5CF
  8
DETAIL
  6
CONTINUOUS
 62
     5
 10
185.0
 20
200.05412399999989
 30
0.0
 40
14.5
 50
40.657249
 51
139.34275099999991
  0
LINE
  5
5D0
  8
DETAIL
  6
CONTINUOUS
 62
     5
 10
160.0
 20
230.00000399999999
 30
0.0
 11
194.5
 21
230.00000399999999
 31
0.0
  0
ARC
  5
5D1
  8
DETAIL
  6
CONTINUOUS
 62
     5
 10
194.5
 20
222.0000039999999
 30
0.0
 40
8.0
 50
0.0
 51
90.0
  0
LINE
  5
5D2
  8
DETAIL
  6
CONTINUOUS
 62
     5
 10
196.0
 20
190.6069029999999
 30
0.0
 11
196.0
 21
209.5013459999999
 31
0.0
  0
LINE
  5
5D3
  8
DETAIL
  6
CONTINUOUS
 62
     5
 10
174.0
 20
190.6069029999999
 30
0.0
 11
174.0
 21
209.5013459999999
 31
0.0
  0
LINE
  5
5D4
  8
DETAIL
  6
CONTINUOUS
 62
     5
 10
179.0
 20
192.6886649999999
 30
0.0
 11
179.0
 21
207.4195839999999
 31
0.0
  0
LINE
  5
5D5
  8
DETAIL
  6
CONTINUOUS
 62
     5
 10
191.0
 20
192.6886649999999
 30
0.0
 11
191.0
 21
207.4195839999999
 31
0.0
  0
ARC
  5
5D6
  8
DETAIL
  6
CONTINUOUS
 62
     5
 10
185.0
 20
200.05412399999989
 30
0.0
 40
9.5
 50
50.833289000000001
 51
129.16671099999991
  0
ARC
  5
5D7
  8
DETAIL
  6
CONTINUOUS
 62
     5
 10
185.0
 20
200.05412399999989
 30
0.0
 40
9.5
 50
230.83328899999989
 51
309.16671099999991
  0
CIRCLE
  5
5D8
  8
FIX
  6
CONTINUOUS
 62
    11
 39
50.0
 10
-185.0
 20
-200.0
 30
0.0
 40
6.0
  0
LINE
  5
5D9
  8
DETAIL
  6
CONTINUOUS
 62
     5
 10
-165.0
 20
-170.0
 30
0.0
 11
-165.0
 21
-230.0
 31
0.0
  0
LINE
  5
5DA
  8
DETAIL
  6
CONTINUOUS
 62
     5
 10
-160.0
 20
-170.0
 30
0.0
 11
-160.0
 21
-230.0
 31
0.0
  0
LINE
  5
5DB
  8
DETAIL
  6
CONTINUOUS
 62
     5
 10
-202.49999999999989
 20
-222.0
 30
0.0
 11
-202.49999999999989
 21
-178.0
 31
0.0
  0
ARC
  5
5DC
  8
DETAIL
  6
CONTINUOUS
 62
     5
 10
-185.0
 20
-200.05412100000001
 30
0.0
 40
14.5
 50
40.657249
 51
139.34275099999991
  0
LINE
  5
5DD
  8
NOTE
  6
CONTINUOUS
 62
     4
 10
-205.0
 20
-200.0
 30
0.0
 11
-165.0
 21
-200.0
 31
0.0
  0
LINE
  5
5DE
  8
NOTE
  6
CONTINUOUS
 62
     4
 10
-185.0
 20
-220.0
 30
0.0
 11
-185.0
 21
-180.0
 31
0.0
  0
LINE
  5
5DF
  8
DETAIL
  6
CONTINUOUS
 62
     5
 10
-160.0
 20
-170.0
 30
0.0
 11
-194.5
 21
-170.0
 31
0.0
  0
ARC
  5
5E0
  8
DETAIL
  6
CONTINUOUS
 62
     5
 10
-194.5
 20
-178.0
 30
0.0
 40
8.0
 50
90.0
 51
180.0
  0
ARC
  5
5E1
  8
DETAIL
  6
CONTINUOUS
 62
     5
 10
-185.0
 20
-200.05412100000001
 30
0.0
 40
14.5
 50
220.65724899999981
 51
319.34275099999991
  0
LINE
  5
5E2
  8
DETAIL
  6
CONTINUOUS
 62
     5
 10
-160.0
 20
-230.0
 30
0.0
 11
-194.5
 21
-230.0
 31
0.0
  0
ARC
  5
5E3
  8
DETAIL
  6
CONTINUOUS
 62
     5
 10
-194.5
 20
-222.0
 30
0.0
 40
8.0
 50
180.0
 51
270.0
  0
LINE
  5
5E4
  8
DETAIL
  6
CONTINUOUS
 62
     5
 10
-196.0
 20
-190.60689899999991
 30
0.0
 11
-196.0
 21
-209.50134299999991
 31
0.0
  0
LINE
  5
5E5
  8
DETAIL
  6
CONTINUOUS
 62
     5
 10
-174.0
 20
-190.60689899999991
 30
0.0
 11
-174.0
 21
-209.50134299999991
 31
0.0
  0
LINE
  5
5E6
  8
DETAIL
  6
CONTINUOUS
 62
     5
 10
-179.0
 20
-192.688661
 30
0.0
 11
-179.0
 21
-207.41958099999991
 31
0.0
  0
LINE
  5
5E7
  8
DETAIL
  6
CONTINUOUS
 62
     5
 10
-191.0
 20
-192.688661
 30
0.0
 11
-191.0
 21
-207.41958099999991
 31
0.0
  0
ARC
  5
5E8
  8
DETAIL
  6
CONTINUOUS
 62
     5
 10
-185.0
 20
-200.05412100000001
 30
0.0
 40
9.5
 50
230.83328899999989
 51
309.16671099999991
  0
ARC
  5
5E9
  8
DETAIL
  6
CONTINUOUS
 62
     5
 10
-185.0
 20
-200.05412100000001
 30
0.0
 40
9.5
 50
50.833289000000001
 51
129.16671099999991
  0
CIRCLE
  5
5EA
  8
FIX
  6
CONTINUOUS
 62
    11
 39
50.0
 10
185.0
 20
-199.99999600000001
 30
0.0
 40
6.0
  0
LINE
  5
5EB
  8
NOTE
  6
CONTINUOUS
 62
     4
 10
205.0
 20
-199.99999600000001
 30
0.0
 11
165.0
 21
-199.99999600000001
 31
0.0
  0
LINE
  5
5EC
  8
NOTE
  6
CONTINUOUS
 62
     4
 10
185.0
 20
-219.9999959999999
 30
0.0
 11
185.0
 21
-179.99999600000001
 31
0.0
  0
ARC
  5
5ED
  8
DETAIL
  6
CONTINUOUS
 62
     5
 10
185.0
 20
-200.05411699999991
 30
0.0
 40
14.5
 50
40.657249
 51
139.34275099999991
  0
LINE
  5
5EE
  8
DETAIL
  6
CONTINUOUS
 62
     5
 10
202.49999999999989
 20
-221.9999959999999
 30
0.0
 11
202.49999999999989
 21
-177.99999600000001
 31
0.0
  0
LINE
  5
5EF
  8
DETAIL
  6
CONTINUOUS
 62
     5
 10
160.0
 20
-169.99999600000001
 30
0.0
 11
160.0
 21
-229.99999600000001
 31
0.0
  0
LINE
  5
5F0
  8
DETAIL
  6
CONTINUOUS
 62
     5
 10
165.0
 20
-169.99999600000001
 30
0.0
 11
165.0
 21
-229.99999600000001
 31
0.0
  0
LINE
  5
5F1
  8
DETAIL
  6
CONTINUOUS
 62
     5
 10
160.0
 20
-169.99999600000001
 30
0.0
 11
194.5
 21
-169.99999600000001
 31
0.0
  0
ARC
  5
5F2
  8
DETAIL
  6
CONTINUOUS
 62
     5
 10
194.5
 20
-177.99999600000001
 30
0.0
 40
8.0
 50
0.0
 51
90.0
  0
LINE
  5
5F3
  8
DETAIL
  6
CONTINUOUS
 62
     5
 10
160.0
 20
-229.99999600000001
 30
0.0
 11
194.5
 21
-229.99999600000001
 31
0.0
  0
ARC
  5
5F4
  8
DETAIL
  6
CONTINUOUS
 62
     5
 10
185.0
 20
-200.05411699999991
 30
0.0
 40
14.5
 50
220.65724899999981
 51
319.34275099999991
  0
ARC
  5
5F5
  8
DETAIL
  6
CONTINUOUS
 62
     5
 10
185.0
 20
-200.05411699999991
 30
0.0
 40
9.5
 50
50.833289000000001
 51
129.16671099999991
  0
ARC
  5
5F6
  8
DETAIL
  6
CONTINUOUS
 62
     5
 10
185.0
 20
-200.05411699999991
 30
0.0
 40
9.5
 50
230.83328899999989
 51
309.16671099999991
  0
LINE
  5
5F7
  8
DETAIL
  6
CONTINUOUS
 62
     5
 10
191.0
 20
-192.68865700000001
 30
0.0
 11
191.0
 21
-207.419577
 31
0.0
  0
LINE
  5
5F8
  8
DETAIL
  6
CONTINUOUS
 62
     5
 10
179.0
 20
-192.68865700000001
 30
0.0
 11
179.0
 21
-207.419577
 31
0.0
  0
LINE
  5
5F9
  8
DETAIL
  6
CONTINUOUS
 62
     5
 10
174.0
 20
-190.60689500000001
 30
0.0
 11
174.0
 21
-209.501339
 31
0.0
  0
LINE
  5
5FA
  8
DETAIL
  6
CONTINUOUS
 62
     5
 10
196.0
 20
-190.60689500000001
 30
0.0
 11
196.0
 21
-209.501339
 31
0.0
  0
ARC
  5
5FB
  8
DETAIL
  6
CONTINUOUS
 62
     5
 10
194.5
 20
-221.9999959999999
 30
0.0
 40
8.0
 50
270.0
 51
0.0
  0
LINE
  5
5FC
  8
SIZE
  6
CONTINUOUS
 62
    30
 10
96.0
 20
740.0
 30
0.0
 11
96.0
 21
870.71196172481905
 31
0.0
  0
LINE
  5
5FD
  8
SIZE
  6
CONTINUOUS
 62
    30
 10
-96.0
 20
740.0
 30
0.0
 11
-96.0
 21
870.71196172481905
 31
0.0
  0
LINE
  5
5FE
  8
SIZE
  6
CONTINUOUS
 62
    30
 10
84.0
 20
847.6411299902519
 30
0.0
 11
-84.0
 21
847.6411299902519
 31
0.0
  0
LINE
  5
5FF
  8
SIZE
  6
CONTINUOUS
 62
    30
 10
-388.22665499999999
 20
847.6411299902519
 30
0.0
 11
-96.0
 21
847.6411299902519
 31
0.0
  0
TEXT
  5
600
  8
SIZE
  6
CONTINUOUS
 62
    30
 10
-377.48951257142841
 20
872.6411299902519
 30
0.0
 40
64.0
  1
âË192
 41
0.9
 72
     1
 11
-268.59808399999991
 21
872.6411299902519
 31
0.0
  0
CIRCLE
  5
601
  8
SIZE
  6
CONTINUOUS
 62
    30
 10
96.0
 20
847.6411299902519
 30
0.0
 40
6.0
  0
LINE
  5
602
  8
SIZE
  6
CONTINUOUS
 62
    30
 10
96.0
 20
847.6411299902519
 30
0.0
 11
84.0
 21
847.6411299902519
 31
0.0
  0
CIRCLE
  5
603
  8
SIZE
  6
CONTINUOUS
 62
    30
 10
-96.0
 20
847.6411299902519
 30
0.0
 40
6.0
  0
LINE
  5
604
  8
SIZE
  6
CONTINUOUS
 62
    30
 10
-96.0
 20
847.6411299902519
 30
0.0
 11
-84.0
 21
847.6411299902519
 31
0.0
  0
LINE
  5
605
  8
SIZE
  6
CONTINUOUS
 62
    30
 10
104.0
 20
665.0
 30
0.0
 11
104.0
 21
990.02795066840815
 31
0.0
  0
LINE
  5
606
  8
SIZE
  6
CONTINUOUS
 62
    30
 10
-104.0
 20
665.0
 30
0.0
 11
-104.0
 21
993.16784738828494
 31
0.0
  0
LINE
  5
607
  8
SIZE
  6
CONTINUOUS
 62
    30
 10
92.0
 20
964.26935899025193
 30
0.0
 11
-92.0
 21
964.26935899025193
 31
0.0
  0
LINE
  5
608
  8
SIZE
  6
CONTINUOUS
 62
    30
 10
-386.96194800000001
 20
964.26935899025193
 30
0.0
 11
-104.0
 21
964.26935899025193
 31
0.0
  0
TEXT
  5
609
  8
SIZE
  6
CONTINUOUS
 62
    30
 10
-376.22480485714289
 20
989.26935899025193
 30
0.0
 40
64.0
  1
âË208
 41
0.9
 72
     1
 11
-261.84766200000001
 21
989.26935899025193
 31
0.0
  0
CIRCLE
  5
60A
  8
SIZE
  6
CONTINUOUS
 62
    30
 10
104.0
 20
964.26935899025193
 30
0.0
 40
6.0
  0
LINE
  5
60B
  8
SIZE
  6
CONTINUOUS
 62
    30
 10
104.0
 20
964.26935899025193
 30
0.0
 11
92.0
 21
964.26935899025193
 31
0.0
  0
CIRCLE
  5
60C
  8
SIZE
  6
CONTINUOUS
 62
    30
 10
-104.0
 20
964.26935899025193
 30
0.0
 40
6.0
  0
LINE
  5
60D
  8
SIZE
  6
CONTINUOUS
 62
    30
 10
-104.0
 20
964.26935899025193
 30
0.0
 11
-92.0
 21
964.26935899025193
 31
0.0
  0
LINE
  5
60E
  8
SIZE
  6
CONTINUOUS
 62
    30
 10
126.0
 20
655.0
 30
0.0
 11
126.0
 21
1096.7843642540529
 31
0.0
  0
LINE
  5
60F
  8
SIZE
  6
CONTINUOUS
 62
    30
 10
-126.0
 20
655.0
 30
0.0
 11
-126.0
 21
1093.644467534177
 31
0.0
  0
LINE
  5
610
  8
SIZE
  6
CONTINUOUS
 62
    30
 10
114.0
 20
1073.582312953336
 30
0.0
 11
-114.0
 21
1073.582312953336
 31
0.0
  0
CIRCLE
  5
611
  8
SIZE
  6
CONTINUOUS
 62
    30
 10
126.0
 20
1073.582312953336
 30
0.0
 40
6.0
  0
LINE
  5
612
  8
SIZE
  6
CONTINUOUS
 62
    30
 10
126.0
 20
1073.582312953336
 30
0.0
 11
114.0
 21
1073.582312953336
 31
0.0
  0
CIRCLE
  5
613
  8
SIZE
  6
CONTINUOUS
 62
    30
 10
-126.0
 20
1073.582312953336
 30
0.0
 40
6.0
  0
LINE
  5
614
  8
SIZE
  6
CONTINUOUS
 62
    30
 10
-126.0
 20
1073.582312953336
 30
0.0
 11
-114.0
 21
1073.582312953336
 31
0.0
  0
TEXT
  5
615
  8
SIZE
  6
CONTINUOUS
 62
    30
 10
-114.3771428571428
 20
1098.5823129533339
 30
0.0
 40
64.0
  1
âË252
 41
0.9
 72
     1
 11
0.0
 21
1098.5823129533339
 31
0.0
  0
LINE
  5
616
  8
SIZE
  6
CONTINUOUS
 62
    30
 10
116.0
 20
720.0
 30
0.0
 11
293.23784699999982
 21
720.0
 31
0.0
  0
LINE
  5
617
  8
SIZE
  6
CONTINUOUS
 62
    30
 10
146.0
 20
635.0
 30
0.0
 11
293.23784699999982
 21
635.0
 31
0.0
  0
LINE
  5
618
  8
SIZE
  6
CONTINUOUS
 62
    30
 10
273.23784699999999
 20
708.0
 30
0.0
 11
273.23784699999999
 21
647.0
 31
0.0
  0
LINE
  5
619
  8
SIZE
  6
CONTINUOUS
 62
    30
 10
273.23784699999999
 20
463.66750799999988
 30
0.0
 11
273.23784699999999
 21
635.0
 31
0.0
  0
TEXT
  5
61A
  8
SIZE
  6
CONTINUOUS
 62
    30
 10
248.23784699999999
 20
488.66750757142847
 30
0.0
 40
64.0
  1
85
 50
90.0
 41
0.9
 72
     1
 11
248.23784699999999
 21
535.29607899999996
 31
0.0
  0
CIRCLE
  5
61B
  8
SIZE
  6
CONTINUOUS
 62
    30
 10
273.23784699999999
 20
720.0
 30
0.0
 40
6.0
  0
LINE
  5
61C
  8
SIZE
  6
CONTINUOUS
 62
    30
 10
273.23784699999999
 20
720.0
 30
0.0
 11
273.23784699999999
 21
708.0
 31
0.0
  0
CIRCLE
  5
61D
  8
SIZE
  6
CONTINUOUS
 62
    30
 10
273.23784699999999
 20
635.0
 30
0.0
 40
6.0
  0
LINE
  5
61E
  8
SIZE
  6
CONTINUOUS
 62
    30
 10
273.23784699999999
 20
635.0
 30
0.0
 11
273.23784699999999
 21
647.0
 31
0.0
  0
LINE
  5
61F
  8
SIZE
  6
CONTINUOUS
 62
    30
 10
-116.0
 20
-320.0
 30
0.0
 11
-569.75791999999979
 21
-320.0
 31
0.0
  0
LINE
  5
620
  8
SIZE
  6
CONTINUOUS
 62
    30
 10
-116.0
 20
720.0
 30
0.0
 11
-569.75791999999979
 21
720.0
 31
0.0
  0
LINE
  5
621
  8
SIZE
  6
CONTINUOUS
 62
    30
 10
-549.75792000000001
 20
-308.0
 30
0.0
 11
-549.75792000000001
 21
708.0
 31
0.0
  0
CIRCLE
  5
622
  8
SIZE
  6
CONTINUOUS
 62
    30
 10
-549.75792000000001
 20
-320.0
 30
0.0
 40
6.0
  0
LINE
  5
623
  8
SIZE
  6
CONTINUOUS
 62
    30
 10
-549.75792000000001
 20
-320.0
 30
0.0
 11
-549.75792000000001
 21
-308.0
 31
0.0
  0
CIRCLE
  5
624
  8
SIZE
  6
CONTINUOUS
 62
    30
 10
-549.75792000000001
 20
720.0
 30
0.0
 40
6.0
  0
LINE
  5
625
  8
SIZE
  6
CONTINUOUS
 62
    30
 10
-549.75792000000001
 20
720.0
 30
0.0
 11
-549.75792000000001
 21
708.0
 31
0.0
  0
TEXT
  5
626
  8
SIZE
  6
CONTINUOUS
 62
    30
 10
-574.75792000000001
 20
104.0
 30
0.0
 40
64.0
  1
1040
 50
90.0
 41
0.9
 72
     1
 11
-574.75792000000001
 21
200.0
 31
0.0
  0
LINE
  5
627
  8
SIZE
  6
CONTINUOUS
 62
    30
 10
-180.0
 20
-250.0
 30
0.0
 11
-446.75291900000002
 21
-250.0
 31
0.0
  0
LINE
  5
628
  8
SIZE
  6
CONTINUOUS
 62
    30
 10
-180.0
 20
250.0
 30
0.0
 11
-446.75291900000002
 21
250.0
 31
0.0
  0
LINE
  5
629
  8
SIZE
  6
CONTINUOUS
 62
    30
 10
-426.75291900000002
 20
-238.0
 30
0.0
 11
-426.75291900000002
 21
238.0
 31
0.0
  0
CIRCLE
  5
62A
  8
SIZE
  6
CONTINUOUS
 62
    30
 10
-426.75291900000002
 20
-250.0
 30
0.0
 40
6.0
  0
LINE
  5
62B
  8
SIZE
  6
CONTINUOUS
 62
    30
 10
-426.75291900000002
 20
-250.0
 30
0.0
 11
-426.75291900000002
 21
-238.0
 31
0.0
  0
CIRCLE
  5
62C
  8
SIZE
  6
CONTINUOUS
 62
    30
 10
-426.75291900000002
 20
250.0
 30
0.0
 40
6.0
  0
LINE
  5
62D
  8
SIZE
  6
CONTINUOUS
 62
    30
 10
-426.75291900000002
 20
250.0
 30
0.0
 11
-426.75291900000002
 21
238.0
 31
0.0
  0
TEXT
  5
62E
  8
SIZE
  6
CONTINUOUS
 62
    30
 10
-451.75291900000002
 20
-74.05714285714285
 30
0.0
 40
64.0
  1
500
 50
90.0
 41
0.9
 72
     1
 11
-451.75291900000002
 21
0.0
 31
0.0
  0
LINE
  5
62F
  8
SIZE
  6
CONTINUOUS
 62
    30
 10
225.0
 20
200.0000039999999
 30
0.0
 11
402.69707899999997
 21
200.0000039999999
 31
0.0
  0
LINE
  5
630
  8
SIZE
  6
CONTINUOUS
 62
    30
 10
225.0
 20
-199.99999600000001
 30
0.0
 11
402.69707899999997
 21
-199.99999600000001
 31
0.0
  0
LINE
  5
631
  8
SIZE
  6
CONTINUOUS
 62
    30
 10
382.69707899999992
 20
188.0000039999999
 30
0.0
 11
382.69707899999992
 21
-187.99999600000001
 31
0.0
  0
CIRCLE
  5
632
  8
SIZE
  6
CONTINUOUS
 62
    30
 10
382.69707899999992
 20
200.0000039999999
 30
0.0
 40
6.0
  0
LINE
  5
633
  8
SIZE
  6
CONTINUOUS
 62
    30
 10
382.69707899999992
 20
200.0000039999999
 30
0.0
 11
382.69707899999992
 21
188.0000039999999
 31
0.0
  0
CIRCLE
  5
634
  8
SIZE
  6
CONTINUOUS
 62
    30
 10
382.69707899999992
 20
-199.99999600000001
 30
0.0
 40
6.0
  0
LINE
  5
635
  8
SIZE
  6
CONTINUOUS
 62
    30
 10
382.69707899999992
 20
-199.99999600000001
 30
0.0
 11
382.69707899999992
 21
-187.99999600000001
 31
0.0
  0
TEXT
  5
636
  8
SIZE
  6
CONTINUOUS
 62
    30
 10
357.69707899999992
 20
-74.057138857142846
 30
0.0
 40
64.0
  1
400
 50
90.0
 41
0.9
 72
     1
 11
357.69707899999992
 21
0.000004
 31
0.0
  0
TEXT
  5
637
  8
SIZE
  6
CONTINUOUS
 62
    30
 10
361.83333381719677
 20
-567.08711359988092
 30
0.0
 40
64.0
  1
0ü`30
 50
90.0
 41
0.9
 72
     1
 11
361.83333381719677
 21
-458.46997074273798
 31
0.0
  0
TEXT
  5
638
  8
SIZE
  6
CONTINUOUS
 62
    30
 10
496.86352599999998
 20
-175.53714285714281
 30
0.0
 40
64.0
  1
üá450
 50
90.0
 41
0.9
 72
     1
 11
496.86352599999998
 21
-65.0
 31
0.0
  0
TEXT
  5
639
  8
NOTE
  6
CONTINUOUS
 62
     4
 10
-83.951318999999998
 20
90.429547999999997
 30
0.0
 40
64.0
  1
ô_îƒî¹
 41
0.9
  0
LINE
  5
63A
  8
SIZE
  6
CONTINUOUS
 62
    30
 10
96.0
 20
-340.0
 30
0.0
 11
96.0
 21
-493.00050799999991
 31
0.0
  0
LINE
  5
63B
  8
SIZE
  6
CONTINUOUS
 62
    30
 10
-96.0
 20
-340.0
 30
0.0
 11
-96.0
 21
-493.00050799999991
 31
0.0
  0
LINE
  5
63C
  8
SIZE
  6
CONTINUOUS
 62
    30
 10
84.0
 20
-473.00050800000002
 30
0.0
 11
-84.0
 21
-473.00050800000002
 31
0.0
  0
LINE
  5
63D
  8
SIZE
  6
CONTINUOUS
 62
    30
 10
-482.54675399999991
 20
-473.00050800000002
 30
0.0
 11
-96.0
 21
-473.00050800000002
 31
0.0
  0
TEXT
  5
63E
  8
SIZE
  6
CONTINUOUS
 62
    30
 10
-471.80961057142849
 20
-448.00050800000002
 30
0.0
 40
64.0
  1
âË192
 41
0.9
 72
     1
 11
-362.91818199999989
 21
-448.00050800000002
 31
0.0
  0
CIRCLE
  5
63F
  8
SIZE
  6
CONTINUOUS
 62
    30
 10
96.0
 20
-473.00050800000002
 30
0.0
 40
6.0
  0
LINE
  5
640
  8
SIZE
  6
CONTINUOUS
 62
    30
 10
96.0
 20
-473.00050800000002
 30
0.0
 11
84.0
 21
-473.00050800000002
 31
0.0
  0
CIRCLE
  5
641
  8
SIZE
  6
CONTINUOUS
 62
    30
 10
-96.0
 20
-473.00050800000002
 30
0.0
 40
6.0
  0
LINE
  5
642
  8
SIZE
  6
CONTINUOUS
 62
    30
 10
-96.0
 20
-473.00050800000002
 30
0.0
 11
-84.0
 21
-473.00050800000002
 31
0.0
  0
LINE
  5
643
  8
SIZE
  6
CONTINUOUS
 62
    30
 10
160.0
 20
-269.9999959999999
 30
0.0
 11
160.0
 21
-729.30303800000002
 31
0.0
  0
LINE
  5
644
  8
SIZE
  6
CONTINUOUS
 62
    30
 10
-160.0
 20
-270.0
 30
0.0
 11
-160.0
 21
-729.30303800000002
 31
0.0
  0
LINE
  5
645
  8
SIZE
  6
CONTINUOUS
 62
    30
 10
148.0
 20
-709.30303800000002
 30
0.0
 11
-148.0
 21
-709.30303800000002
 31
0.0
  0
CIRCLE
  5
646
  8
SIZE
  6
CONTINUOUS
 62
    30
 10
160.0
 20
-709.30303800000002
 30
0.0
 40
6.0
  0
LINE
  5
647
  8
SIZE
  6
CONTINUOUS
 62
    30
 10
160.0
 20
-709.30303800000002
 30
0.0
 11
148.0
 21
-709.30303800000002
 31
0.0
  0
CIRCLE
  5
648
  8
SIZE
  6
CONTINUOUS
 62
    30
 10
-160.0
 20
-709.30303800000002
 30
0.0
 40
6.0
  0
LINE
  5
649
  8
SIZE
  6
CONTINUOUS
 62
    30
 10
-160.0
 20
-709.30303800000002
 30
0.0
 11
-148.0
 21
-709.30303800000002
 31
0.0
  0
TEXT
  5
64A
  8
SIZE
  6
CONTINUOUS
 62
    30
 10
-74.05714285714285
 20
-684.30303800000002
 30
0.0
 40
64.0
  1
320
 41
0.9
 72
     1
 11
0.0
 21
-684.30303800000002
 31
0.0
  0
LINE
  5
64B
  8
SIZE
  6
CONTINUOUS
 62
    30
 10
185.0
 20
-239.99999600000001
 30
0.0
 11
185.0
 21
-850.74974499999985
 31
0.0
  0
LINE
  5
64C
  8
SIZE
  6
CONTINUOUS
 62
    30
 10
-185.0
 20
-240.0
 30
0.0
 11
-185.0
 21
-850.74974499999985
 31
0.0
  0
LINE
  5
64D
  8
SIZE
  6
CONTINUOUS
 62
    30
 10
173.0
 20
-830.74974499999973
 30
0.0
 11
-173.0
 21
-830.74974499999973
 31
0.0
  0
CIRCLE
  5
64E
  8
SIZE
  6
CONTINUOUS
 62
    30
 10
185.0
 20
-830.74974499999973
 30
0.0
 40
6.0
  0
LINE
  5
64F
  8
SIZE
  6
CONTINUOUS
 62
    30
 10
185.0
 20
-830.74974499999973
 30
0.0
 11
173.0
 21
-830.74974499999973
 31
0.0
  0
CIRCLE
  5
650
  8
SIZE
  6
CONTINUOUS
 62
    30
 10
-185.0
 20
-830.74974499999973
 30
0.0
 40
6.0
  0
LINE
  5
651
  8
SIZE
  6
CONTINUOUS
 62
    30
 10
-185.0
 20
-830.74974499999973
 30
0.0
 11
-173.0
 21
-830.74974499999973
 31
0.0
  0
TEXT
  5
652
  8
SIZE
  6
CONTINUOUS
 62
    30
 10
-74.05714285714285
 20
-805.74974499999973
 30
0.0
 40
64.0
  1
370
 41
0.9
 72
     1
 11
0.0
 21
-805.74974499999973
 31
0.0
  0
LINE
  5
653
  8
SIZE
  6
CONTINUOUS
 62
    30
 10
202.49999999999989
 20
-241.99999600000001
 30
0.0
 11
202.49999999999989
 21
-976.36440000000005
 31
0.0
  0
LINE
  5
654
  8
SIZE
  6
CONTINUOUS
 62
    30
 10
-202.49999999999989
 20
-242.0
 30
0.0
 11
-202.49999999999989
 21
-976.36440000000005
 31
0.0
  0
LINE
  5
655
  8
SIZE
  6
CONTINUOUS
 62
    30
 10
190.5
 20
-956.36440000000005
 30
0.0
 11
-190.5
 21
-956.36440000000005
 31
0.0
  0
CIRCLE
  5
656
  8
SIZE
  6
CONTINUOUS
 62
    30
 10
202.49999999999989
 20
-956.36440000000005
 30
0.0
 40
6.0
  0
LINE
  5
657
  8
SIZE
  6
CONTINUOUS
 62
    30
 10
202.49999999999989
 20
-956.36440000000005
 30
0.0
 11
190.5
 21
-956.36440000000005
 31
0.0
  0
CIRCLE
  5
658
  8
SIZE
  6
CONTINUOUS
 62
    30
 10
-202.49999999999989
 20
-956.36440000000005
 30
0.0
 40
6.0
  0
LINE
  5
659
  8
SIZE
  6
CONTINUOUS
 62
    30
 10
-202.49999999999989
 20
-956.36440000000005
 30
0.0
 11
-190.5
 21
-956.36440000000005
 31
0.0
  0
TEXT
  5
65A
  8
SIZE
  6
CONTINUOUS
 62
    30
 10
-74.05714285714285
 20
-931.36440000000005
 30
0.0
 40
64.0
  1
405
 41
0.9
 72
     1
 11
0.0
 21
-931.36440000000005
 31
0.0
  0
LINE
  5
65B
  8
NOTE
  6
CONTINUOUS
 62
     4
 10
-833.36852299999998
 20
428.84344499999992
 30
0.0
 11
-216.1745049999999
 21
428.84344499999992
 31
0.0
  0
TEXT
  5
65C
  8
NOTE
  6
CONTINUOUS
 62
     4
 10
-828.60048700000004
 20
454.89141599999988
 30
0.0
 40
64.0
  1
AH 4-âË12ü~19
 41
0.9
  0
LINE
  5
65D
  8
DETAIL
  6
CONTINUOUS
 62
     5
 10
-126.0
 20
615.0
 30
0.0
 11
126.0
 21
615.0
 31
0.0
  0
LINE
  5
65E
  8
NOTE
  6
CONTINUOUS
 62
     4
 10
-185.0
 20
200.0
 30
0.0
 11
-216.1745049999999
 21
428.84344499999992
 31
0.0
  0
LINE
  5
65F
  8
NOTE
  6
CONTINUOUS
 62
     4
 10
-183.0897239999999
 20
239.95436000000001
 30
0.0
 11
-185.0
 21
200.0
 31
0.0
  0
LINE
  5
660
  8
NOTE
  6
CONTINUOUS
 62
     4
 10
-185.0
 20
200.0
 30
0.0
 11
-203.322833
 21
235.55662799999999
 31
0.0
  0
LINE
  5
661
  8
DETAIL
  6
CONTINUOUS
 62
     5
 10
160.0
 20
250.0
 30
0.0
 11
-160.0
 21
250.0
 31
0.0
  0
LINE
  5
662
  8
SIZE
  6
CONTINUOUS
 62
    30
 10
104.0
 20
-270.0
 30
0.0
 11
104.0
 21
-609.82311200000004
 31
0.0
  0
LINE
  5
663
  8
SIZE
  6
CONTINUOUS
 62
    30
 10
-104.0
 20
-270.0
 30
0.0
 11
-104.0
 21
-609.82311200000004
 31
0.0
  0
LINE
  5
664
  8
SIZE
  6
CONTINUOUS
 62
    30
 10
92.0
 20
-589.82311200000004
 30
0.0
 11
-92.0
 21
-589.82311200000004
 31
0.0
  0
LINE
  5
665
  8
SIZE
  6
CONTINUOUS
 62
    30
 10
-489.72360200000003
 20
-589.82311200000004
 30
0.0
 11
-104.0
 21
-589.82311200000004
 31
0.0
  0
TEXT
  5
666
  8
SIZE
  6
CONTINUOUS
 62
    30
 10
-478.98645985714268
 20
-564.82311200000004
 30
0.0
 40
64.0
  1
âË208
 41
0.9
 72
     1
 11
-364.60931699999992
 21
-564.82311200000004
 31
0.0
  0
CIRCLE
  5
667
  8
SIZE
  6
CONTINUOUS
 62
    30
 10
104.0
 20
-589.82311200000004
 30
0.0
 40
6.0
  0
LINE
  5
668
  8
SIZE
  6
CONTINUOUS
 62
    30
 10
104.0
 20
-589.82311200000004
 30
0.0
 11
92.0
 21
-589.82311200000004
 31
0.0
  0
CIRCLE
  5
669
  8
SIZE
  6
CONTINUOUS
 62
    30
 10
-104.0
 20
-589.82311200000004
 30
0.0
 40
6.0
  0
LINE
  5
66A
  8
SIZE
  6
CONTINUOUS
 62
    30
 10
-104.0
 20
-589.82311200000004
 30
0.0
 11
-92.0
 21
-589.82311200000004
 31
0.0
  0
LINE
  5
66B
  8
OUTLINE
  6
CONTINUOUS
 62
     3
 10
160.0
 20
250.0
 30
0.0
 11
-160.0
 21
250.0
 31
0.0
  0
LINE
  5
66C
  8
OUTLINE
  6
CONTINUOUS
 62
     3
 10
-160.0
 20
250.0
 30
0.0
 11
-160.0
 21
-250.0
 31
0.0
  0
LINE
  5
66D
  8
OUTLINE
  6
CONTINUOUS
 62
     3
 10
160.0
 20
-250.0
 30
0.0
 11
160.0
 21
250.0
 31
0.0
  0
LINE
  5
66E
  8
DETAIL
  6
CONTINUOUS
 62
     5
 10
-96.0
 20
720.0
 30
0.0
 11
96.0
 21
720.0
 31
0.0
  0
LINE
  5
66F
  8
DETAIL
  6
CONTINUOUS
 62
     5
 10
-96.0
 20
-320.0
 30
0.0
 11
96.0
 21
-320.0
 31
0.0
  0
LINE
  5
670
  8
DETAIL
  6
CONTINUOUS
 62
     5
 10
-96.0
 20
-310.0
 30
0.0
 11
96.0
 21
-310.0
 31
0.0
  0
LINE
  5
671
  8
DETAIL
  6
CONTINUOUS
 62
     5
 10
-96.0
 20
-310.0
 30
0.0
 11
-104.0
 21
-250.0
 31
0.0
  0
LINE
  5
672
  8
DETAIL
  6
CONTINUOUS
 62
     5
 10
-96.0
 20
-320.0
 30
0.0
 11
-96.0
 21
-310.0
 31
0.0
  0
LINE
  5
673
  8
DETAIL
  6
CONTINUOUS
 62
     5
 10
96.0
 20
-310.0
 30
0.0
 11
104.0
 21
-250.0
 31
0.0
  0
LINE
  5
674
  8
DETAIL
  6
CONTINUOUS
 62
     5
 10
96.0
 20
-320.0
 30
0.0
 11
96.0
 21
-310.0
 31
0.0
  0
LINE
  5
675
  8
DETAIL
  6
CONTINUOUS
 62
     5
 10
-160.0
 20
-250.0
 30
0.0
 11
160.0
 21
-250.0
 31
0.0
  0
LINE
  5
676
  8
DETAIL
  6
CONTINUOUS
 62
     5
 10
-96.0
 20
710.0
 30
0.0
 11
-104.0
 21
645.0
 31
0.0
  0
LINE
  5
677
  8
DETAIL
  6
CONTINUOUS
 62
     5
 10
96.0
 20
710.0
 30
0.0
 11
104.0
 21
645.0
 31
0.0
  0
TEXT
  5
678
  8
ETC
  6
CONTINUOUS
 62
    61
 10
648.91429055825245
 20
835.78188511103303
 30
0.0
 40
50.0
  1
V-25ZMSQ2
 41
0.9
  0
LINE
  5
679
  8
SIZE
  6
CONTINUOUS
 62
    30
 10
-180.0
 20
-250.0
 30
0.0
 11
-445.04679168981238
 21
-249.99999999999989
 31
0.0
  0
LINE
  5
67A
  8
SIZE
  6
CONTINUOUS
 62
    30
 10
-136.0
 20
-319.99999999999972
 30
0.0
 11
-445.04679168981238
 21
-319.99999999999972
 31
0.0
  0
LINE
  5
67B
  8
SIZE
  6
CONTINUOUS
 62
    30
 10
-425.04679168981238
 20
-249.99999999999989
 30
0.0
 11
-425.04679168981238
 21
-237.99999999999989
 31
0.0
  0
LINE
  5
67C
  8
SIZE
  6
CONTINUOUS
 62
    30
 10
-425.04679168981238
 20
-249.99999999999989
 30
0.0
 11
-425.04679168981238
 21
-319.99999999999972
 31
0.0
  0
TEXT
  5
67D
  8
SIZE
  6
CONTINUOUS
 62
    30
 10
-445.04679168981232
 20
-331.62857142857121
 30
0.0
 40
64.0
  1
70
 50
90.0
 41
0.9
  0
CIRCLE
  5
67E
  8
SIZE
  6
CONTINUOUS
 62
    30
 39
50.0
 10
-425.04679168981238
 20
-319.99999999999972
 30
0.0
 40
6.0
  0
LINE
  5
67F
  8
OUTLINE
  6
CONTINUOUS
 62
     3
 39
50.0
 10
-160.0
 20
-250.0
 30
0.0
 11
160.0
 21
-250.0
 31
0.0
  0
LINE
  5
680
  8
SIZE
  6
CONTINUOUS
 62
    30
 39
50.0
 10
174.7384914130289
 20
-250.0
 30
0.0
 11
403.9757998485091
 21
-250.0
 31
0.0
  0
LINE
  5
681
  8
SIZE
  6
CONTINUOUS
 62
    30
 39
50.0
 10
385.13437826498011
 20
-250.0
 30
0.0
 11
385.13437826498011
 21
-595.42185804726523
 31
0.0
  0
CIRCLE
  5
682
  8
SIZE
  6
CONTINUOUS
 62
    30
 39
50.0
 10
385.13437826498011
 20
-250.0
 30
0.0
 40
6.0
  0
LINE
  5
683
  8
SERVICESPACE
  6
DASHDOT
 62
     2
 10
-225.0
 20
-280.0
 30
0.0
 11
225.0
 21
-280.0
 31
0.0
  0
LINE
  5
684
  8
SERVICESPACE
  6
DASHDOT
 62
     2
 10
-225.0
 20
170.0
 30
0.0
 11
225.0
 21
-280.0
 31
0.0
  0
LINE
  5
685
  8
SERVICESPACE
  6
DASHDOT
 62
     2
 10
225.0
 20
170.0
 30
0.0
 11
-225.0
 21
-280.0
 31
0.0
  0
LINE
  5
686
  8
SERVICESPACE
  6
DASHDOT
 62
     2
 10
-225.0
 20
170.0
 30
0.0
 11
225.0
 21
170.0
 31
0.0
  0
LINE
  5
687
  8
SERVICESPACE
  6
DASHDOT
 62
     2
 10
-225.0
 20
-280.0
 30
0.0
 11
-225.0
 21
170.0
 31
0.0
  0
LINE
  5
688
  8
SERVICESPACE
  6
DASHDOT
 62
     2
 10
225.0
 20
-280.0
 30
0.0
 11
225.0
 21
170.0
 31
0.0
  0
LINE
  5
689
  8
SIZE
  6
CONTINUOUS
 62
    30
 10
245.0
 20
-280.0
 30
0.0
 11
540.31797676655685
 21
-280.0
 31
0.0
  0
LINE
  5
68A
  8
SIZE
  6
CONTINUOUS
 62
    30
 10
245.0
 20
170.0
 30
0.0
 11
540.31797676655685
 21
169.9999999999998
 31
0.0
  0
LINE
  5
68B
  8
SIZE
  6
CONTINUOUS
 62
    30
 10
520.31797676655685
 20
-280.0
 30
0.0
 11
520.31797676655685
 21
169.9999999999998
 31
0.0
  0
CIRCLE
  5
68C
  8
SIZE
  6
CONTINUOUS
 62
    30
 39
50.0
 10
520.31797676655685
 20
169.9999999999998
 30
0.0
 40
6.0
  0
CIRCLE
  5
68D
  8
SIZE
  6
CONTINUOUS
 62
    30
 39
50.0
 10
520.31797676655685
 20
-280.0
 30
0.0
 40
6.0
  0
CIRCLE
  5
68E
  8
SIZE
  6
CONTINUOUS
 62
    30
 39
50.0
 10
385.13437826498011
 20
-280.0
 30
0.0
 40
6.0
  0
ENDSEC
  0
EOF
