  0
SECTION
  2
HEADER
  9
$ACADVER
  1
AC1009
  9
$INSBASE
 10
0.0
 20
0.0
 30
0.0
  9
$EXTMIN
 10
-833.36852299999998
 20
-1077.31934
 30
0.0
  9
$EXTMAX
 10
1069.618894461717
 20
1165.279574116495
 30
50.0
  9
$LIMMIN
 10
-2970.0
 20
-2100.0
  9
$LIMMAX
 10
2970.0
 20
2100.0
  9
$ORTHOMODE
 70
     1
  9
$REGENMODE
 70
     0
  9
$FILLMODE
 70
     1
  9
$QTEXTMODE
 70
     0
  9
$MIRRTEXT
 70
     0
  9
$DRAGMODE
 70
     2
  9
$LTSCALE
 40
20.0
  9
$OSMODE
 70
   175
  9
$ATTMODE
 70
     1
  9
$TEXTSIZE
 40
64.0
  9
$TRACEWID
 40
0.05
  9
$TEXTSTYLE
  7
STANDARD
  9
$CLAYER
  8
SIZE
  9
$CELTYPE
  6
CONTINUOUS
  9
$CECOLOR
 62
    30
  9
$DIMSCALE
 40
1.0
  9
$DIMASZ
 40
12.0
  9
$DIMEXO
 40
20.0
  9
$DIMDLI
 40
200.0
  9
$DIMRND
 40
0.0
  9
$DIMDLE
 40
0.0
  9
$DIMEXE
 40
20.0
  9
$DIMTP
 40
0.0
  9
$DIMTM
 40
0.0
  9
$DIMTXT
 40
64.0
  9
$DIMCEN
 40
0.09
  9
$DIMTSZ
 40
0.0
  9
$DIMTOL
 70
     0
  9
$DIMLIM
 70
     0
  9
$DIMTIH
 70
     0
  9
$DIMTOH
 70
     0
  9
$DIMSE1
 70
     0
  9
$DIMSE2
 70
     0
  9
$DIMTAD
 70
     1
  9
$DIMZIN
 70
     8
  9
$DIMBLK
  1
NONE
  9
$DIMASO
 70
     1
  9
$DIMSHO
 70
     0
  9
$DIMPOST
  1

  9
$DIMAPOST
  1

  9
$DIMALT
 70
     0
  9
$DIMALTD
 70
     2
  9
$DIMALTF
 40
25.399999999999999
  9
$DIMLFAC
 40
1.0
  9
$DIMTOFL
 70
     1
  9
$DIMTVP
 40
0.0
  9
$DIMTIX
 70
     1
  9
$DIMSOXD
 70
     0
  9
$DIMSAH
 70
     0
  9
$DIMBLK1
  1
NONE
  9
$DIMBLK2
  1
ORIGIN
  9
$DIMSTYLE
  2
STANDARD
  9
$DIMCLRD
 70
     0
  9
$DIMCLRE
 70
     0
  9
$DIMCLRT
 70
     0
  9
$DIMTFAC
 40
1.0
  9
$DIMGAP
 40
25.0
  9
$LUNITS
 70
     2
  9
$LUPREC
 70
     4
  9
$SKETCHINC
 40
0.1
  9
$FILLETRAD
 40
4.0
  9
$AUNITS
 70
     1
  9
$AUPREC
 70
     3
  9
$MENU
  1
ACAD
  9
$ELEVATION
 40
0.0
  9
$PELEVATION
 40
0.0
  9
$THICKNESS
 40
50.0
  9
$LIMCHECK
 70
     0
  9
$BLIPMODE
 70
     0
  9
$CHAMFERA
 40
0.0
  9
$CHAMFERB
 40
0.0
  9
$SKPOLY
 70
     0
  9
$TDCREATE
 40
2452321.3961996529
  9
$TDUPDATE
 40
2453778.6815272332
  9
$TDINDWG
 40
0.3672056019
  9
$TDUSRTIMER
 40
0.3672052431
  9
$USRTIMER
 70
     1
  9
$ANGBASE
 50
0.0
  9
$ANGDIR
 70
     0
  9
$PDMODE
 70
     3
  9
$PDSIZE
 40
-2.0
  9
$PLINEWID
 40
0.0
  9
$COORDS
 70
     2
  9
$SPLFRAME
 70
     0
  9
$SPLINETYPE
 70
     6
  9
$SPLINESEGS
 70
     8
  9
$ATTDIA
 70
     0
  9
$ATTREQ
 70
     1
  9
$HANDLING
 70
 22529
  9
$HANDSEED
  5
84F
  9
$SURFTAB1
 70
     6
  9
$SURFTAB2
 70
     6
  9
$SURFTYPE
 70
     6
  9
$SURFU
 70
     6
  9
$SURFV
 70
     6
  9
$UCSNAME
  2

  9
$UCSORG
 10
0.0
 20
0.0
 30
0.0
  9
$UCSXDIR
 10
1.0
 20
0.0
 30
0.0
  9
$UCSYDIR
 10
0.0
 20
1.0
 30
0.0
  9
$PUCSNAME
  2

  9
$PUCSORG
 10
0.0
 20
0.0
 30
0.0
  9
$PUCSXDIR
 10
1.0
 20
0.0
 30
0.0
  9
$PUCSYDIR
 10
0.0
 20
1.0
 30
0.0
  9
$USERI1
 70
     0
  9
$USERI2
 70
     0
  9
$USERI3
 70
     0
  9
$USERI4
 70
     0
  9
$USERI5
 70
     0
  9
$USERR1
 40
20.0
  9
$USERR2
 40
0.0
  9
$USERR3
 40
0.0
  9
$USERR4
 40
0.0
  9
$USERR5
 40
0.0
  9
$WORLDVIEW
 70
     1
  9
$SHADEDGE
 70
     3
  9
$SHADEDIF
 70
    70
  9
$TILEMODE
 70
     1
  9
$MAXACTVP
 70
    64
  9
$PLIMCHECK
 70
     0
  9
$PEXTMIN
 10
1.0000000000000000E+020
 20
1.0000000000000000E+020
 30
1.0000000000000000E+020
  9
$PEXTMAX
 10
-1.0000000000000000E+020
 20
-1.0000000000000000E+020
 30
-1.0000000000000000E+020
  9
$PLIMMIN
 10
0.0
 20
0.0
  9
$PLIMMAX
 10
12.0
 20
9.0
  9
$UNITMODE
 70
     0
  9
$VISRETAIN
 70
     1
  9
$PLINEGEN
 70
     0
  9
$PSLTSCALE
 70
     1
  0
ENDSEC
  0
SECTION
  2
TABLES
  0
TABLE
  2
VPORT
 70
     3
  0
VPORT
  2
*ACTIVE
 70
     0
 10
0.0
 20
0.0
 11
1.0
 21
1.0
 12
46.451582000001508
 22
30.98082778686739
 13
0.0
 23
0.0
 14
1.0
 24
1.0
 15
0.0
 25
0.0
 16
0.0
 26
0.0
 36
1.0
 17
0.0
 27
0.0
 37
0.0
 40
2607.0769566456129
 41
1.447268106734434
 42
50.0
 43
0.0
 44
0.0
 50
0.0
 51
0.0
 71
     0
 72
   100
 73
     1
 74
     0
 75
     0
 76
     0
 77
     0
 78
     0
  0
ENDTAB
  0
TABLE
  2
LTYPE
 70
     2
  0
LTYPE
  2
CONTINUOUS
 70
     0
  3
Ä└É³
 72
    65
 73
     0
 40
0.0
  0
LTYPE
  2
DASHDOT
 70
     0
  3
____ _ ____ _ ____ _ ____ _ ____ _ ____ _ ____
 72
    65
 73
     4
 40
5.5
 49
4.0
 49
-0.6
 49
0.3
 49
-0.6
  0
ENDTAB
  0
TABLE
  2
LAYER
 70
    12
  0
LAYER
  2
0
 70
     0
 62
     7
  6
CONTINUOUS
  0
LAYER
  2
SIZE
 70
     0
 62
    30
  6
CONTINUOUS
  0
LAYER
  2
BASIS
 70
     0
 62
     6
  6
DASHDOT
  0
LAYER
  2
OUTLINE
 70
     0
 62
     3
  6
CONTINUOUS
  0
LAYER
  2
DETAIL
 70
     0
 62
     5
  6
CONTINUOUS
  0
LAYER
  2
ARRANGE
 70
     0
 62
     1
  6
CONTINUOUS
  0
LAYER
  2
DEFPOINTS
 70
     0
 62
     7
  6
CONTINUOUS
  0
LAYER
  2
ETC
 70
     0
 62
    61
  6
CONTINUOUS
  0
LAYER
  2
FIX
 70
     0
 62
    11
  6
CONTINUOUS
  0
LAYER
  2
NOTE
 70
     0
 62
     4
  6
CONTINUOUS
  0
LAYER
  2
SERVICESPACE
 70
     0
 62
     2
  6
DASHDOT
  0
LAYER
  2
SYMBOLLINE
 70
     0
 62
    15
  6
CONTINUOUS
  0
ENDTAB
  0
TABLE
  2
STYLE
 70
     1
  0
STYLE
  2
STANDARD
 70
     0
 40
64.0
 41
0.9
 50
0.0
 71
     0
 42
64.0
  3
SIMPLEX.shx
  4
BIGFONT.shx
  0
ENDTAB
  0
TABLE
  2
VIEW
 70
     1
  0
VIEW
  2
ALL
 70
     0
 40
4282.6198079999967
 10
0.0
 20
41.309903999999989
 41
5940.0
 11
0.0
 21
0.0
 31
1.0
 12
0.0
 22
0.0
 32
0.0
 42
50.0
 43
0.0
 44
0.0
 50
0.0
 71
     0
  0
ENDTAB
  0
TABLE
  2
UCS
 70
     0
  0
ENDTAB
  0
TABLE
  2
APPID
 70
     1
  0
APPID
  2
ACAD
 70
     0
  0
ENDTAB
  0
TABLE
  2
DIMSTYLE
 70
     1
  0
DIMSTYLE
  2
STANDARD
 70
     0
  3

  4

  5

  6

  7

 40
1.0
 41
0.18
 42
0.0625
 43
0.38
 44
0.18
 45
0.0
 46
0.0
 47
0.0
 48
0.0
140
0.18
141
0.09
142
0.0
143
25.399999999999999
144
1.0
145
0.0
146
1.0
147
0.09
 71
     0
 72
     0
 73
     1
 74
     1
 75
     0
 76
     0
 77
     0
 78
     0
170
     0
171
     2
172
     0
173
     0
174
     0
175
     0
176
     0
177
     0
178
     0
  0
ENDTAB
  0
ENDSEC
  0
SECTION
  2
BLOCKS
  0
BLOCK
  8
0
  2
$MODEL_SPACE
 70
     0
 10
0.0
 20
0.0
 30
0.0
  3
$MODEL_SPACE
  1

  0
ENDBLK
  5
683
  8
0
  0
BLOCK
 67
     1
  8
0
  2
$PAPER_SPACE
 70
     0
 10
0.0
 20
0.0
 30
0.0
  3
$PAPER_SPACE
  1

  0
ENDBLK
  5
67F
 67
     1
  8
0
  0
BLOCK
  8
0
  2
DOT1
 70
     0
 10
0.0
 20
0.0
 30
0.0
  3
DOT1
  1

  0
CIRCLE
  5
69E
  8
SIZE
  6
CONTINUOUS
 62
     7
 10
0.0
 20
0.0
 30
0.0
 40
3.0
  0
ENDBLK
  5
69F
  8
0
  0
BLOCK
  8
0
  2
_ORIGIN
 70
     0
 10
0.0
 20
0.0
 30
0.0
  3
_ORIGIN
  1

  0
CIRCLE
  5
6A2
  8
0
  6
CONTINUOUS
 62
     7
 10
0.0
 20
0.0
 30
0.0
 40
0.5
  0
LINE
  5
6A3
  8
0
  6
CONTINUOUS
 62
     7
 10
0.0
 20
0.0
 30
0.0
 11
-1.0
 21
0.0
 31
0.0
  0
ENDBLK
  5
6A4
  8
0
  0
BLOCK
  8
0
 62
    30
  2
_NONE
 70
     0
 10
0.0
 20
0.0
 30
0.0
  3
_NONE
  1

  0
ENDBLK
  5
6A7
  8
0
 62
    30
  0
BLOCK
  8
0
 62
    30
  2
_OPEN30
 70
     0
 10
0.0
 20
0.0
 30
0.0
  3
_OPEN30
  1

  0
LINE
  5
6AA
  8
0
  6
BYBLOCK
 62
     0
 10
-1.0
 20
0.26794919
 30
0.0
 11
0.0
 21
0.0
 31
0.0
  0
LINE
  5
6AB
  8
0
  6
BYBLOCK
 62
     0
 10
0.0
 20
0.0
 30
0.0
 11
-1.0
 21
-0.26794919
 31
0.0
  0
LINE
  5
6AC
  8
0
  6
BYBLOCK
 62
     0
 10
0.0
 20
0.0
 30
0.0
 11
-1.0
 21
0.0
 31
0.0
  0
ENDBLK
  5
6AD
  8
0
 62
    30
  0
BLOCK
  8
0
 62
    30
  2
*D6
 70
     1
 10
0.0
 20
0.0
 30
0.0
  3
*D6
  1

  0
LINE
  5
6B0
  8
SIZE
  6
CONTINUOUS
 62
     0
 10
245.0
 20
-279.9999979839435
 30
0.0
 11
541.40376827184252
 21
-279.99999798394362
 31
0.0
  0
LINE
  5
6B1
  8
SIZE
  6
CONTINUOUS
 62
     0
 10
245.0
 20
170.00000201605641
 30
0.0
 11
541.40376827184252
 21
170.00000201605619
 31
0.0
  0
LINE
  5
6B2
  8
SIZE
  6
CONTINUOUS
 62
     0
 10
521.40376827184252
 20
-279.99999798394362
 30
0.0
 11
521.40376827184252
 21
170.00000201605619
 31
0.0
  0
TEXT
  5
6B3
  8
SIZE
  6
CONTINUOUS
 62
     0
 10
496.40376827184258
 20
-129.05714084108621
 30
0.0
 40
64.0
  1
450
 50
90.0
 41
0.9
  0
POINT
  5
6B4
  8
DEFPOINTS
  6
CONTINUOUS
 62
     0
 10
225.0
 20
-279.9999979839435
 30
0.0
  0
POINT
  5
6B5
  8
DEFPOINTS
  6
CONTINUOUS
 62
     0
 10
225.0
 20
170.00000201605641
 30
0.0
  0
POINT
  5
6B6
  8
DEFPOINTS
  6
CONTINUOUS
 62
     0
 10
521.40376827184252
 20
170.00000201605619
 30
0.0
  0
ENDBLK
  5
6B7
  8
0
 62
    30
  0
ENDSEC
  0
SECTION
  2
ENTITIES
  0
LINE
  5
6B8
  8
BASIS
  6
DASHDOT
 62
     6
 10
0.0
 20
-386.66412300000002
 30
0.0
 11
0.0
 21
835.25945999999988
 31
0.0
  0
LINE
  5
6B9
  8
BASIS
  6
DASHDOT
 62
     6
 10
-206.78192599999991
 20
0.0
 30
0.0
 11
203.48821100000001
 21
0.000004
 31
0.0
  0
LINE
  5
6BA
  8
DETAIL
  6
CONTINUOUS
 62
     5
 10
-160.0
 20
250.0
 30
0.0
 11
-160.0
 21
-250.0
 31
0.0
  0
LINE
  5
6BB
  8
DETAIL
  6
CONTINUOUS
 62
     5
 10
160.0
 20
-250.0
 30
0.0
 11
160.0
 21
250.0000039999999
 31
0.0
  0
LINE
  5
6BC
  8
DETAIL
  6
CONTINUOUS
 62
     5
 10
-126.0
 20
635.0
 30
0.0
 11
-126.0
 21
240.0
 31
0.0
  0
LINE
  5
6BD
  8
DETAIL
  6
CONTINUOUS
 62
     5
 10
126.0
 20
635.0
 30
0.0
 11
126.0
 21
240.00000499999999
 31
0.0
  0
LINE
  5
6BE
  8
DETAIL
  6
CONTINUOUS
 62
     5
 10
160.0
 20
250.0000039999999
 30
0.0
 11
126.0
 21
250.0000019999998
 31
0.0
  0
LINE
  5
6BF
  8
DETAIL
  6
CONTINUOUS
 62
     5
 10
-126.0
 20
635.0
 30
0.0
 11
126.0
 21
635.0
 31
0.0
  0
LINE
  5
6C0
  8
DETAIL
  6
CONTINUOUS
 62
     5
 10
-104.0
 20
645.0
 30
0.0
 11
104.0
 21
645.0
 31
0.0
  0
LINE
  5
6C1
  8
DETAIL
  6
CONTINUOUS
 62
     5
 10
-104.0
 20
635.0
 30
0.0
 11
-104.0
 21
645.0
 31
0.0
  0
LINE
  5
6C2
  8
DETAIL
  6
CONTINUOUS
 62
     5
 10
104.0
 20
635.0
 30
0.0
 11
104.0
 21
645.0
 31
0.0
  0
LINE
  5
6C3
  8
DETAIL
  6
CONTINUOUS
 62
     5
 10
-96.0
 20
710.0
 30
0.0
 11
96.0
 21
710.0
 31
0.0
  0
LINE
  5
6C4
  8
DETAIL
  6
CONTINUOUS
 62
     5
 10
-96.0
 20
720.0
 30
0.0
 11
-96.0
 21
710.0
 31
0.0
  0
LINE
  5
6C5
  8
DETAIL
  6
CONTINUOUS
 62
     5
 10
96.0
 20
720.0
 30
0.0
 11
96.0
 21
710.0
 31
0.0
  0
LINE
  5
6C6
  8
DETAIL
  6
CONTINUOUS
 62
     5
 10
-202.49999999999989
 20
222.0
 30
0.0
 11
-202.49999999999989
 21
178.0
 31
0.0
  0
LINE
  5
6C7
  8
DETAIL
  6
CONTINUOUS
 62
     5
 10
-160.0
 20
170.0
 30
0.0
 11
-160.0
 21
230.0
 31
0.0
  0
LINE
  5
6C8
  8
DETAIL
  6
CONTINUOUS
 62
     5
 10
-191.0
 20
192.688661
 30
0.0
 11
-191.0
 21
207.41958099999991
 31
0.0
  0
LINE
  5
6C9
  8
DETAIL
  6
CONTINUOUS
 62
     5
 10
-179.0
 20
192.688661
 30
0.0
 11
-179.0
 21
207.41958099999991
 31
0.0
  0
LINE
  5
6CA
  8
DETAIL
  6
CONTINUOUS
 62
     5
 10
-196.0
 20
190.60689899999991
 30
0.0
 11
-196.0
 21
209.50134299999991
 31
0.0
  0
LINE
  5
6CB
  8
DETAIL
  6
CONTINUOUS
 62
     5
 10
-174.0
 20
190.60689899999991
 30
0.0
 11
-174.0
 21
209.50134299999991
 31
0.0
  0
LINE
  5
6CC
  8
DETAIL
  6
CONTINUOUS
 62
     5
 10
-165.0
 20
170.0
 30
0.0
 11
-165.0
 21
230.0
 31
0.0
  0
LINE
  5
6CD
  8
DETAIL
  6
CONTINUOUS
 62
     5
 10
-160.0
 20
170.0
 30
0.0
 11
-194.5
 21
170.0
 31
0.0
  0
ARC
  5
6CE
  8
DETAIL
  6
CONTINUOUS
 62
     5
 10
-185.0
 20
200.05412100000001
 30
0.0
 40
9.5
 50
230.83328899999989
 51
309.16671099999991
  0
ARC
  5
6CF
  8
DETAIL
  6
CONTINUOUS
 62
     5
 10
-185.0
 20
200.05412100000001
 30
0.0
 40
14.5
 50
220.65724899999981
 51
319.34275099999991
  0
ARC
  5
6D0
  8
DETAIL
  6
CONTINUOUS
 62
     5
 10
-194.5
 20
178.0
 30
0.0
 40
8.0
 50
180.0
 51
270.0
  0
LINE
  5
6D1
  8
DETAIL
  6
CONTINUOUS
 62
     5
 10
-160.0
 20
230.0
 30
0.0
 11
-194.5
 21
230.0
 31
0.0
  0
ARC
  5
6D2
  8
DETAIL
  6
CONTINUOUS
 62
     5
 10
-185.0
 20
200.05412100000001
 30
0.0
 40
9.5
 50
50.833289000000001
 51
129.16671099999991
  0
ARC
  5
6D3
  8
DETAIL
  6
CONTINUOUS
 62
     5
 10
-185.0
 20
200.05412100000001
 30
0.0
 40
14.5
 50
40.657249
 51
139.34275099999991
  0
ARC
  5
6D4
  8
DETAIL
  6
CONTINUOUS
 62
     5
 10
-194.5
 20
222.0
 30
0.0
 40
8.0
 50
90.0
 51
180.0
  0
LINE
  5
6D5
  8
NOTE
  6
CONTINUOUS
 62
     4
 10
-205.0
 20
200.0
 30
0.0
 11
-165.0
 21
200.0
 31
0.0
  0
LINE
  5
6D6
  8
NOTE
  6
CONTINUOUS
 62
     4
 10
-185.0
 20
220.0
 30
0.0
 11
-185.0
 21
180.0
 31
0.0
  0
CIRCLE
  5
6D7
  8
FIX
  6
CONTINUOUS
 62
    11
 39
50.0
 10
-185.0
 20
200.0
 30
0.0
 40
6.0
  0
CIRCLE
  5
6D8
  8
FIX
  6
CONTINUOUS
 62
    11
 39
50.0
 10
185.0
 20
200.0000039999999
 30
0.0
 40
6.0
  0
LINE
  5
6D9
  8
DETAIL
  6
CONTINUOUS
 62
     5
 10
165.0
 20
170.0000039999999
 30
0.0
 11
165.0
 21
230.00000399999999
 31
0.0
  0
LINE
  5
6DA
  8
DETAIL
  6
CONTINUOUS
 62
     5
 10
160.0
 20
170.0000039999999
 30
0.0
 11
160.0
 21
230.00000399999999
 31
0.0
  0
LINE
  5
6DB
  8
DETAIL
  6
CONTINUOUS
 62
     5
 10
202.49999999999989
 20
222.0000039999999
 30
0.0
 11
202.49999999999989
 21
178.00000399999999
 31
0.0
  0
ARC
  5
6DC
  8
DETAIL
  6
CONTINUOUS
 62
     5
 10
185.0
 20
200.05412399999989
 30
0.0
 40
14.5
 50
220.65724899999981
 51
319.34275099999991
  0
LINE
  5
6DD
  8
NOTE
  6
CONTINUOUS
 62
     4
 10
205.0
 20
200.0000039999999
 30
0.0
 11
165.0
 21
200.0000039999999
 31
0.0
  0
LINE
  5
6DE
  8
NOTE
  6
CONTINUOUS
 62
     4
 10
185.0
 20
220.0000039999999
 30
0.0
 11
185.0
 21
180.00000399999999
 31
0.0
  0
LINE
  5
6DF
  8
DETAIL
  6
CONTINUOUS
 62
     5
 10
160.0
 20
170.0000039999999
 30
0.0
 11
194.5
 21
170.0000039999999
 31
0.0
  0
ARC
  5
6E0
  8
DETAIL
  6
CONTINUOUS
 62
     5
 10
194.5
 20
178.00000399999999
 30
0.0
 40
8.0
 50
270.0
 51
0.0
  0
ARC
  5
6E1
  8
DETAIL
  6
CONTINUOUS
 62
     5
 10
185.0
 20
200.05412399999989
 30
0.0
 40
14.5
 50
40.657249
 51
139.34275099999991
  0
LINE
  5
6E2
  8
DETAIL
  6
CONTINUOUS
 62
     5
 10
160.0
 20
230.00000399999999
 30
0.0
 11
194.5
 21
230.00000399999999
 31
0.0
  0
ARC
  5
6E3
  8
DETAIL
  6
CONTINUOUS
 62
     5
 10
194.5
 20
222.0000039999999
 30
0.0
 40
8.0
 50
0.0
 51
90.0
  0
LINE
  5
6E4
  8
DETAIL
  6
CONTINUOUS
 62
     5
 10
196.0
 20
190.6069029999999
 30
0.0
 11
196.0
 21
209.5013459999999
 31
0.0
  0
LINE
  5
6E5
  8
DETAIL
  6
CONTINUOUS
 62
     5
 10
174.0
 20
190.6069029999999
 30
0.0
 11
174.0
 21
209.5013459999999
 31
0.0
  0
LINE
  5
6E6
  8
DETAIL
  6
CONTINUOUS
 62
     5
 10
179.0
 20
192.6886649999999
 30
0.0
 11
179.0
 21
207.4195839999999
 31
0.0
  0
LINE
  5
6E7
  8
DETAIL
  6
CONTINUOUS
 62
     5
 10
191.0
 20
192.6886649999999
 30
0.0
 11
191.0
 21
207.4195839999999
 31
0.0
  0
ARC
  5
6E8
  8
DETAIL
  6
CONTINUOUS
 62
     5
 10
185.0
 20
200.05412399999989
 30
0.0
 40
9.5
 50
50.833289000000001
 51
129.16671099999991
  0
ARC
  5
6E9
  8
DETAIL
  6
CONTINUOUS
 62
     5
 10
185.0
 20
200.05412399999989
 30
0.0
 40
9.5
 50
230.83328899999989
 51
309.16671099999991
  0
CIRCLE
  5
6EA
  8
FIX
  6
CONTINUOUS
 62
    11
 39
50.0
 10
-185.0
 20
-200.0
 30
0.0
 40
6.0
  0
LINE
  5
6EB
  8
DETAIL
  6
CONTINUOUS
 62
     5
 10
-165.0
 20
-170.0
 30
0.0
 11
-165.0
 21
-230.0
 31
0.0
  0
LINE
  5
6EC
  8
DETAIL
  6
CONTINUOUS
 62
     5
 10
-160.0
 20
-170.0
 30
0.0
 11
-160.0
 21
-230.0
 31
0.0
  0
LINE
  5
6ED
  8
DETAIL
  6
CONTINUOUS
 62
     5
 10
-202.49999999999989
 20
-222.0
 30
0.0
 11
-202.49999999999989
 21
-178.0
 31
0.0
  0
ARC
  5
6EE
  8
DETAIL
  6
CONTINUOUS
 62
     5
 10
-185.0
 20
-200.05412100000001
 30
0.0
 40
14.5
 50
40.657249
 51
139.34275099999991
  0
LINE
  5
6EF
  8
NOTE
  6
CONTINUOUS
 62
     4
 10
-205.0
 20
-200.0
 30
0.0
 11
-165.0
 21
-200.0
 31
0.0
  0
LINE
  5
6F0
  8
NOTE
  6
CONTINUOUS
 62
     4
 10
-185.0
 20
-220.0
 30
0.0
 11
-185.0
 21
-180.0
 31
0.0
  0
LINE
  5
6F1
  8
DETAIL
  6
CONTINUOUS
 62
     5
 10
-160.0
 20
-170.0
 30
0.0
 11
-194.5
 21
-170.0
 31
0.0
  0
ARC
  5
6F2
  8
DETAIL
  6
CONTINUOUS
 62
     5
 10
-194.5
 20
-178.0
 30
0.0
 40
8.0
 50
90.0
 51
180.0
  0
ARC
  5
6F3
  8
DETAIL
  6
CONTINUOUS
 62
     5
 10
-185.0
 20
-200.05412100000001
 30
0.0
 40
14.5
 50
220.65724899999981
 51
319.34275099999991
  0
LINE
  5
6F4
  8
DETAIL
  6
CONTINUOUS
 62
     5
 10
-160.0
 20
-230.0
 30
0.0
 11
-194.5
 21
-230.0
 31
0.0
  0
ARC
  5
6F5
  8
DETAIL
  6
CONTINUOUS
 62
     5
 10
-194.5
 20
-222.0
 30
0.0
 40
8.0
 50
180.0
 51
270.0
  0
LINE
  5
6F6
  8
DETAIL
  6
CONTINUOUS
 62
     5
 10
-196.0
 20
-190.60689899999991
 30
0.0
 11
-196.0
 21
-209.50134299999991
 31
0.0
  0
LINE
  5
6F7
  8
DETAIL
  6
CONTINUOUS
 62
     5
 10
-174.0
 20
-190.60689899999991
 30
0.0
 11
-174.0
 21
-209.50134299999991
 31
0.0
  0
LINE
  5
6F8
  8
DETAIL
  6
CONTINUOUS
 62
     5
 10
-179.0
 20
-192.688661
 30
0.0
 11
-179.0
 21
-207.41958099999991
 31
0.0
  0
LINE
  5
6F9
  8
DETAIL
  6
CONTINUOUS
 62
     5
 10
-191.0
 20
-192.688661
 30
0.0
 11
-191.0
 21
-207.41958099999991
 31
0.0
  0
ARC
  5
6FA
  8
DETAIL
  6
CONTINUOUS
 62
     5
 10
-185.0
 20
-200.05412100000001
 30
0.0
 40
9.5
 50
230.83328899999989
 51
309.16671099999991
  0
ARC
  5
6FB
  8
DETAIL
  6
CONTINUOUS
 62
     5
 10
-185.0
 20
-200.05412100000001
 30
0.0
 40
9.5
 50
50.833289000000001
 51
129.16671099999991
  0
CIRCLE
  5
6FC
  8
FIX
  6
CONTINUOUS
 62
    11
 39
50.0
 10
185.0
 20
-199.99999600000001
 30
0.0
 40
6.0
  0
LINE
  5
6FD
  8
NOTE
  6
CONTINUOUS
 62
     4
 10
205.0
 20
-199.99999600000001
 30
0.0
 11
165.0
 21
-199.99999600000001
 31
0.0
  0
LINE
  5
6FE
  8
NOTE
  6
CONTINUOUS
 62
     4
 10
185.0
 20
-219.9999959999999
 30
0.0
 11
185.0
 21
-179.99999600000001
 31
0.0
  0
ARC
  5
6FF
  8
DETAIL
  6
CONTINUOUS
 62
     5
 10
185.0
 20
-200.05411699999991
 30
0.0
 40
14.5
 50
40.657249
 51
139.34275099999991
  0
LINE
  5
700
  8
DETAIL
  6
CONTINUOUS
 62
     5
 10
202.49999999999989
 20
-221.9999959999999
 30
0.0
 11
202.49999999999989
 21
-177.99999600000001
 31
0.0
  0
LINE
  5
701
  8
DETAIL
  6
CONTINUOUS
 62
     5
 10
160.0
 20
-169.99999600000001
 30
0.0
 11
160.0
 21
-229.99999600000001
 31
0.0
  0
LINE
  5
702
  8
DETAIL
  6
CONTINUOUS
 62
     5
 10
165.0
 20
-169.99999600000001
 30
0.0
 11
165.0
 21
-229.99999600000001
 31
0.0
  0
LINE
  5
703
  8
DETAIL
  6
CONTINUOUS
 62
     5
 10
160.0
 20
-169.99999600000001
 30
0.0
 11
194.5
 21
-169.99999600000001
 31
0.0
  0
ARC
  5
704
  8
DETAIL
  6
CONTINUOUS
 62
     5
 10
194.5
 20
-177.99999600000001
 30
0.0
 40
8.0
 50
0.0
 51
90.0
  0
LINE
  5
705
  8
DETAIL
  6
CONTINUOUS
 62
     5
 10
160.0
 20
-229.99999600000001
 30
0.0
 11
194.5
 21
-229.99999600000001
 31
0.0
  0
ARC
  5
706
  8
DETAIL
  6
CONTINUOUS
 62
     5
 10
185.0
 20
-200.05411699999991
 30
0.0
 40
14.5
 50
220.65724899999981
 51
319.34275099999991
  0
ARC
  5
707
  8
DETAIL
  6
CONTINUOUS
 62
     5
 10
185.0
 20
-200.05411699999991
 30
0.0
 40
9.5
 50
50.833289000000001
 51
129.16671099999991
  0
ARC
  5
708
  8
DETAIL
  6
CONTINUOUS
 62
     5
 10
185.0
 20
-200.05411699999991
 30
0.0
 40
9.5
 50
230.83328899999989
 51
309.16671099999991
  0
LINE
  5
709
  8
DETAIL
  6
CONTINUOUS
 62
     5
 10
191.0
 20
-192.68865700000001
 30
0.0
 11
191.0
 21
-207.419577
 31
0.0
  0
LINE
  5
70A
  8
DETAIL
  6
CONTINUOUS
 62
     5
 10
179.0
 20
-192.68865700000001
 30
0.0
 11
179.0
 21
-207.419577
 31
0.0
  0
LINE
  5
70B
  8
DETAIL
  6
CONTINUOUS
 62
     5
 10
174.0
 20
-190.60689500000001
 30
0.0
 11
174.0
 21
-209.501339
 31
0.0
  0
LINE
  5
70C
  8
DETAIL
  6
CONTINUOUS
 62
     5
 10
196.0
 20
-190.60689500000001
 30
0.0
 11
196.0
 21
-209.501339
 31
0.0
  0
ARC
  5
70D
  8
DETAIL
  6
CONTINUOUS
 62
     5
 10
194.5
 20
-221.9999959999999
 30
0.0
 40
8.0
 50
270.0
 51
0.0
  0
LINE
  5
70E
  8
SIZE
  6
CONTINUOUS
 62
    30
 10
96.0
 20
740.0
 30
0.0
 11
96.0
 21
872.98728195275351
 31
0.0
  0
LINE
  5
70F
  8
SIZE
  6
CONTINUOUS
 62
    30
 10
-96.0
 20
740.0
 30
0.0
 11
-96.0
 21
876.29575761131207
 31
0.0
  0
LINE
  5
710
  8
SIZE
  6
CONTINUOUS
 62
    30
 10
84.0
 20
841.42444295202483
 30
0.0
 11
-84.0
 21
841.42444295202483
 31
0.0
  0
LINE
  5
711
  8
SIZE
  6
CONTINUOUS
 62
    30
 10
-388.22665499999999
 20
841.42444295202483
 30
0.0
 11
-96.0
 21
841.42444295202483
 31
0.0
  0
TEXT
  5
712
  8
SIZE
  6
CONTINUOUS
 62
    30
 10
-377.48951257142841
 20
866.42444295202483
 30
0.0
 40
64.0
  1
âË192
 41
0.9
 72
     1
 11
-268.59808399999991
 21
866.42444295202483
 31
0.0
  0
CIRCLE
  5
713
  8
SIZE
  6
CONTINUOUS
 62
    30
 10
96.0
 20
841.42444295202483
 30
0.0
 40
6.0
  0
LINE
  5
714
  8
SIZE
  6
CONTINUOUS
 62
    30
 10
96.0
 20
841.42444295202483
 30
0.0
 11
84.0
 21
841.42444295202483
 31
0.0
  0
CIRCLE
  5
715
  8
SIZE
  6
CONTINUOUS
 62
    30
 10
-96.0
 20
841.42444295202483
 30
0.0
 40
6.0
  0
LINE
  5
716
  8
SIZE
  6
CONTINUOUS
 62
    30
 10
-96.0
 20
841.42444295202483
 30
0.0
 11
-84.0
 21
841.42444295202483
 31
0.0
  0
LINE
  5
717
  8
SIZE
  6
CONTINUOUS
 62
    30
 10
104.0
 20
665.0
 30
0.0
 11
104.0
 21
992.0923206798343
 31
0.0
  0
LINE
  5
718
  8
SIZE
  6
CONTINUOUS
 62
    30
 10
-104.0
 20
665.0
 30
0.0
 11
-104.0
 21
992.0923206798343
 31
0.0
  0
LINE
  5
719
  8
SIZE
  6
CONTINUOUS
 62
    30
 10
92.0
 20
958.05267195202475
 30
0.0
 11
-92.0
 21
958.05267195202475
 31
0.0
  0
LINE
  5
71A
  8
SIZE
  6
CONTINUOUS
 62
    30
 10
-386.96194800000001
 20
958.05267195202475
 30
0.0
 11
-104.0
 21
958.05267195202475
 31
0.0
  0
TEXT
  5
71B
  8
SIZE
  6
CONTINUOUS
 62
    30
 10
-376.22480485714289
 20
983.05267195202475
 30
0.0
 40
64.0
  1
âË208
 41
0.9
 72
     1
 11
-261.84766200000001
 21
983.05267195202475
 31
0.0
  0
CIRCLE
  5
71C
  8
SIZE
  6
CONTINUOUS
 62
    30
 10
104.0
 20
958.05267195202475
 30
0.0
 40
6.0
  0
LINE
  5
71D
  8
SIZE
  6
CONTINUOUS
 62
    30
 10
104.0
 20
958.05267195202475
 30
0.0
 11
92.0
 21
958.05267195202475
 31
0.0
  0
CIRCLE
  5
71E
  8
SIZE
  6
CONTINUOUS
 62
    30
 10
-104.0
 20
958.05267195202475
 30
0.0
 40
6.0
  0
LINE
  5
71F
  8
SIZE
  6
CONTINUOUS
 62
    30
 10
-104.0
 20
958.05267195202475
 30
0.0
 11
-92.0
 21
958.05267195202475
 31
0.0
  0
LINE
  5
720
  8
SIZE
  6
CONTINUOUS
 62
    30
 10
126.0
 20
655.0
 30
0.0
 11
126.0
 21
1104.5804141598701
 31
0.0
  0
LINE
  5
721
  8
SIZE
  6
CONTINUOUS
 62
    30
 10
-126.0
 20
655.0
 30
0.0
 11
-126.0
 21
1107.8888898184291
 31
0.0
  0
LINE
  5
722
  8
SIZE
  6
CONTINUOUS
 62
    30
 10
114.0
 20
1076.279574116496
 30
0.0
 11
-114.0
 21
1076.279574116496
 31
0.0
  0
CIRCLE
  5
723
  8
SIZE
  6
CONTINUOUS
 62
    30
 10
126.0
 20
1076.279574116496
 30
0.0
 40
6.0
  0
LINE
  5
724
  8
SIZE
  6
CONTINUOUS
 62
    30
 10
126.0
 20
1076.279574116496
 30
0.0
 11
114.0
 21
1076.279574116496
 31
0.0
  0
CIRCLE
  5
725
  8
SIZE
  6
CONTINUOUS
 62
    30
 10
-126.0
 20
1076.279574116496
 30
0.0
 40
6.0
  0
LINE
  5
726
  8
SIZE
  6
CONTINUOUS
 62
    30
 10
-126.0
 20
1076.279574116496
 30
0.0
 11
-114.0
 21
1076.279574116496
 31
0.0
  0
TEXT
  5
727
  8
SIZE
  6
CONTINUOUS
 62
    30
 10
-114.3771428571428
 20
1101.2795741164939
 30
0.0
 40
64.0
  1
âË252
 41
0.9
 72
     1
 11
0.0
 21
1101.2795741164939
 31
0.0
  0
LINE
  5
728
  8
SIZE
  6
CONTINUOUS
 62
    30
 10
116.0
 20
720.0
 30
0.0
 11
293.23784699999982
 21
720.0
 31
0.0
  0
LINE
  5
729
  8
SIZE
  6
CONTINUOUS
 62
    30
 10
146.0
 20
635.0
 30
0.0
 11
293.23784699999982
 21
635.0
 31
0.0
  0
LINE
  5
72A
  8
SIZE
  6
CONTINUOUS
 62
    30
 10
273.23784699999999
 20
708.0
 30
0.0
 11
273.23784699999999
 21
647.0
 31
0.0
  0
LINE
  5
72B
  8
SIZE
  6
CONTINUOUS
 62
    30
 10
273.23784699999999
 20
463.66750799999988
 30
0.0
 11
273.23784699999999
 21
635.0
 31
0.0
  0
TEXT
  5
72C
  8
SIZE
  6
CONTINUOUS
 62
    30
 10
248.23784699999999
 20
488.66750757142847
 30
0.0
 40
64.0
  1
85
 50
90.0
 41
0.9
 72
     1
 11
248.23784699999999
 21
535.29607899999996
 31
0.0
  0
CIRCLE
  5
72D
  8
SIZE
  6
CONTINUOUS
 62
    30
 10
273.23784699999999
 20
720.0
 30
0.0
 40
6.0
  0
LINE
  5
72E
  8
SIZE
  6
CONTINUOUS
 62
    30
 10
273.23784699999999
 20
720.0
 30
0.0
 11
273.23784699999999
 21
708.0
 31
0.0
  0
CIRCLE
  5
72F
  8
SIZE
  6
CONTINUOUS
 62
    30
 10
273.23784699999999
 20
635.0
 30
0.0
 40
6.0
  0
LINE
  5
730
  8
SIZE
  6
CONTINUOUS
 62
    30
 10
273.23784699999999
 20
635.0
 30
0.0
 11
273.23784699999999
 21
647.0
 31
0.0
  0
LINE
  5
731
  8
SIZE
  6
CONTINUOUS
 62
    30
 10
-116.0
 20
-320.0
 30
0.0
 11
-569.75791999999979
 21
-320.0
 31
0.0
  0
LINE
  5
732
  8
SIZE
  6
CONTINUOUS
 62
    30
 10
-116.0
 20
720.0
 30
0.0
 11
-569.75791999999979
 21
720.0
 31
0.0
  0
LINE
  5
733
  8
SIZE
  6
CONTINUOUS
 62
    30
 10
-549.75792000000001
 20
-308.0
 30
0.0
 11
-549.75792000000001
 21
708.0
 31
0.0
  0
CIRCLE
  5
734
  8
SIZE
  6
CONTINUOUS
 62
    30
 10
-549.75792000000001
 20
-320.0
 30
0.0
 40
6.0
  0
LINE
  5
735
  8
SIZE
  6
CONTINUOUS
 62
    30
 10
-549.75792000000001
 20
-320.0
 30
0.0
 11
-549.75792000000001
 21
-308.0
 31
0.0
  0
CIRCLE
  5
736
  8
SIZE
  6
CONTINUOUS
 62
    30
 10
-549.75792000000001
 20
720.0
 30
0.0
 40
6.0
  0
LINE
  5
737
  8
SIZE
  6
CONTINUOUS
 62
    30
 10
-549.75792000000001
 20
720.0
 30
0.0
 11
-549.75792000000001
 21
708.0
 31
0.0
  0
TEXT
  5
738
  8
SIZE
  6
CONTINUOUS
 62
    30
 10
-574.75792000000001
 20
104.0
 30
0.0
 40
64.0
  1
1040
 50
90.0
 41
0.9
 72
     1
 11
-574.75792000000001
 21
200.0
 31
0.0
  0
LINE
  5
739
  8
SIZE
  6
CONTINUOUS
 62
    30
 10
-180.0
 20
-250.0
 30
0.0
 11
-446.75291900000002
 21
-250.0
 31
0.0
  0
LINE
  5
73A
  8
SIZE
  6
CONTINUOUS
 62
    30
 10
-180.0
 20
250.0
 30
0.0
 11
-446.75291900000002
 21
250.0
 31
0.0
  0
LINE
  5
73B
  8
SIZE
  6
CONTINUOUS
 62
    30
 10
-426.75291900000002
 20
-320.0
 30
0.0
 11
-426.75291900000002
 21
238.0
 31
0.0
  0
CIRCLE
  5
73C
  8
SIZE
  6
CONTINUOUS
 62
    30
 10
-426.75291900000002
 20
-250.0
 30
0.0
 40
6.0
  0
LINE
  5
73D
  8
SIZE
  6
CONTINUOUS
 62
    30
 10
-426.75291900000002
 20
-250.0
 30
0.0
 11
-426.75291900000002
 21
-238.0
 31
0.0
  0
CIRCLE
  5
73E
  8
SIZE
  6
CONTINUOUS
 62
    30
 10
-426.75291900000002
 20
250.0
 30
0.0
 40
6.0
  0
LINE
  5
73F
  8
SIZE
  6
CONTINUOUS
 62
    30
 10
-426.75291900000002
 20
250.0
 30
0.0
 11
-426.75291900000002
 21
238.0
 31
0.0
  0
TEXT
  5
740
  8
SIZE
  6
CONTINUOUS
 62
    30
 10
-451.75291900000002
 20
-74.05714285714285
 30
0.0
 40
64.0
  1
500
 50
90.0
 41
0.9
 72
     1
 11
-451.75291900000002
 21
0.0
 31
0.0
  0
LINE
  5
741
  8
SIZE
  6
CONTINUOUS
 62
    30
 10
225.0
 20
200.0000039999999
 30
0.0
 11
402.69707899999997
 21
200.0000039999999
 31
0.0
  0
LINE
  5
742
  8
SIZE
  6
CONTINUOUS
 62
    30
 10
225.0
 20
-199.99999600000001
 30
0.0
 11
402.69707899999997
 21
-199.99999600000001
 31
0.0
  0
LINE
  5
743
  8
SIZE
  6
CONTINUOUS
 62
    30
 10
382.69707899999992
 20
188.0000039999999
 30
0.0
 11
382.69707899999992
 21
-187.99999600000001
 31
0.0
  0
CIRCLE
  5
744
  8
SIZE
  6
CONTINUOUS
 62
    30
 10
382.69707899999992
 20
200.0000039999999
 30
0.0
 40
6.0
  0
LINE
  5
745
  8
SIZE
  6
CONTINUOUS
 62
    30
 10
382.69707899999992
 20
200.0000039999999
 30
0.0
 11
382.69707899999992
 21
188.0000039999999
 31
0.0
  0
CIRCLE
  5
746
  8
SIZE
  6
CONTINUOUS
 62
    30
 10
382.69707899999992
 20
-199.99999600000001
 30
0.0
 40
6.0
  0
LINE
  5
747
  8
SIZE
  6
CONTINUOUS
 62
    30
 10
382.69707899999992
 20
-199.99999600000001
 30
0.0
 11
382.69707899999992
 21
-187.99999600000001
 31
0.0
  0
TEXT
  5
748
  8
SIZE
  6
CONTINUOUS
 62
    30
 10
357.69707899999992
 20
-74.057138857142846
 30
0.0
 40
64.0
  1
400
 50
90.0
 41
0.9
 72
     1
 11
357.69707899999992
 21
0.000004
 31
0.0
  0
LINE
  5
749
  8
SIZE
  6
CONTINUOUS
 62
    30
 10
116.0
 20
-320.0
 30
0.0
 11
541.86352599999998
 21
-320.0
 31
0.0
  0
TEXT
  5
74A
  8
SIZE
  6
CONTINUOUS
 62
    30
 10
354.5433514305613
 20
-558.43655505776348
 30
0.0
 40
64.0
  1
0ü`30
 50
90.0
 41
0.9
 72
     1
 11
354.5433514305613
 21
-449.81941220062072
 31
0.0
  0
TEXT
  5
74B
  8
SIZE
  6
CONTINUOUS
 62
    30
 10
496.86352599999998
 20
-175.53714285714281
 30
0.0
 40
64.0
  1
üá450
 50
90.0
 41
0.9
 72
     1
 11
496.86352599999998
 21
-65.0
 31
0.0
  0
TEXT
  5
74C
  8
NOTE
  6
CONTINUOUS
 62
     4
 10
-83.951318999999998
 20
90.429547999999997
 30
0.0
 40
64.0
  1
ô_îƒî¹
 41
0.9
  0
LINE
  5
74D
  8
SIZE
  6
CONTINUOUS
 62
    30
 10
96.0
 20
-340.0
 30
0.0
 11
96.0
 21
-593.95544900000004
 31
0.0
  0
LINE
  5
74E
  8
SIZE
  6
CONTINUOUS
 62
    30
 10
-96.0
 20
-340.0
 30
0.0
 11
-96.0
 21
-593.95544900000004
 31
0.0
  0
LINE
  5
74F
  8
SIZE
  6
CONTINUOUS
 62
    30
 10
84.0
 20
-573.95544900000004
 30
0.0
 11
-84.0
 21
-573.95544900000004
 31
0.0
  0
LINE
  5
750
  8
SIZE
  6
CONTINUOUS
 62
    30
 10
-482.54675399999991
 20
-573.95544900000004
 30
0.0
 11
-96.0
 21
-573.95544900000004
 31
0.0
  0
TEXT
  5
751
  8
SIZE
  6
CONTINUOUS
 62
    30
 10
-471.80961057142849
 20
-548.95544900000004
 30
0.0
 40
64.0
  1
âË192
 41
0.9
 72
     1
 11
-362.91818199999989
 21
-548.95544900000004
 31
0.0
  0
CIRCLE
  5
752
  8
SIZE
  6
CONTINUOUS
 62
    30
 10
96.0
 20
-573.95544900000004
 30
0.0
 40
6.0
  0
LINE
  5
753
  8
SIZE
  6
CONTINUOUS
 62
    30
 10
96.0
 20
-573.95544900000004
 30
0.0
 11
84.0
 21
-573.95544900000004
 31
0.0
  0
CIRCLE
  5
754
  8
SIZE
  6
CONTINUOUS
 62
    30
 10
-96.0
 20
-573.95544900000004
 30
0.0
 40
6.0
  0
LINE
  5
755
  8
SIZE
  6
CONTINUOUS
 62
    30
 10
-96.0
 20
-573.95544900000004
 30
0.0
 11
-84.0
 21
-573.95544900000004
 31
0.0
  0
LINE
  5
756
  8
SIZE
  6
CONTINUOUS
 62
    30
 10
160.0
 20
-269.9999959999999
 30
0.0
 11
160.0
 21
-830.25797899999986
 31
0.0
  0
LINE
  5
757
  8
SIZE
  6
CONTINUOUS
 62
    30
 10
-160.0
 20
-270.0
 30
0.0
 11
-160.0
 21
-830.25797899999986
 31
0.0
  0
LINE
  5
758
  8
SIZE
  6
CONTINUOUS
 62
    30
 10
148.0
 20
-810.25797899999998
 30
0.0
 11
-148.0
 21
-810.25797899999998
 31
0.0
  0
CIRCLE
  5
759
  8
SIZE
  6
CONTINUOUS
 62
    30
 10
160.0
 20
-810.25797899999998
 30
0.0
 40
6.0
  0
LINE
  5
75A
  8
SIZE
  6
CONTINUOUS
 62
    30
 10
160.0
 20
-810.25797899999998
 30
0.0
 11
148.0
 21
-810.25797899999998
 31
0.0
  0
CIRCLE
  5
75B
  8
SIZE
  6
CONTINUOUS
 62
    30
 10
-160.0
 20
-810.25797899999998
 30
0.0
 40
6.0
  0
LINE
  5
75C
  8
SIZE
  6
CONTINUOUS
 62
    30
 10
-160.0
 20
-810.25797899999998
 30
0.0
 11
-148.0
 21
-810.25797899999998
 31
0.0
  0
TEXT
  5
75D
  8
SIZE
  6
CONTINUOUS
 62
    30
 10
-74.05714285714285
 20
-785.25797899999998
 30
0.0
 40
64.0
  1
320
 41
0.9
 72
     1
 11
0.0
 21
-785.25797899999998
 31
0.0
  0
LINE
  5
75E
  8
SIZE
  6
CONTINUOUS
 62
    30
 10
185.0
 20
-239.99999600000001
 30
0.0
 11
185.0
 21
-951.70468599999981
 31
0.0
  0
LINE
  5
75F
  8
SIZE
  6
CONTINUOUS
 62
    30
 10
-185.0
 20
-240.0
 30
0.0
 11
-185.0
 21
-951.70468599999981
 31
0.0
  0
LINE
  5
760
  8
SIZE
  6
CONTINUOUS
 62
    30
 10
173.0
 20
-931.70468600000015
 30
0.0
 11
-173.0
 21
-931.70468600000015
 31
0.0
  0
CIRCLE
  5
761
  8
SIZE
  6
CONTINUOUS
 62
    30
 10
185.0
 20
-931.70468600000015
 30
0.0
 40
6.0
  0
LINE
  5
762
  8
SIZE
  6
CONTINUOUS
 62
    30
 10
185.0
 20
-931.70468600000015
 30
0.0
 11
173.0
 21
-931.70468600000015
 31
0.0
  0
CIRCLE
  5
763
  8
SIZE
  6
CONTINUOUS
 62
    30
 10
-185.0
 20
-931.70468600000015
 30
0.0
 40
6.0
  0
LINE
  5
764
  8
SIZE
  6
CONTINUOUS
 62
    30
 10
-185.0
 20
-931.70468600000015
 30
0.0
 11
-173.0
 21
-931.70468600000015
 31
0.0
  0
TEXT
  5
765
  8
SIZE
  6
CONTINUOUS
 62
    30
 10
-74.05714285714285
 20
-906.70468600000015
 30
0.0
 40
64.0
  1
370
 41
0.9
 72
     1
 11
0.0
 21
-906.70468600000015
 31
0.0
  0
LINE
  5
766
  8
SIZE
  6
CONTINUOUS
 62
    30
 10
202.49999999999989
 20
-241.99999600000001
 30
0.0
 11
202.49999999999989
 21
-1077.31934
 31
0.0
  0
LINE
  5
767
  8
SIZE
  6
CONTINUOUS
 62
    30
 10
-202.49999999999989
 20
-242.0
 30
0.0
 11
-202.49999999999989
 21
-1077.31934
 31
0.0
  0
LINE
  5
768
  8
SIZE
  6
CONTINUOUS
 62
    30
 10
190.5
 20
-1057.31934
 30
0.0
 11
-190.5
 21
-1057.31934
 31
0.0
  0
CIRCLE
  5
769
  8
SIZE
  6
CONTINUOUS
 62
    30
 10
202.49999999999989
 20
-1057.31934
 30
0.0
 40
6.0
  0
LINE
  5
76A
  8
SIZE
  6
CONTINUOUS
 62
    30
 10
202.49999999999989
 20
-1057.31934
 30
0.0
 11
190.5
 21
-1057.31934
 31
0.0
  0
CIRCLE
  5
76B
  8
SIZE
  6
CONTINUOUS
 62
    30
 10
-202.49999999999989
 20
-1057.31934
 30
0.0
 40
6.0
  0
LINE
  5
76C
  8
SIZE
  6
CONTINUOUS
 62
    30
 10
-202.49999999999989
 20
-1057.31934
 30
0.0
 11
-190.5
 21
-1057.31934
 31
0.0
  0
TEXT
  5
76D
  8
SIZE
  6
CONTINUOUS
 62
    30
 10
-74.05714285714285
 20
-1032.31934
 30
0.0
 40
64.0
  1
405
 41
0.9
 72
     1
 11
0.0
 21
-1032.31934
 31
0.0
  0
LINE
  5
76E
  8
NOTE
  6
CONTINUOUS
 62
     4
 10
-833.36852299999998
 20
428.84344499999992
 30
0.0
 11
-216.1745049999999
 21
428.84344499999992
 31
0.0
  0
TEXT
  5
76F
  8
NOTE
  6
CONTINUOUS
 62
     4
 10
-828.60048700000004
 20
454.89141599999988
 30
0.0
 40
64.0
  1
AH 4-âË12ü~19
 41
0.9
  0
LINE
  5
770
  8
DETAIL
  6
CONTINUOUS
 62
     5
 10
-126.0
 20
615.0
 30
0.0
 11
126.0
 21
615.0
 31
0.0
  0
LINE
  5
771
  8
NOTE
  6
CONTINUOUS
 62
     4
 10
-185.0
 20
200.0
 30
0.0
 11
-216.1745049999999
 21
428.84344499999992
 31
0.0
  0
LINE
  5
772
  8
NOTE
  6
CONTINUOUS
 62
     4
 10
-183.0897239999999
 20
239.95436000000001
 30
0.0
 11
-185.0
 21
200.0
 31
0.0
  0
LINE
  5
773
  8
NOTE
  6
CONTINUOUS
 62
     4
 10
-185.0
 20
200.0
 30
0.0
 11
-203.322833
 21
235.55662799999999
 31
0.0
  0
LINE
  5
774
  8
BASIS
  6
DASHDOT
 62
     6
 10
-130.17601999999991
 20
25.0
 30
0.0
 11
180.45793999999989
 21
25.0
 31
0.0
  0
CIRCLE
  5
775
  8
DETAIL
  6
CONTINUOUS
 62
     5
 10
27.0
 20
25.0
 30
0.0
 40
49.0
  0
CIRCLE
  5
776
  8
DETAIL
  6
CONTINUOUS
 62
     5
 10
27.0
 20
25.0
 30
0.0
 40
9.25
  0
CIRCLE
  5
777
  8
DETAIL
  6
CONTINUOUS
 62
     5
 10
27.0
 20
25.0
 30
0.0
 40
20.0
  0
CIRCLE
  5
778
  8
DETAIL
  6
CONTINUOUS
 62
     5
 10
27.0
 20
25.0
 30
0.0
 40
72.5
  0
LINE
  5
779
  8
DETAIL
  6
CONTINUOUS
 62
     5
 10
-49.0
 20
-137.000001
 30
0.0
 11
-49.0
 21
-111.80000099999999
 31
0.0
  0
LINE
  5
77A
  8
DETAIL
  6
CONTINUOUS
 62
     5
 10
-37.0
 20
-140.000001
 30
0.0
 11
-46.0
 21
-140.000001
 31
0.0
  0
ARC
  5
77B
  8
DETAIL
  6
CONTINUOUS
 62
     5
 10
-46.0
 20
-137.000001
 30
0.0
 40
3.0
 50
180.0
 51
270.0
  0
LINE
  5
77C
  8
DETAIL
  6
CONTINUOUS
 62
     5
 10
-155.0
 20
-235.0
 30
0.0
 11
-155.0
 21
-249.99999600000001
 31
0.0
  0
LINE
  5
77D
  8
DETAIL
  6
CONTINUOUS
 62
     5
 10
155.0
 20
-235.0
 30
0.0
 11
155.0
 21
-249.99999600000001
 31
0.0
  0
LINE
  5
77E
  8
DETAIL
  6
CONTINUOUS
 62
     5
 10
36.200000000000003
 20
-108.000001
 30
0.0
 11
-36.200000000000003
 21
-108.000001
 31
0.0
  0
LINE
  5
77F
  8
DETAIL
  6
CONTINUOUS
 62
     5
 10
37.0
 20
-108.80000099999999
 30
0.0
 11
36.200000000000003
 21
-108.80000099999999
 31
0.0
  0
LINE
  5
780
  8
DETAIL
  6
CONTINUOUS
 62
     5
 10
36.200000000000003
 20
-108.000001
 30
0.0
 11
36.200000000000003
 21
-108.80000099999999
 31
0.0
  0
LINE
  5
781
  8
DETAIL
  6
CONTINUOUS
 62
     5
 10
-36.200000000000003
 20
-108.000001
 30
0.0
 11
-36.200000000000003
 21
-108.80000099999999
 31
0.0
  0
ARC
  5
782
  8
DETAIL
  6
CONTINUOUS
 62
     5
 10
-46.0
 20
-111.80000099999999
 30
0.0
 40
3.0
 50
90.0
 51
180.0
  0
LINE
  5
783
  8
DETAIL
  6
CONTINUOUS
 62
     5
 10
-46.0
 20
-108.80000099999999
 30
0.0
 11
-36.200000000000003
 21
-108.80000099999999
 31
0.0
  0
LINE
  5
784
  8
DETAIL
  6
CONTINUOUS
 62
     5
 10
160.0
 20
-230.0
 30
0.0
 11
-160.0
 21
-230.0
 31
0.0
  0
LINE
  5
785
  8
DETAIL
  6
CONTINUOUS
 62
     5
 10
160.0
 20
230.00000800000001
 30
0.0
 11
-160.0
 21
230.0
 31
0.0
  0
LINE
  5
786
  8
DETAIL
  6
CONTINUOUS
 62
     5
 10
-155.0
 20
235.0
 30
0.0
 11
-155.0
 21
249.99999600000001
 31
0.0
  0
LINE
  5
787
  8
DETAIL
  6
CONTINUOUS
 62
     5
 10
155.0
 20
235.0
 30
0.0
 11
155.0
 21
250.0000039999999
 31
0.0
  0
LINE
  5
788
  8
DETAIL
  6
CONTINUOUS
 62
     5
 10
140.00039699999999
 20
239.999999
 30
0.0
 11
-140.0
 21
240.0
 31
0.0
  0
LINE
  5
789
  8
DETAIL
  6
CONTINUOUS
 62
     5
 10
-140.0
 20
235.0
 30
0.0
 11
-140.0
 21
240.0
 31
0.0
  0
LINE
  5
78A
  8
DETAIL
  6
CONTINUOUS
 62
     5
 10
140.00039699999999
 20
235.80000000000001
 30
0.0
 11
140.00039699999999
 21
239.999999
 31
0.0
  0
LINE
  5
78B
  8
DETAIL
  6
CONTINUOUS
 62
     5
 10
140.0
 20
235.0
 30
0.0
 11
140.0
 21
238.30000000000001
 31
0.0
  0
LINE
  5
78C
  8
DETAIL
  6
CONTINUOUS
 62
     5
 10
-126.0
 20
250.0
 30
0.0
 11
-160.0
 21
250.0
 31
0.0
  0
LINE
  5
78D
  8
SIZE
  6
CONTINUOUS
 62
    30
 10
116.0
 20
-320.0
 30
0.0
 11
690.84771099999966
 21
-320.0
 31
0.0
  0
LINE
  5
78E
  8
SIZE
  6
CONTINUOUS
 62
    30
 10
175.0
 20
-235.0
 30
0.0
 11
690.84771099999966
 21
-235.0
 31
0.0
  0
LINE
  5
78F
  8
SIZE
  6
CONTINUOUS
 62
    30
 10
670.847711
 20
-308.0
 30
0.0
 11
670.847711
 21
-247.0
 31
0.0
  0
LINE
  5
790
  8
SIZE
  6
CONTINUOUS
 62
    30
 10
670.847711
 20
-477.65052500000002
 30
0.0
 11
670.847711
 21
-320.0
 31
0.0
  0
TEXT
  5
791
  8
SIZE
  6
CONTINUOUS
 62
    30
 10
645.847711
 20
-452.65052542857143
 30
0.0
 40
64.0
  1
85
 50
90.0
 41
0.9
 72
     1
 11
645.847711
 21
-406.02195399999999
 31
0.0
  0
CIRCLE
  5
792
  8
SIZE
  6
CONTINUOUS
 62
    30
 10
670.847711
 20
-320.0
 30
0.0
 40
6.0
  0
LINE
  5
793
  8
SIZE
  6
CONTINUOUS
 62
    30
 10
670.847711
 20
-320.0
 30
0.0
 11
670.847711
 21
-308.0
 31
0.0
  0
CIRCLE
  5
794
  8
SIZE
  6
CONTINUOUS
 62
    30
 10
670.847711
 20
-235.0
 30
0.0
 40
6.0
  0
LINE
  5
795
  8
SIZE
  6
CONTINUOUS
 62
    30
 10
670.847711
 20
-235.0
 30
0.0
 11
670.847711
 21
-247.0
 31
0.0
  0
LINE
  5
796
  8
SIZE
  6
CONTINUOUS
 62
    30
 10
175.0
 20
-235.0
 30
0.0
 11
690.84771099999966
 21
-235.0
 31
0.0
  0
LINE
  5
797
  8
SIZE
  6
CONTINUOUS
 62
    30
 10
175.0
 20
235.0
 30
0.0
 11
690.84771099999966
 21
235.0
 31
0.0
  0
LINE
  5
798
  8
SIZE
  6
CONTINUOUS
 62
    30
 10
670.847711
 20
-223.0
 30
0.0
 11
670.847711
 21
223.0
 31
0.0
  0
CIRCLE
  5
799
  8
SIZE
  6
CONTINUOUS
 62
    30
 10
670.847711
 20
-235.0
 30
0.0
 40
6.0
  0
LINE
  5
79A
  8
SIZE
  6
CONTINUOUS
 62
    30
 10
670.847711
 20
-235.0
 30
0.0
 11
670.847711
 21
-223.0
 31
0.0
  0
CIRCLE
  5
79B
  8
SIZE
  6
CONTINUOUS
 62
    30
 10
670.847711
 20
235.0
 30
0.0
 40
6.0
  0
LINE
  5
79C
  8
SIZE
  6
CONTINUOUS
 62
    30
 10
670.847711
 20
235.0
 30
0.0
 11
670.847711
 21
223.0
 31
0.0
  0
TEXT
  5
79D
  8
SIZE
  6
CONTINUOUS
 62
    30
 10
645.847711
 20
-74.05714285714285
 30
0.0
 40
64.0
  1
470
 50
90.0
 41
0.9
 72
     1
 11
645.847711
 21
0.0
 31
0.0
  0
LINE
  5
79E
  8
SIZE
  6
CONTINUOUS
 62
    30
 10
175.0
 20
235.0
 30
0.0
 11
690.84771099999966
 21
235.0
 31
0.0
  0
LINE
  5
79F
  8
SIZE
  6
CONTINUOUS
 62
    30
 10
116.0
 20
720.0
 30
0.0
 11
690.84771099999966
 21
720.0
 31
0.0
  0
LINE
  5
7A0
  8
SIZE
  6
CONTINUOUS
 62
    30
 10
670.847711
 20
247.0
 30
0.0
 11
670.847711
 21
708.0
 31
0.0
  0
CIRCLE
  5
7A1
  8
SIZE
  6
CONTINUOUS
 62
    30
 10
670.847711
 20
235.0
 30
0.0
 40
6.0
  0
LINE
  5
7A2
  8
SIZE
  6
CONTINUOUS
 62
    30
 10
670.847711
 20
235.0
 30
0.0
 11
670.847711
 21
247.0
 31
0.0
  0
CIRCLE
  5
7A3
  8
SIZE
  6
CONTINUOUS
 62
    30
 10
670.847711
 20
720.0
 30
0.0
 40
6.0
  0
LINE
  5
7A4
  8
SIZE
  6
CONTINUOUS
 62
    30
 10
670.847711
 20
720.0
 30
0.0
 11
670.847711
 21
708.0
 31
0.0
  0
TEXT
  5
7A5
  8
SIZE
  6
CONTINUOUS
 62
    30
 10
645.847711
 20
403.44285714285718
 30
0.0
 40
64.0
  1
485
 50
90.0
 41
0.9
 72
     1
 11
645.847711
 21
477.5
 31
0.0
  0
LINE
  5
7A6
  8
SIZE
  6
CONTINUOUS
 62
    30
 10
104.0
 20
-270.0
 30
0.0
 11
104.0
 21
-710.778053
 31
0.0
  0
LINE
  5
7A7
  8
SIZE
  6
CONTINUOUS
 62
    30
 10
-104.0
 20
-270.0
 30
0.0
 11
-104.0
 21
-710.778053
 31
0.0
  0
LINE
  5
7A8
  8
SIZE
  6
CONTINUOUS
 62
    30
 10
92.0
 20
-690.778053
 30
0.0
 11
-92.0
 21
-690.778053
 31
0.0
  0
LINE
  5
7A9
  8
SIZE
  6
CONTINUOUS
 62
    30
 10
-489.72360200000003
 20
-690.778053
 30
0.0
 11
-104.0
 21
-690.778053
 31
0.0
  0
TEXT
  5
7AA
  8
SIZE
  6
CONTINUOUS
 62
    30
 10
-478.98645985714268
 20
-665.778053
 30
0.0
 40
64.0
  1
âË208
 41
0.9
 72
     1
 11
-364.60931699999992
 21
-665.778053
 31
0.0
  0
CIRCLE
  5
7AB
  8
SIZE
  6
CONTINUOUS
 62
    30
 10
104.0
 20
-690.778053
 30
0.0
 40
6.0
  0
LINE
  5
7AC
  8
SIZE
  6
CONTINUOUS
 62
    30
 10
104.0
 20
-690.778053
 30
0.0
 11
92.0
 21
-690.778053
 31
0.0
  0
CIRCLE
  5
7AD
  8
SIZE
  6
CONTINUOUS
 62
    30
 10
-104.0
 20
-690.778053
 30
0.0
 40
6.0
  0
LINE
  5
7AE
  8
SIZE
  6
CONTINUOUS
 62
    30
 10
-104.0
 20
-690.778053
 30
0.0
 11
-92.0
 21
-690.778053
 31
0.0
  0
LINE
  5
7AF
  8
SIZE
  6
CONTINUOUS
 62
    30
 10
-226.78192599999991
 20
0.0
 30
0.0
 11
-327.1888679999999
 21
0.0
 31
0.0
  0
LINE
  5
7B0
  8
SIZE
  6
CONTINUOUS
 62
    30
 10
-150.17601999999991
 20
25.0
 30
0.0
 11
-327.1888679999999
 21
25.0
 31
0.0
  0
LINE
  5
7B1
  8
SIZE
  6
CONTINUOUS
 62
    30
 10
-307.18886800000001
 20
-12.0
 30
0.0
 11
-307.18886800000001
 21
-24.0
 31
0.0
  0
LINE
  5
7B2
  8
SIZE
  6
CONTINUOUS
 62
    30
 10
-307.18886800000001
 20
37.0
 30
0.0
 11
-307.18886800000001
 21
49.0
 31
0.0
  0
LINE
  5
7B3
  8
SIZE
  6
CONTINUOUS
 62
    30
 10
-307.18886800000001
 20
193.51489399999991
 30
0.0
 11
-307.18886800000001
 21
25.0
 31
0.0
  0
TEXT
  5
7B4
  8
SIZE
  6
CONTINUOUS
 62
    30
 10
-332.18886800000001
 20
75.257751571428486
 30
0.0
 40
64.0
  1
25
 50
90.0
 41
0.9
 72
     1
 11
-332.18886800000001
 21
121.8863229999999
 31
0.0
  0
LINE
  5
7B5
  8
SIZE
  6
CONTINUOUS
 62
    30
 10
-307.18886800000001
 20
0.0
 30
0.0
 11
-307.18886800000001
 21
25.0
 31
0.0
  0
LINE
  5
7B6
  8
SIZE
  6
CONTINUOUS
 62
    30
 10
-307.18886800000001
 20
0.0
 30
0.0
 11
-307.18886800000001
 21
25.0
 31
0.0
  0
CIRCLE
  5
7B7
  8
SIZE
  6
CONTINUOUS
 62
    30
 10
-307.18886800000001
 20
0.0
 30
0.0
 40
6.0
  0
LINE
  5
7B8
  8
SIZE
  6
CONTINUOUS
 62
    30
 10
-307.18886800000001
 20
0.0
 30
0.0
 11
-307.18886800000001
 21
-12.0
 31
0.0
  0
CIRCLE
  5
7B9
  8
SIZE
  6
CONTINUOUS
 62
    30
 10
-307.18886800000001
 20
25.0
 30
0.0
 40
6.0
  0
LINE
  5
7BA
  8
SIZE
  6
CONTINUOUS
 62
    30
 10
-307.18886800000001
 20
25.0
 30
0.0
 11
-307.18886800000001
 21
37.0
 31
0.0
  0
POINT
  5
7BB
  8
DEFPOINTS
  6
CONTINUOUS
 62
    30
 10
-206.78192599999991
 20
0.0
 30
0.0
  0
LINE
  5
7BC
  8
NOTE
  6
CONTINUOUS
 62
     4
 10
41.0
 20
-108.000001
 30
0.0
 11
1.0
 21
-108.000001
 31
0.0
  0
LINE
  5
7BD
  8
NOTE
  6
CONTINUOUS
 62
     4
 10
21.0
 20
-128.00000099999991
 30
0.0
 11
21.0
 21
-88.000000999999983
 31
0.0
  0
TEXT
  5
7BE
  8
NOTE
  6
CONTINUOUS
 62
     4
 10
478.37674712726579
 20
-741.54768610987594
 30
0.0
 40
64.0
  1
EL
 41
0.9
  0
LINE
  5
7BF
  8
NOTE
  6
CONTINUOUS
 62
     4
 10
21.0
 20
-108.000001
 30
0.0
 11
448.58880197830882
 21
-764.7070035796396
 31
0.0
  0
LINE
  5
7C0
  8
NOTE
  6
CONTINUOUS
 62
     4
 10
51.84301
 20
-133.469762
 30
0.0
 11
21.0
 21
-108.000001
 31
0.0
  0
LINE
  5
7C1
  8
NOTE
  6
CONTINUOUS
 62
     4
 10
21.0
 20
-108.000001
 30
0.0
 11
34.975949
 21
-145.47896599999979
 31
0.0
  0
CIRCLE
  5
7C2
  8
DETAIL
  6
CONTINUOUS
 62
     5
 10
27.0
 20
25.0
 30
0.0
 40
132.0
  0
LINE
  5
7C3
  8
DETAIL
  6
CONTINUOUS
 62
     5
 10
-155.0
 20
235.0
 30
0.0
 11
155.0
 21
235.0
 31
0.0
  0
LINE
  5
7C4
  8
DETAIL
  6
CONTINUOUS
 62
     5
 10
-155.0
 20
-235.0
 30
0.0
 11
155.0
 21
-235.0
 31
0.0
  0
LINE
  5
7C5
  8
SIZE
  6
CONTINUOUS
 62
    30
 10
27.0
 20
188.80159
 30
0.0
 11
27.0
 21
311.76181899999989
 31
0.0
  0
LINE
  5
7C6
  8
SIZE
  6
CONTINUOUS
 62
    30
 10
0.0
 20
200.0
 30
0.0
 11
0.0
 21
311.76181899999989
 31
0.0
  0
LINE
  5
7C7
  8
SIZE
  6
CONTINUOUS
 62
    30
 10
39.0
 20
291.761819
 30
0.0
 11
51.0
 21
291.761819
 31
0.0
  0
LINE
  5
7C8
  8
SIZE
  6
CONTINUOUS
 62
    30
 10
-12.0
 20
291.761819
 30
0.0
 11
-24.0
 21
291.761819
 31
0.0
  0
LINE
  5
7C9
  8
SIZE
  6
CONTINUOUS
 62
    30
 10
257.939168
 20
291.761819
 30
0.0
 11
27.0
 21
291.761819
 31
0.0
  0
TEXT
  5
7CA
  8
SIZE
  6
CONTINUOUS
 62
    30
 10
139.68202557142851
 20
316.761819
 30
0.0
 40
64.0
  1
27
 41
0.9
 72
     1
 11
186.310597
 21
316.761819
 31
0.0
  0
LINE
  5
7CB
  8
SIZE
  6
CONTINUOUS
 62
    30
 10
27.0
 20
291.761819
 30
0.0
 11
0.0
 21
291.761819
 31
0.0
  0
LINE
  5
7CC
  8
SIZE
  6
CONTINUOUS
 62
    30
 10
27.0
 20
291.761819
 30
0.0
 11
0.0
 21
291.761819
 31
0.0
  0
CIRCLE
  5
7CD
  8
SIZE
  6
CONTINUOUS
 62
    30
 10
27.0
 20
291.761819
 30
0.0
 40
6.0
  0
LINE
  5
7CE
  8
SIZE
  6
CONTINUOUS
 62
    30
 10
27.0
 20
291.761819
 30
0.0
 11
39.0
 21
291.761819
 31
0.0
  0
CIRCLE
  5
7CF
  8
SIZE
  6
CONTINUOUS
 62
    30
 10
0.0
 20
291.761819
 30
0.0
 40
6.0
  0
LINE
  5
7D0
  8
SIZE
  6
CONTINUOUS
 62
    30
 10
0.0
 20
291.761819
 30
0.0
 11
-12.0
 21
291.761819
 31
0.0
  0
POINT
  5
7D1
  8
DEFPOINTS
  6
CONTINUOUS
 62
    30
 10
0.0
 20
291.761819
 30
0.0
  0
LINE
  5
7D2
  8
DETAIL
  6
CONTINUOUS
 62
     5
 10
-37.0
 20
-230.0
 30
0.0
 11
-37.0
 21
-108.80000099999999
 31
0.0
  0
LINE
  5
7D3
  8
DETAIL
  6
CONTINUOUS
 62
     5
 10
37.0
 20
-230.0
 30
0.0
 11
37.0
 21
-108.80000099999999
 31
0.0
  0
LINE
  5
7D4
  8
SIZE
  6
CONTINUOUS
 62
    30
 10
37.0
 20
-250.0
 30
0.0
 11
37.0
 21
-481.34565499999968
 31
0.0
  0
LINE
  5
7D5
  8
SIZE
  6
CONTINUOUS
 62
    30
 10
-37.0
 20
-250.0
 30
0.0
 11
-37.0
 21
-481.34565499999968
 31
0.0
  0
LINE
  5
7D6
  8
SIZE
  6
CONTINUOUS
 62
    30
 10
25.0
 20
-461.34565499999991
 30
0.0
 11
-25.0
 21
-461.34565499999991
 31
0.0
  0
LINE
  5
7D7
  8
SIZE
  6
CONTINUOUS
 62
    30
 10
-393.276839
 20
-461.34565499999991
 30
0.0
 11
-37.0
 21
-461.34565499999991
 31
0.0
  0
TEXT
  5
7D8
  8
SIZE
  6
CONTINUOUS
 62
    30
 10
-368.276839
 20
-436.34565499999991
 30
0.0
 40
64.0
  1
74
 41
0.9
 72
     1
 11
-320.276839
 21
-436.34565499999991
 31
0.0
  0
CIRCLE
  5
7D9
  8
SIZE
  6
CONTINUOUS
 62
    30
 10
37.0
 20
-461.34565499999991
 30
0.0
 40
6.0
  0
LINE
  5
7DA
  8
SIZE
  6
CONTINUOUS
 62
    30
 10
37.0
 20
-461.34565499999991
 30
0.0
 11
25.0
 21
-461.34565499999991
 31
0.0
  0
CIRCLE
  5
7DB
  8
SIZE
  6
CONTINUOUS
 62
    30
 10
-37.0
 20
-461.34565499999991
 30
0.0
 40
6.0
  0
LINE
  5
7DC
  8
SIZE
  6
CONTINUOUS
 62
    30
 10
-37.0
 20
-461.34565499999991
 30
0.0
 11
-25.0
 21
-461.34565499999991
 31
0.0
  0
LINE
  5
7DD
  8
DETAIL
  6
CONTINUOUS
 62
     5
 10
-96.0
 20
720.0
 30
0.0
 11
96.0
 21
720.0
 31
0.0
  0
LINE
  5
7DE
  8
DETAIL
  6
CONTINUOUS
 62
     5
 10
-96.0
 20
-320.0
 30
0.0
 11
96.0
 21
-320.0
 31
0.0
  0
LINE
  5
7DF
  8
DETAIL
  6
CONTINUOUS
 62
     5
 10
-96.0
 20
-310.0
 30
0.0
 11
96.0
 21
-310.0
 31
0.0
  0
LINE
  5
7E0
  8
DETAIL
  6
CONTINUOUS
 62
     5
 10
-96.0
 20
-310.0
 30
0.0
 11
-104.0
 21
-250.0
 31
0.0
  0
LINE
  5
7E1
  8
DETAIL
  6
CONTINUOUS
 62
     5
 10
-104.0
 20
-240.0
 30
0.0
 11
-104.0
 21
-250.0
 31
0.0
  0
LINE
  5
7E2
  8
DETAIL
  6
CONTINUOUS
 62
     5
 10
-96.0
 20
-320.0
 30
0.0
 11
-96.0
 21
-310.0
 31
0.0
  0
LINE
  5
7E3
  8
DETAIL
  6
CONTINUOUS
 62
     5
 10
96.0
 20
-310.0
 30
0.0
 11
104.0
 21
-250.0
 31
0.0
  0
LINE
  5
7E4
  8
DETAIL
  6
CONTINUOUS
 62
     5
 10
104.0
 20
-240.0
 30
0.0
 11
104.0
 21
-250.0
 31
0.0
  0
LINE
  5
7E5
  8
DETAIL
  6
CONTINUOUS
 62
     5
 10
96.0
 20
-320.0
 30
0.0
 11
96.0
 21
-310.0
 31
0.0
  0
LINE
  5
7E6
  8
DETAIL
  6
CONTINUOUS
 62
     5
 10
-160.0
 20
-250.0
 30
0.0
 11
-104.0
 21
-250.0
 31
0.0
  0
LINE
  5
7E7
  8
DETAIL
  6
CONTINUOUS
 62
     5
 10
160.0
 20
-250.0
 30
0.0
 11
104.0
 21
-250.0
 31
0.0
  0
LINE
  5
7E8
  8
DETAIL
  6
CONTINUOUS
 62
     5
 10
-96.0
 20
710.0
 30
0.0
 11
-104.0
 21
645.0
 31
0.0
  0
LINE
  5
7E9
  8
DETAIL
  6
CONTINUOUS
 62
     5
 10
96.0
 20
710.0
 30
0.0
 11
104.0
 21
645.0
 31
0.0
  0
LINE
  5
7EA
  8
DETAIL
  6
CONTINUOUS
 62
     5
 10
140.00039699999999
 20
-239.999999
 30
0.0
 11
-140.0
 21
-240.0
 31
0.0
  0
LINE
  5
7EB
  8
DETAIL
  6
CONTINUOUS
 62
     5
 10
-140.0
 20
-235.0
 30
0.0
 11
-140.0
 21
-240.0
 31
0.0
  0
LINE
  5
7EC
  8
DETAIL
  6
CONTINUOUS
 62
     5
 10
140.00039699999999
 20
-235.80000000000001
 30
0.0
 11
140.00039699999999
 21
-239.999999
 31
0.0
  0
LINE
  5
7ED
  8
DETAIL
  6
CONTINUOUS
 62
     5
 10
140.0
 20
-235.0
 30
0.0
 11
140.0
 21
-238.30000000000001
 31
0.0
  0
TEXT
  5
7EE
  8
ETC
  6
CONTINUOUS
 62
    61
 10
593.93477830568418
 20
871.66158407631769
 30
0.0
 40
50.0
  1
V-25ZMSQ2
 41
0.9
  0
TEXT
  5
7EF
  8
ETC
  6
CONTINUOUS
 62
    61
 10
441.50460874743158
 20
1069.8896989652831
 30
0.0
 40
64.0
  1
V-25ZMSQ2_6
 41
0.9
  0
TEXT
  5
7F0
  8
ETC
  6
CONTINUOUS
 62
    61
 10
435.34971374743162
 20
966.52440396528471
 30
0.0
 40
64.0
  1
èÀïCÉ¯
 41
0.9
  0
LINE
  5
7F1
  8
BASIS
  6
DASHDOT
 62
     6
 10
27.0
 20
-116.2709999839435
 30
0.0
 11
27.0
 21
168.8015920160563
 31
0.0
  0
LINE
  5
7F2
  8
OUTLINE
  6
CONTINUOUS
 62
     3
 10
160.0
 20
-249.99999798394359
 30
0.0
 11
160.0
 21
250.0000020160563
 31
0.0
  0
LINE
  5
7F3
  8
OUTLINE
  6
CONTINUOUS
 62
     3
 10
-160.0
 20
250.0000020160563
 30
0.0
 11
-160.0
 21
-249.99999798394359
 31
0.0
  0
CIRCLE
  5
7F4
  8
ARRANGE
  6
CONTINUOUS
 62
     1
 10
0.0
 20
0.0000020160563234
 30
0.0
 40
40.0
  0
POINT
  5
7F5
  8
ARRANGE
  6
CONTINUOUS
 62
     1
 10
0.0
 20
0.0000020160563234
 30
0.0
  0
LINE
  5
7F6
  8
OUTLINE
  6
CONTINUOUS
 62
     3
 10
-160.0
 20
-249.99999798394359
 30
0.0
 11
160.0
 21
-249.99999798394359
 31
0.0
  0
LINE
  5
7F7
  8
OUTLINE
  6
CONTINUOUS
 62
     3
 10
160.0
 20
250.0000020160563
 30
0.0
 11
-160.0
 21
250.0000020160563
 31
0.0
  0
POINT
  5
7F8
  8
DEFPOINTS
  6
CONTINUOUS
 62
    30
 10
27.0
 20
168.8015920160563
 30
0.0
  0
LINE
  5
7F9
  8
NOTE
  6
CONTINUOUS
 62
     4
 39
50.0
 10
448.58880197830882
 20
-764.7070035796396
 30
0.0
 11
594.21874335039672
 21
-764.7070035796396
 31
0.0
  0
LINE
  5
7FA
  8
SIZE
  6
CONTINUOUS
 62
    30
 39
50.0
 10
176.36011129320281
 20
-250.0
 30
0.0
 11
406.38921594562822
 21
-250.0
 31
0.0
  0
CIRCLE
  5
7FB
  8
SIZE
  6
CONTINUOUS
 62
    30
 39
50.0
 10
-426.75291900000002
 20
-320.0
 30
0.0
 40
6.0
  0
TEXT
  5
7FC
  8
SIZE
  6
CONTINUOUS
 62
    30
 10
-454.97877383312692
 20
-308.13768441244878
 30
0.0
 40
64.0
  1
70
 50
90.0
 41
0.9
  0
LINE
  5
7FD
  8
SERVICESPACE
  6
DASHDOT
 62
     2
 10
-225.0
 20
-279.9999979839435
 30
0.0
 11
225.0
 21
-279.9999979839435
 31
0.0
  0
LINE
  5
7FE
  8
SERVICESPACE
  6
DASHDOT
 62
     2
 10
-225.0
 20
170.00000201605641
 30
0.0
 11
225.0
 21
-279.9999979839435
 31
0.0
  0
LINE
  5
7FF
  8
SERVICESPACE
  6
DASHDOT
 62
     2
 10
225.0
 20
170.00000201605641
 30
0.0
 11
-225.0
 21
-279.9999979839435
 31
0.0
  0
LINE
  5
800
  8
SERVICESPACE
  6
DASHDOT
 62
     2
 10
-225.0
 20
170.00000201605641
 30
0.0
 11
225.0
 21
170.00000201605641
 31
0.0
  0
LINE
  5
801
  8
SERVICESPACE
  6
DASHDOT
 62
     2
 10
-225.0
 20
-279.9999979839435
 30
0.0
 11
-225.0
 21
170.00000201605641
 31
0.0
  0
POINT
  5
802
  8
DEFPOINTS
  6
CONTINUOUS
 62
    30
 10
-206.7819259999998
 20
10.000002016056429
 30
0.0
  0
LINE
  5
803
  8
SERVICESPACE
  6
DASHDOT
 62
     2
 10
225.0
 20
-279.9999979839435
 30
0.0
 11
225.0
 21
170.00000201605641
 31
0.0
  0
POINT
  5
804
  8
DEFPOINTS
  6
CONTINUOUS
 62
    30
 10
27.0
 20
178.8015940321126
 30
0.0
  0
LINE
  5
805
  8
SIZE
  6
CONTINUOUS
 62
    30
 10
245.0
 20
-279.9999979839435
 30
0.0
 11
541.40376827184252
 21
-279.99999798394362
 31
0.0
  0
LINE
  5
806
  8
SIZE
  6
CONTINUOUS
 62
    30
 10
245.0
 20
170.00000201605641
 30
0.0
 11
541.40376827184252
 21
170.00000201605619
 31
0.0
  0
LINE
  5
807
  8
SIZE
  6
CONTINUOUS
 62
    30
 10
521.40376827184252
 20
-279.99999798394362
 30
0.0
 11
521.40376827184252
 21
170.00000201605619
 31
0.0
  0
LINE
  5
808
  8
SIZE
  6
CONTINUOUS
 62
    30
 39
50.0
 10
382.39337807509941
 20
-250.0
 30
0.0
 11
382.39337807509941
 21
-572.81554892485747
 31
0.0
  0
CIRCLE
  5
809
  8
SIZE
  6
CONTINUOUS
 62
    30
 39
50.0
 10
521.40376827184252
 20
170.00000201605619
 30
0.0
 40
6.0
  0
CIRCLE
  5
80A
  8
SIZE
  6
CONTINUOUS
 62
    30
 39
50.0
 10
521.40376827184252
 20
-279.99999798394362
 30
0.0
 40
6.0
  0
CIRCLE
  5
80B
  8
SIZE
  6
CONTINUOUS
 62
    30
 39
50.0
 10
382.39337807509941
 20
-250.0
 30
0.0
 40
6.0
  0
CIRCLE
  5
80C
  8
SIZE
  6
CONTINUOUS
 62
    30
 39
50.0
 10
382.39337807509941
 20
-279.99999798394362
 30
0.0
 40
6.0
  0
ENDSEC
  0
EOF
