  0
SECTION
  2
HEADER
  9
$ACADVER
  1
AC1009
  9
$INSBASE
 10
0.0
 20
0.0
 30
0.0
  9
$EXTMIN
 10
-898.66789147335658
 20
-356.64366494939168
 30
-0.0015258207003583
  9
$EXTMAX
 10
1030.998241553312
 20
676.11695148064416
 30
0.0000000349246037
  9
$LIMMIN
 10
-2970.0
 20
-2100.0
  9
$LIMMAX
 10
2970.0
 20
2100.0
  9
$ORTHOMODE
 70
     1
  9
$REGENMODE
 70
     0
  9
$FILLMODE
 70
     1
  9
$QTEXTMODE
 70
     0
  9
$MIRRTEXT
 70
     0
  9
$DRAGMODE
 70
     2
  9
$LTSCALE
 40
20.0
  9
$OSMODE
 70
    36
  9
$ATTMODE
 70
     1
  9
$TEXTSIZE
 40
64.0
  9
$TRACEWID
 40
0.05
  9
$TEXTSTYLE
  7
STANDARD
  9
$CLAYER
  8
NOTE
  9
$CELTYPE
  6
CONTINUOUS
  9
$CECOLOR
 62
     4
  9
$DIMSCALE
 40
1.0
  9
$DIMASZ
 40
40.0
  9
$DIMEXO
 40
20.0
  9
$DIMDLI
 40
200.0
  9
$DIMRND
 40
0.0
  9
$DIMDLE
 40
0.0
  9
$DIMEXE
 40
30.0
  9
$DIMTP
 40
0.0
  9
$DIMTM
 40
0.0
  9
$DIMTXT
 40
64.0
  9
$DIMCEN
 40
0.09
  9
$DIMTSZ
 40
0.0
  9
$DIMTOL
 70
     0
  9
$DIMLIM
 70
     0
  9
$DIMTIH
 70
     0
  9
$DIMTOH
 70
     0
  9
$DIMSE1
 70
     0
  9
$DIMSE2
 70
     0
  9
$DIMTAD
 70
     1
  9
$DIMZIN
 70
     8
  9
$DIMBLK
  1
NONE
  9
$DIMASO
 70
     1
  9
$DIMSHO
 70
     0
  9
$DIMPOST
  1

  9
$DIMAPOST
  1

  9
$DIMALT
 70
     0
  9
$DIMALTD
 70
     2
  9
$DIMALTF
 40
25.399999999999999
  9
$DIMLFAC
 40
1.0
  9
$DIMTOFL
 70
     1
  9
$DIMTVP
 40
0.0
  9
$DIMTIX
 70
     1
  9
$DIMSOXD
 70
     0
  9
$DIMSAH
 70
     0
  9
$DIMBLK1
  1

  9
$DIMBLK2
  1

  9
$DIMSTYLE
  2
STANDARD
  9
$DIMCLRD
 70
   256
  9
$DIMCLRE
 70
   256
  9
$DIMCLRT
 70
   256
  9
$DIMTFAC
 40
1.0
  9
$DIMGAP
 40
20.0
  9
$LUNITS
 70
     2
  9
$LUPREC
 70
     4
  9
$SKETCHINC
 40
0.1
  9
$FILLETRAD
 40
0.0
  9
$AUNITS
 70
     1
  9
$AUPREC
 70
     3
  9
$MENU
  1
ACAD
  9
$ELEVATION
 40
0.0
  9
$PELEVATION
 40
0.0
  9
$THICKNESS
 40
0.0
  9
$LIMCHECK
 70
     0
  9
$BLIPMODE
 70
     0
  9
$CHAMFERA
 40
0.0
  9
$CHAMFERB
 40
0.0
  9
$SKPOLY
 70
     0
  9
$TDCREATE
 40
2450693.6020138888
  9
$TDUPDATE
 40
2455051.4268676038
  9
$TDINDWG
 40
0.1176204398
  9
$TDUSRTIMER
 40
0.1176204398
  9
$USRTIMER
 70
     1
  9
$ANGBASE
 50
0.0
  9
$ANGDIR
 70
     0
  9
$PDMODE
 70
     3
  9
$PDSIZE
 40
-2.0
  9
$PLINEWID
 40
0.0
  9
$COORDS
 70
     0
  9
$SPLFRAME
 70
     0
  9
$SPLINETYPE
 70
     6
  9
$SPLINESEGS
 70
     8
  9
$ATTDIA
 70
     0
  9
$ATTREQ
 70
     1
  9
$HANDLING
 70
     1
  9
$HANDSEED
  5
68C
  9
$SURFTAB1
 70
     6
  9
$SURFTAB2
 70
     6
  9
$SURFTYPE
 70
     6
  9
$SURFU
 70
     6
  9
$SURFV
 70
     6
  9
$UCSNAME
  2

  9
$UCSORG
 10
0.0
 20
0.0
 30
0.0
  9
$UCSXDIR
 10
1.0
 20
0.0
 30
0.0
  9
$UCSYDIR
 10
0.0
 20
1.0
 30
0.0
  9
$PUCSNAME
  2

  9
$PUCSORG
 10
0.0
 20
0.0
 30
0.0
  9
$PUCSXDIR
 10
1.0
 20
0.0
 30
0.0
  9
$PUCSYDIR
 10
0.0
 20
1.0
 30
0.0
  9
$USERI1
 70
     0
  9
$USERI2
 70
     0
  9
$USERI3
 70
     0
  9
$USERI4
 70
     0
  9
$USERI5
 70
     0
  9
$USERR1
 40
20.0
  9
$USERR2
 40
0.0
  9
$USERR3
 40
0.0
  9
$USERR4
 40
0.0
  9
$USERR5
 40
0.0
  9
$WORLDVIEW
 70
     1
  9
$SHADEDGE
 70
     3
  9
$SHADEDIF
 70
    70
  9
$TILEMODE
 70
     1
  9
$MAXACTVP
 70
    48
  9
$PLIMCHECK
 70
     0
  9
$PEXTMIN
 10
1.0000000000000000E+020
 20
1.0000000000000000E+020
 30
1.0000000000000000E+020
  9
$PEXTMAX
 10
-1.0000000000000000E+020
 20
-1.0000000000000000E+020
 30
-1.0000000000000000E+020
  9
$PLIMMIN
 10
0.0
 20
0.0
  9
$PLIMMAX
 10
12.0
 20
9.0
  9
$UNITMODE
 70
     0
  9
$VISRETAIN
 70
     1
  9
$PLINEGEN
 70
     0
  9
$PSLTSCALE
 70
     1
  0
ENDSEC
  0
SECTION
  2
TABLES
  0
TABLE
  2
VPORT
 70
     1
  0
VPORT
  2
*ACTIVE
 70
     0
 10
0.0
 20
0.0
 11
1.0
 21
1.0
 12
95.386813557030564
 22
173.64494636718331
 13
0.0
 23
0.0
 14
50.0
 24
50.0
 15
100.0
 25
100.0
 16
0.0
 26
0.0
 36
1.0
 17
0.0
 27
0.0
 37
0.0
 40
1750.5808367599129
 41
1.2435374149659859
 42
50.0
 43
0.0
 44
0.0
 50
0.0
 51
0.0
 71
     0
 72
  1000
 73
     1
 74
     0
 75
     0
 76
     0
 77
     0
 78
     0
  0
ENDTAB
  0
TABLE
  2
LTYPE
 70
     7
  0
LTYPE
  2
CONTINUOUS
 70
     0
  3
実線
 72
    65
 73
     0
 40
0.0
  0
LTYPE
  2
DASHDOT
 70
     0
  3
____ _ ____ _ ____ _ ____ _ ____ _ ____ _ ____
 72
    65
 73
     4
 40
5.5
 49
4.0
 49
-0.6
 49
0.3
 49
-0.6
  0
LTYPE
  2
DASHED
 70
     0
  3
_ _ _ _ _ _ _ _ _ _ _ _ _ _ _ _ _ _ _ _ _ _ _
 72
    65
 73
     2
 40
2.0
 49
1.1999999999999991
 49
-0.8
  0
LTYPE
  2
DOT
 70
     0
  3
...............................................
 72
    65
 73
     2
 40
0.8
 49
0.5
 49
-0.3
  0
LTYPE
  2
DASHDOT1
 70
     0
  3
____ _ ____ _ ____ _ ____ _ ____ _ ____ _ ____
 72
    65
 73
     4
 40
2.0
 49
1.5
 49
-0.2
 49
0.1
 49
-0.2
  0
LTYPE
  2
DIVIDE
 70
     0
  3
_____ _ _ _____ _ _ _____ _ _ _____ _ _ ____
 72
    65
 73
     6
 40
6.4000000000000004
 49
4.0
 49
-0.6
 49
0.3
 49
-0.6
 49
0.3
 49
-0.6
  0
LTYPE
  2
DIVIDE1
 70
     0
  3
_____ _ _ _____ _ _ _____ _ _ _____ _ _ ____
 72
    65
 73
     6
 40
3.2000000000000002
 49
2.0
 49
-0.3
 49
0.15
 49
-0.3
 49
0.15
 49
-0.3
  0
ENDTAB
  0
TABLE
  2
LAYER
 70
    12
  0
LAYER
  2
0
 70
     0
 62
     7
  6
CONTINUOUS
  0
LAYER
  2
NOTE
 70
     0
 62
     4
  6
CONTINUOUS
  0
LAYER
  2
OUTLINE
 70
     0
 62
     3
  6
CONTINUOUS
  0
LAYER
  2
DETAIL
 70
     0
 62
     5
  6
CONTINUOUS
  0
LAYER
  2
BASIS
 70
     0
 62
     6
  6
DASHDOT
  0
LAYER
  2
SIZE
 70
     0
 62
    30
  6
CONTINUOUS
  0
LAYER
  2
DEFPOINTS
 70
     0
 62
     7
  6
CONTINUOUS
  0
LAYER
  2
ARRANGE
 70
     0
 62
     1
  6
CONTINUOUS
  0
LAYER
  2
FIX
 70
     0
 62
    11
  6
CONTINUOUS
  0
LAYER
  2
ETC
 70
     0
 62
    61
  6
CONTINUOUS
  0
LAYER
  2
SERVICESPACE
 70
     0
 62
     2
  6
DASHDOT
  0
LAYER
  2
SYMBOLLINE
 70
     0
 62
    15
  6
CONTINUOUS
  0
ENDTAB
  0
TABLE
  2
STYLE
 70
     2
  0
STYLE
  2
STANDARD
 70
     0
 40
0.0
 41
0.9
 50
0.0
 71
     0
 42
64.0
  3
SIMPLEX
  4
BIGFONT
  0
STYLE
  2
ANNOTATIVE
 70
     0
 40
0.0
 41
1.0
 50
0.0
 71
     0
 42
0.2
  3
txt
  4

  0
ENDTAB
  0
TABLE
  2
VIEW
 70
     1
  0
VIEW
  2
ALL
 70
     0
 40
4282.6198079999967
 10
0.0
 20
41.309903999999989
 41
5940.0
 11
0.0
 21
0.0
 31
1.0
 12
0.0
 22
0.0
 32
0.0
 42
50.0
 43
0.0
 44
0.0
 50
0.0
 71
     0
  0
ENDTAB
  0
TABLE
  2
UCS
 70
     0
  0
ENDTAB
  0
TABLE
  2
APPID
 70
     3
  0
APPID
  2
ACAD
 70
     0
  0
APPID
  2
ACADANNOTATIVE
 70
     0
  0
APPID
  2
ACAD_MLEADERVER
 70
     0
  0
ENDTAB
  0
TABLE
  2
DIMSTYLE
 70
     2
  0
DIMSTYLE
  2
STANDARD
 70
     0
  3

  4

  5

  6

  7

 40
1.0
 41
0.18
 42
0.0625
 43
0.38
 44
0.18
 45
0.0
 46
0.0
 47
0.0
 48
0.0
140
0.18
141
0.09
142
0.0
143
25.399999999999999
144
1.0
145
0.0
146
1.0
147
0.09
 71
     0
 72
     0
 73
     1
 74
     1
 75
     0
 76
     0
 77
     0
 78
     0
170
     0
171
     2
172
     0
173
     0
174
     0
175
     0
176
     0
177
     0
178
     0
  0
DIMSTYLE
  2
ANNOTATIVE
 70
     0
  3

  4

  5

  6

  7

 40
1.0
 41
0.18
 42
0.0625
 43
0.38
 44
0.18
 45
0.0
 46
0.0
 47
0.0
 48
0.0
140
0.18
141
0.09
142
0.0
143
25.399999999999999
144
1.0
145
0.0
146
1.0
147
0.09
 71
     0
 72
     0
 73
     1
 74
     1
 75
     0
 76
     0
 77
     0
 78
     0
170
     0
171
     2
172
     0
173
     0
174
     0
175
     0
176
     0
177
     0
178
     0
  0
ENDTAB
  0
ENDSEC
  0
SECTION
  2
BLOCKS
  0
BLOCK
  8
0
  2
$MODEL_SPACE
 70
     0
 10
0.0
 20
0.0
 30
0.0
  3
$MODEL_SPACE
  1

  0
ENDBLK
  5
634
  8
0
  0
BLOCK
 67
     1
  8
0
  2
$PAPER_SPACE
 70
     0
 10
0.0
 20
0.0
 30
0.0
  3
$PAPER_SPACE
  1

  0
ENDBLK
  5
630
 67
     1
  8
0
  0
BLOCK
  8
0
 62
    30
  2
_NONE
 70
     0
 10
0.0
 20
0.0
 30
0.0
  3
_NONE
  1

  0
ENDBLK
  5
3E9
  8
0
 62
    30
  0
BLOCK
  8
0
 62
    30
  2
_OPEN30
 70
     0
 10
0.0
 20
0.0
 30
0.0
  3
_OPEN30
  1

  0
LINE
  5
3EB
  8
0
  6
BYBLOCK
 62
     0
 10
-1.0
 20
0.26794919
 30
0.0
 11
0.0
 21
0.0
 31
0.0
  0
LINE
  5
3EC
  8
0
  6
BYBLOCK
 62
     0
 10
0.0
 20
0.0
 30
0.0
 11
-1.0
 21
-0.26794919
 31
0.0
  0
LINE
  5
3ED
  8
0
  6
BYBLOCK
 62
     0
 10
0.0
 20
0.0
 30
0.0
 11
-1.0
 21
0.0
 31
0.0
  0
ENDBLK
  5
3EF
  8
0
 62
    30
  0
ENDSEC
  0
SECTION
  2
ENTITIES
  0
LINE
  5
32D
  8
NOTE
  6
CONTINUOUS
 62
     4
 10
-250.0
 20
-26.641811999999899
 30
0.0
 11
-250.0
 21
53.0
 31
0.0
  0
LINE
  5
32E
  8
NOTE
  6
CONTINUOUS
 62
     4
 10
-220.0
 20
23.000000000000028
 30
0.0
 11
-280.0
 21
23.000000000000028
 31
0.0
  0
LINE
  5
32F
  8
NOTE
  6
CONTINUOUS
 62
     4
 10
279.99999999999989
 20
23.000000000000028
 30
0.0
 11
219.99999999999989
 21
23.000000000000028
 31
0.0
  0
LINE
  5
330
  8
NOTE
  6
CONTINUOUS
 62
     4
 10
249.99999999999989
 20
-7.0
 30
0.0
 11
249.99999999999989
 21
53.0
 31
0.0
  0
LINE
  5
331
  8
BASIS
  6
DASHDOT
 62
     6
 10
-0.0000000000000284
 20
-272.39686599999987
 30
0.0
 11
-0.0000000000000284
 21
91.391300729631496
 31
0.0
  0
LINE
  5
333
  8
DETAIL
  6
CONTINUOUS
 62
     5
 10
-300.0
 20
0.0
 30
0.0
 11
-260.0
 21
0.0
 31
0.0
  0
LINE
  5
334
  8
DETAIL
  6
CONTINUOUS
 62
     5
 10
-300.0
 20
-189.99999999999989
 30
0.0
 11
299.99999999999989
 21
-189.99999999999989
 31
0.0
  0
LINE
  5
335
  8
DETAIL
  6
CONTINUOUS
 62
     5
 10
299.99999999999989
 20
0.0
 30
0.0
 11
299.99999999999989
 21
-189.99999999999989
 31
0.0
  0
LINE
  5
336
  8
DETAIL
  6
CONTINUOUS
 62
     5
 10
-300.0
 20
0.0
 30
0.0
 11
-300.0
 21
-189.99999999999989
 31
0.0
  0
LINE
  5
337
  8
DETAIL
  6
CONTINUOUS
 62
     5
 10
239.99999999999989
 20
-174.99999999999989
 30
0.0
 11
239.99999999999989
 21
30.000000000000028
 31
0.0
  0
LINE
  5
338
  8
DETAIL
  6
CONTINUOUS
 62
     5
 10
259.99999999999989
 20
-174.99999999999989
 30
0.0
 11
259.99999999999989
 21
30.000000000000028
 31
0.0
  0
LINE
  5
339
  8
DETAIL
  6
CONTINUOUS
 62
     5
 10
239.99999999999989
 20
30.000000000000028
 30
0.0
 11
259.99999999999989
 21
30.000000000000028
 31
0.0
  0
LINE
  5
33A
  8
DETAIL
  6
CONTINUOUS
 62
     5
 10
-260.0
 20
-174.99999999999989
 30
0.0
 11
-260.0
 21
30.000000000000028
 31
0.0
  0
LINE
  5
33B
  8
DETAIL
  6
CONTINUOUS
 62
     5
 10
-240.0
 20
-174.99999999999989
 30
0.0
 11
-240.0
 21
30.000000000000028
 31
0.0
  0
LINE
  5
33C
  8
DETAIL
  6
CONTINUOUS
 62
     5
 10
-240.0
 20
30.000000000000028
 30
0.0
 11
-260.0
 21
30.000000000000028
 31
0.0
  0
LINE
  5
33D
  8
SIZE
  6
CONTINUOUS
 62
    30
 10
505.66474499999981
 20
30.000000000000028
 30
0.0
 11
505.66474499999981
 21
161.39597299999991
 31
0.0
  0
LINE
  5
342
  8
SIZE
  6
CONTINUOUS
 62
    30
 10
-367.24557500000009
 20
32.000000000000028
 30
0.0
 11
-367.24557500000009
 21
155.32307199999991
 31
0.0
  0
LINE
  5
343
  8
SIZE
  6
CONTINUOUS
 62
    30
 10
-367.24557500000009
 20
-2.0
 30
0.0
 11
-367.24557500000009
 21
-152.66336699999991
 31
0.0
  0
LINE
  5
345
  8
DETAIL
  6
CONTINUOUS
 62
     5
 10
-256.36259200000012
 20
16.000000000000028
 30
0.0
 11
-243.63740799999999
 21
16.000000000000028
 31
0.0
  0
LINE
  5
346
  8
DETAIL
  6
CONTINUOUS
 62
     5
 10
-252.49999999999989
 20
-23.0
 30
0.0
 11
-252.49999999999989
 21
7.7419920000000104
 31
0.0
  0
LINE
  5
347
  8
DETAIL
  6
CONTINUOUS
 62
     5
 10
-247.5
 20
-23.0
 30
0.0
 11
-247.5
 21
7.7419920000000104
 31
0.0
  0
ARC
  5
348
  8
DETAIL
  6
CONTINUOUS
 62
     5
 10
-250.0
 20
-23.0
 30
0.0
 40
2.5
 50
180.0
 51
0.0
  0
ARC
  5
349
  8
DETAIL
  6
CONTINUOUS
 62
     5
 10
249.99999999999989
 20
-23.0
 30
0.0
 40
2.5
 50
180.0
 51
0.0
  0
LINE
  5
34A
  8
DETAIL
  6
CONTINUOUS
 62
     5
 10
252.4999999999998
 20
-23.0
 30
0.0
 11
252.4999999999998
 21
7.7419920000000104
 31
0.0
  0
LINE
  5
34B
  8
DETAIL
  6
CONTINUOUS
 62
     5
 10
247.49999999999989
 20
-23.0
 30
0.0
 11
247.49999999999989
 21
7.7419920000000104
 31
0.0
  0
LINE
  5
34C
  8
DETAIL
  6
CONTINUOUS
 62
     5
 10
243.63740799999991
 20
16.000000000000028
 30
0.0
 11
256.36259199999989
 21
16.000000000000028
 31
0.0
  0
LINE
  5
34D
  8
DETAIL
  6
DIVIDE
 62
     5
 10
145.49999999999989
 20
-39.99999999999995
 30
0.0
 11
145.49999999999989
 21
-141.99999999999989
 31
0.0
  0
LINE
  5
34E
  8
DETAIL
  6
DIVIDE
 62
     5
 10
145.49999999999989
 20
-141.99999999999989
 30
0.0
 11
-145.5
 21
-141.99999999999989
 31
0.0
  0
LINE
  5
34F
  8
DETAIL
  6
DIVIDE
 62
     5
 10
-145.5
 20
-141.99999999999989
 30
0.0
 11
-145.5
 21
-39.99999999999995
 31
0.0
  0
LINE
  5
350
  8
DETAIL
  6
DIVIDE
 62
     5
 10
-145.5
 20
-39.99999999999995
 30
0.0
 11
145.49999999999989
 21
-39.99999999999995
 31
0.0
  0
LINE
  5
351
  8
BASIS
  6
DASHDOT
 62
     6
 10
-193.02308600000009
 20
-90.999999999999943
 30
0.0
 11
196.83297699999989
 21
-90.999999999999943
 31
0.0
  0
LINE
  5
352
  8
DETAIL
  6
CONTINUOUS
 62
     5
 10
-240.0
 20
0.0
 30
0.0
 11
239.99999999999989
 21
0.0
 31
0.0
  0
LINE
  5
353
  8
DETAIL
  6
CONTINUOUS
 62
     5
 10
259.99999999999989
 20
0.0
 30
0.0
 11
299.99999999999989
 21
0.0
 31
0.0
  0
LINE
  5
354
  8
DETAIL
  6
CONTINUOUS
 62
     5
 10
247.49999999999989
 20
0.0
 30
0.0
 11
252.4999999999998
 21
0.0
 31
0.0
  0
LINE
  5
355
  8
DETAIL
  6
CONTINUOUS
 62
     5
 10
-252.49999999999989
 20
0.0
 30
0.0
 11
-247.5
 21
0.0
 31
0.0
  0
LINE
  5
356
  8
DETAIL
  6
CONTINUOUS
 62
     5
 10
-260.0
 20
-174.99999999999989
 30
0.0
 11
-240.0
 21
-174.99999999999989
 31
0.0
  0
LINE
  5
357
  8
DETAIL
  6
CONTINUOUS
 62
     5
 10
239.99999999999989
 20
-174.99999999999989
 30
0.0
 11
259.99999999999989
 21
-174.99999999999989
 31
0.0
  0
LINE
  5
358
  8
NOTE
  6
CONTINUOUS
 62
     4
 10
-125.0
 20
0.0
 30
0.0
 11
-478.96076234781577
 21
439.91677796254339
 31
0.0
  0
LINE
  5
359
  8
NOTE
  6
CONTINUOUS
 62
     4
 10
-478.96076234781577
 20
439.91677796254339
 30
0.0
 11
-898.65614534781537
 21
439.91677796254339
 31
0.0
  0
LINE
  5
35A
  8
NOTE
  6
CONTINUOUS
 62
     4
 10
-0.0000000000000284
 20
0.0
 30
0.0
 11
375.11115835770579
 21
-356.48138699999998
 31
0.0
  0
LINE
  5
35B
  8
NOTE
  6
CONTINUOUS
 62
     4
 10
375.11115835770579
 20
-356.48138699999998
 30
0.0
 11
511.87261535770568
 21
-356.48138699999998
 31
0.0
  0
TEXT
  5
35C
  8
NOTE
  6
CONTINUOUS
 62
     4
 10
394.64404135770587
 20
-324.71708799999971
 30
0.0
 40
64.0
  1
EL
 41
0.9
  0
TEXT
  5
35D
  8
NOTE
  6
CONTINUOUS
 62
     4
 10
-894.05894634781589
 20
472.3550739625436
 30
0.0
 40
64.0
  1
AH 4-φ10
 41
0.9
  0
CIRCLE
  5
35F
  8
FIX
  6
CONTINUOUS
 62
    11
 10
124.9999999999999
 20
0.0
 30
0.0
 40
5.0
  0
CIRCLE
  5
360
  8
FIX
  6
CONTINUOUS
 62
    11
 10
-125.0
 20
0.0
 30
0.0
 40
5.0
  0
LINE
  5
361
  8
SIZE
  6
BYBLOCK
 62
    30
 10
-276.36259199999989
 20
16.000000000000028
 30
0.0
 11
-397.24557499999997
 21
16.000000000000028
 31
0.0
  0
LINE
  5
362
  8
SIZE
  6
BYBLOCK
 62
    30
 10
-300.0
 20
23.000000000000028
 30
0.0
 11
-397.24557499999997
 21
23.000000000000028
 31
0.0
  0
LINE
  5
363
  8
SIZE
  6
BYBLOCK
 62
    30
 10
-367.24557500000009
 20
25.000000000000028
 30
0.0
 11
-367.24557500000009
 21
27.000000000000028
 31
0.0
  0
LINE
  5
364
  8
SIZE
  6
BYBLOCK
 62
    30
 10
-367.24557500000009
 20
14.00000000000003
 30
0.0
 11
-367.24557500000009
 21
12.00000000000003
 31
0.0
  0
LINE
  5
365
  8
SIZE
  6
BYBLOCK
 62
    30
 10
-367.24557500000009
 20
23.000000000000028
 30
0.0
 11
-367.24557500000009
 21
16.000000000000028
 31
0.0
  0
TEXT
  5
366
  8
SIZE
  6
BYBLOCK
 62
    30
 10
-399.24557499999997
 20
74.862281999999965
 30
0.0
 40
64.0
  1
7
 50
90.0
 41
0.9
  0
LINE
  5
367
  8
SIZE
  6
BYBLOCK
 62
    30
 10
-276.36259199999989
 20
16.000000000000028
 30
0.0
 11
-397.24557499999997
 21
16.000000000000028
 31
0.0
  0
LINE
  5
368
  8
SIZE
  6
BYBLOCK
 62
    30
 10
-320.0
 20
0.0
 30
0.0
 11
-397.24557499999997
 21
0.0
 31
0.0
  0
LINE
  5
369
  8
SIZE
  6
BYBLOCK
 62
    30
 10
-367.24557500000009
 20
-2.0
 30
0.0
 11
-367.24557500000009
 21
-4.0
 31
0.0
  0
LINE
  5
36A
  8
SIZE
  6
BYBLOCK
 62
    30
 10
-367.24557500000009
 20
18.000000000000028
 30
0.0
 11
-367.24557500000009
 21
20.000000000000028
 31
0.0
  0
LINE
  5
36B
  8
SIZE
  6
BYBLOCK
 62
    30
 10
-367.24557500000009
 20
0.0
 30
0.0
 11
-367.24557500000009
 21
16.000000000000028
 31
0.0
  0
TEXT
  5
36C
  8
SIZE
  6
BYBLOCK
 62
    30
 10
-399.24557499999997
 20
-118.0177857493053
 30
0.0
 40
64.0
  1
16
 50
90.0
 41
0.9
  0
LINE
  5
377
  8
SIZE
  6
BYBLOCK
 62
    30
 10
-0.0000000000000284
 20
137.5845569999999
 30
0.0
 11
-0.0000000000000284
 21
273.04033399999992
 31
0.0
  0
LINE
  5
378
  8
SIZE
  6
BYBLOCK
 62
    30
 10
124.9999999999999
 20
40.0
 30
0.0
 11
124.9999999999999
 21
273.04033399999992
 31
0.0
  0
LINE
  5
379
  8
SIZE
  6
BYBLOCK
 62
    30
 10
126.9999999999999
 20
243.0403339999998
 30
0.0
 11
128.99999999999989
 21
243.0403339999998
 31
0.0
  0
LINE
  5
37A
  8
SIZE
  6
BYBLOCK
 62
    30
 10
-2.000000000000028
 20
243.0403339999998
 30
0.0
 11
-4.0000000000000284
 21
243.0403339999998
 31
0.0
  0
LINE
  5
37B
  8
SIZE
  6
BYBLOCK
 62
    30
 10
124.9999999999999
 20
243.0403339999998
 30
0.0
 11
-0.0000000000000284
 21
243.0403339999998
 31
0.0
  0
TEXT
  5
37C
  8
SIZE
  6
BYBLOCK
 62
    30
 10
18.97067899999999
 20
275.04033399999992
 30
0.0
 40
64.0
  1
125
 41
0.9
  0
LINE
  5
37D
  8
SIZE
  6
BYBLOCK
 62
    30
 10
-125.0
 20
40.0
 30
0.0
 11
-125.0
 21
273.04033399999992
 31
0.0
  0
LINE
  5
37E
  8
SIZE
  6
BYBLOCK
 62
    30
 10
-0.0000000000000284
 20
116.9528798111651
 30
0.0
 11
-0.0000000000000284
 21
273.04033399999992
 31
0.0
  0
LINE
  5
37F
  8
SIZE
  6
BYBLOCK
 62
    30
 10
1.9999999999999709
 20
243.0403339999998
 30
0.0
 11
3.9999999999999711
 21
243.0403339999998
 31
0.0
  0
LINE
  5
380
  8
SIZE
  6
BYBLOCK
 62
    30
 10
-127.0
 20
243.0403339999998
 30
0.0
 11
-129.0
 21
243.0403339999998
 31
0.0
  0
LINE
  5
381
  8
SIZE
  6
BYBLOCK
 62
    30
 10
-0.0000000000000284
 20
243.0403339999998
 30
0.0
 11
-125.0
 21
243.0403339999998
 31
0.0
  0
TEXT
  5
382
  8
SIZE
  6
BYBLOCK
 62
    30
 10
-151.10511500000001
 20
275.04033399999992
 30
0.0
 40
64.0
  1
125
 41
0.9
  0
LINE
  5
383
  8
SIZE
  6
BYBLOCK
 62
    30
 10
-320.0
 20
0.0
 30
0.0
 11
-649.10265199999947
 21
0.0
 31
0.0
  0
LINE
  5
384
  8
SIZE
  6
BYBLOCK
 62
    30
 10
-320.0
 20
-189.99999999999989
 30
0.0
 11
-649.10265199999947
 21
-189.99999999999989
 31
0.0
  0
LINE
  5
385
  8
SIZE
  6
BYBLOCK
 62
    30
 10
-619.10265199999947
 20
-2.0
 30
0.0
 11
-619.10265199999947
 21
-94.999999999999943
 31
0.0
  0
LINE
  5
386
  8
SIZE
  6
BYBLOCK
 62
    30
 10
-619.10265199999947
 20
-187.99999999999989
 30
0.0
 11
-619.10265199999947
 21
-94.999999999999943
 31
0.0
  0
TEXT
  5
387
  8
SIZE
  6
BYBLOCK
 62
    30
 10
-651.10265199999958
 20
-163.5714289999998
 30
0.0
 40
64.0
  1
190
 50
90.0
 41
0.9
  0
LINE
  5
38D
  8
SIZE
  6
BYBLOCK
 62
    30
 10
319.99999999999989
 20
0.0
 30
0.0
 11
535.66474499999993
 21
0.0
 31
0.0
  0
LINE
  5
390
  8
SIZE
  6
BYBLOCK
 62
    30
 10
505.66474499999981
 20
2.000000000000028
 30
0.0
 11
505.66474499999981
 21
4.0000000000000284
 31
0.0
  0
LINE
  5
393
  8
SIZE
  6
BYBLOCK
 62
    30
 10
319.99999999999989
 20
0.0
 30
0.0
 11
661.94621943078334
 21
0.0
 31
0.0
  0
LINE
  5
394
  8
SIZE
  6
BYBLOCK
 62
    30
 10
279.99999999999989
 20
30.000000000000028
 30
0.0
 11
535.66474499999993
 21
30.000000000000028
 31
0.0
  0
LINE
  5
395
  8
SIZE
  6
BYBLOCK
 62
    30
 10
505.66474499999981
 20
32.000000000000028
 30
0.0
 11
505.66474499999981
 21
34.0
 31
0.0
  0
LINE
  5
396
  8
SIZE
  6
BYBLOCK
 62
    30
 10
505.66474499999981
 20
-2.0
 30
0.0
 11
505.66474499999981
 21
-4.0
 31
0.0
  0
LINE
  5
397
  8
SIZE
  6
BYBLOCK
 62
    30
 10
505.66474499999981
 20
30.000000000000028
 30
0.0
 11
505.66474499999981
 21
0.0
 31
0.0
  0
TEXT
  5
398
  8
SIZE
  6
BYBLOCK
 62
    30
 10
473.66474499999981
 20
60.660786000000002
 30
0.0
 40
64.0
  1
30
 50
90.0
 41
0.9
  0
LINE
  5
399
  8
SIZE
  6
BYBLOCK
 62
    30
 10
299.99999999999989
 20
20.000000000000028
 30
0.0
 11
299.99999999999989
 21
517.31949099999986
 31
0.0
  0
LINE
  5
39A
  8
SIZE
  6
BYBLOCK
 62
    30
 10
-300.0
 20
20.000000000000028
 30
0.0
 11
-300.0
 21
517.31949099999986
 31
0.0
  0
LINE
  5
39B
  8
SIZE
  6
BYBLOCK
 62
    30
 10
297.99999999999989
 20
487.31949099999991
 30
0.0
 11
-0.0000000000000284
 21
487.31949099999991
 31
0.0
  0
LINE
  5
39C
  8
SIZE
  6
BYBLOCK
 62
    30
 10
-298.0
 20
487.31949099999991
 30
0.0
 11
-0.0000000000000284
 21
487.31949099999991
 31
0.0
  0
TEXT
  5
39D
  8
SIZE
  6
BYBLOCK
 62
    30
 10
-74.057142999999996
 20
519.31949099999986
 30
0.0
 40
64.0
  1
600
 41
0.9
  0
LINE
  5
39E
  8
SIZE
  6
BYBLOCK
 62
    30
 10
249.99999999999989
 20
73.0
 30
0.0
 11
249.99999999999989
 21
397.82615299999992
 31
0.0
  0
LINE
  5
39F
  8
SIZE
  6
BYBLOCK
 62
    30
 10
-250.0
 20
73.0
 30
0.0
 11
-250.0
 21
397.82615299999992
 31
0.0
  0
LINE
  5
3A0
  8
SIZE
  6
BYBLOCK
 62
    30
 10
247.99999999999989
 20
367.82615299999992
 30
0.0
 11
-0.0000000000000284
 21
367.82615299999992
 31
0.0
  0
LINE
  5
3A1
  8
SIZE
  6
BYBLOCK
 62
    30
 10
-248.0
 20
367.82615299999992
 30
0.0
 11
-0.0000000000000284
 21
367.82615299999992
 31
0.0
  0
TEXT
  5
3A2
  8
SIZE
  6
BYBLOCK
 62
    30
 10
-74.057142999999996
 20
399.82615299999992
 30
0.0
 40
64.0
  1
500
 41
0.9
  0
CIRCLE
  5
3A3
  8
SIZE
  6
CONTINUOUS
 62
    30
 10
-250.0
 20
367.82615299999992
 30
0.0
 40
6.0
  0
CIRCLE
  5
3A4
  8
SIZE
  6
CONTINUOUS
 62
    30
 10
249.99999999999989
 20
367.82615299999992
 30
0.0
 40
6.0
  0
CIRCLE
  5
3A5
  8
SIZE
  6
CONTINUOUS
 62
    30
 10
-300.0
 20
487.31949099999991
 30
0.0
 40
6.0
  0
CIRCLE
  5
3A6
  8
SIZE
  6
CONTINUOUS
 62
    30
 10
299.99999999999989
 20
487.31949099999991
 30
0.0
 40
6.0
  0
CIRCLE
  5
3A7
  8
SIZE
  6
CONTINUOUS
 62
    30
 10
505.66474499999981
 20
0.0
 30
0.0
 40
6.0
  0
CIRCLE
  5
3A8
  8
SIZE
  6
CONTINUOUS
 62
    30
 10
505.66474499999981
 20
30.000000000000028
 30
0.0
 40
6.0
  0
CIRCLE
  5
3A9
  8
SIZE
  6
CONTINUOUS
 62
    30
 10
505.66474499999981
 20
0.0
 30
0.0
 40
6.0
  0
CIRCLE
  5
3AD
  8
SIZE
  6
CONTINUOUS
 62
    30
 10
-619.10265199999947
 20
-189.99999999999989
 30
0.0
 40
6.0
  0
CIRCLE
  5
3AE
  8
SIZE
  6
CONTINUOUS
 62
    30
 10
-619.10265199999947
 20
0.0
 30
0.0
 40
6.0
  0
CIRCLE
  5
3AF
  8
SIZE
  6
CONTINUOUS
 62
    30
 10
-125.0
 20
243.0403339999998
 30
0.0
 40
6.0
  0
CIRCLE
  5
3B0
  8
SIZE
  6
CONTINUOUS
 62
    30
 10
-0.0000000000000284
 20
243.0403339999998
 30
0.0
 40
6.0
  0
CIRCLE
  5
3B1
  8
SIZE
  6
CONTINUOUS
 62
    30
 10
-0.0000000000000284
 20
243.0403339999998
 30
0.0
 40
6.0
  0
CIRCLE
  5
3B2
  8
SIZE
  6
CONTINUOUS
 62
    30
 10
124.9999999999999
 20
243.0403339999998
 30
0.0
 40
6.0
  0
CIRCLE
  5
3B7
  8
SIZE
  6
CONTINUOUS
 62
    30
 10
-367.24557500000009
 20
16.000000000000028
 30
0.0
 40
6.0
  0
CIRCLE
  5
3B8
  8
SIZE
  6
CONTINUOUS
 62
    30
 10
-367.24557500000009
 20
0.0
 30
0.0
 40
6.0
  0
CIRCLE
  5
3B9
  8
SIZE
  6
CONTINUOUS
 62
    30
 10
-367.24557500000009
 20
16.000000000000028
 30
0.0
 40
6.0
  0
CIRCLE
  5
3BA
  8
SIZE
  6
CONTINUOUS
 62
    30
 10
-367.24557500000009
 20
23.000000000000028
 30
0.0
 40
6.0
  0
LINE
  5
3BB
  8
NOTE
  6
CONTINUOUS
 62
     4
 10
124.9999999999999
 20
-20.0
 30
0.0
 11
124.9999999999999
 21
20.000000000000028
 31
0.0
  0
LINE
  5
3BC
  8
NOTE
  6
CONTINUOUS
 62
     4
 10
104.9999999999999
 20
0.0
 30
0.0
 11
144.99999999999989
 21
0.0
 31
0.0
  0
LINE
  5
3BD
  8
NOTE
  6
CONTINUOUS
 62
     4
 10
-125.0
 20
-20.0
 30
0.0
 11
-125.0
 21
20.000000000000028
 31
0.0
  0
LINE
  5
3BE
  8
NOTE
  6
CONTINUOUS
 62
     4
 10
-145.0
 20
0.0
 30
0.0
 11
-105.0
 21
0.0
 31
0.0
  0
LINE
  5
3BF
  8
NOTE
  6
CONTINUOUS
 62
     4
 10
-0.0000000000000284
 20
-20.0
 30
0.0
 11
-0.0000000000000284
 21
20.000000000000028
 31
0.0
  0
LINE
  5
3C0
  8
NOTE
  6
CONTINUOUS
 62
     4
 10
-20.000000000000028
 20
0.0
 30
0.0
 11
19.999999999999972
 21
0.0
 31
0.0
  0
LINE
  5
3C1
  8
NOTE
  6
CONTINUOUS
 62
     4
 10
35.155819768118782
 20
-16.104237419265701
 30
0.0
 11
-0.0000000000000284
 21
0.0
 31
0.0
  0
LINE
  5
3C2
  8
NOTE
  6
CONTINUOUS
 62
     4
 10
-0.0000000000000284
 20
0.0
 30
0.0
 11
19.818871321750489
 21
-36.505081000000011
 31
0.0
  0
LINE
  5
3C3
  8
NOTE
  6
CONTINUOUS
 62
     4
 10
-159.4434923975424
 20
24.3051654867268
 30
0.0
 11
-125.0
 21
0.0
 31
0.0
  0
LINE
  5
3C4
  8
NOTE
  6
CONTINUOUS
 62
     4
 10
-125.0
 20
0.0
 30
0.0
 11
-139.5331302553368
 21
38.399342912155561
 31
0.0
  0
ARC
  5
3C5
  8
DETAIL
  6
CONTINUOUS
 62
     5
 10
-251.2458403177464
 20
13.6974018444661
 30
0.0
 40
7.0354975731370111
 50
302.16911750070358
 51
324.7414307226698
  0
ARC
  5
3C6
  8
DETAIL
  6
CONTINUOUS
 62
     5
 10
-253.21479945056851
 20
15.0893769902373
 30
0.0
 40
9.4468032097394659
 50
324.7413772590927
 51
343.67842022973969
  0
ARC
  5
3C7
  8
DETAIL
  6
CONTINUOUS
 62
     5
 10
-256.32453270354722
 20
16.00000450936011
 30
0.0
 40
12.687124703548079
 50
343.67839274582627
 51
359.99997963547241
  0
ARC
  5
3C8
  8
DETAIL
  6
CONTINUOUS
 62
     5
 10
-256.32453270354722
 20
15.99999549063989
 30
0.0
 40
12.687124703548079
 50
0.0000203645275731
 51
16.321607254173649
  0
ARC
  5
3C9
  8
DETAIL
  6
CONTINUOUS
 62
     5
 10
-253.21479945056851
 20
16.910623009762698
 30
0.0
 40
9.4468032097394108
 50
16.321579770260222
 51
35.258622740907292
  0
ARC
  5
3CA
  8
DETAIL
  6
CONTINUOUS
 62
     5
 10
-251.2458560763327
 20
18.302581459473199
 30
0.0
 40
7.0355200789846792
 50
35.258606220309737
 51
59.63341521473361
  0
ARC
  5
3CB
  8
DETAIL
  6
CONTINUOUS
 62
     5
 10
-250.0000008079387
 20
20.42892892602811
 30
0.0
 40
4.5710710739719662
 50
59.633426078187881
 51
89.999989872949413
  0
ARC
  5
3CC
  8
DETAIL
  6
CONTINUOUS
 62
     5
 10
-249.9999991920613
 20
20.42892892602811
 30
0.0
 40
4.5710710739719644
 50
90.000010127050572
 51
120.3665739218121
  0
ARC
  5
3CD
  8
DETAIL
  6
CONTINUOUS
 62
     5
 10
-248.7541439236675
 20
18.30258145947337
 30
0.0
 40
7.0355200789845371
 50
120.3665847852678
 51
144.74139377969249
  0
ARC
  5
3CE
  8
DETAIL
  6
CONTINUOUS
 62
     5
 10
-246.78520054943141
 20
16.910623009762698
 30
0.0
 40
9.4468032097394392
 50
144.7413772590927
 51
163.67842022973969
  0
ARC
  5
3CF
  8
DETAIL
  6
CONTINUOUS
 62
     5
 10
-243.67546729645281
 20
15.999995490639829
 30
0.0
 40
12.687124703548101
 50
163.6783927458263
 51
179.99997963547241
  0
ARC
  5
3D0
  8
DETAIL
  6
CONTINUOUS
 62
     5
 10
-243.67546729645281
 20
16.000004509360188
 30
0.0
 40
12.687124703548101
 50
180.0000203645275
 51
196.32160725417361
  0
ARC
  5
3D1
  8
DETAIL
  6
CONTINUOUS
 62
     5
 10
-246.78520054943141
 20
15.0893769902373
 30
0.0
 40
9.4468032097394872
 50
196.3215797702602
 51
215.2586227409073
  0
ARC
  5
3D2
  8
DETAIL
  6
CONTINUOUS
 62
     5
 10
-248.7541596822536
 20
13.6974018444661
 30
0.0
 40
7.0354975731370564
 50
215.2585692773302
 51
237.83088249929719
  0
ARC
  5
3D3
  8
DETAIL
  6
CONTINUOUS
 62
     5
 10
250.00000080793851
 20
20.42892892602811
 30
0.0
 40
4.5710710739719644
 50
90.000010127050572
 51
120.3665739218121
  0
ARC
  5
3D4
  8
DETAIL
  6
CONTINUOUS
 62
     5
 10
251.24585607633239
 20
18.302581459473199
 30
0.0
 40
7.035520078984681
 50
120.3665847852664
 51
144.74139377969021
  0
ARC
  5
3D5
  8
DETAIL
  6
CONTINUOUS
 62
     5
 10
253.21479945056831
 20
16.910623009762698
 30
0.0
 40
9.4468032097394161
 50
144.7413772590927
 51
163.67842022973969
  0
ARC
  5
3D6
  8
DETAIL
  6
CONTINUOUS
 62
     5
 10
256.32453270354699
 20
15.99999549063989
 30
0.0
 40
12.687124703548079
 50
163.6783927458263
 51
179.99997963547241
  0
ARC
  5
3D7
  8
DETAIL
  6
CONTINUOUS
 62
     5
 10
256.32453270354699
 20
16.00000450936011
 30
0.0
 40
12.687124703548079
 50
180.0000203645275
 51
196.32160725417361
  0
ARC
  5
3D8
  8
DETAIL
  6
CONTINUOUS
 62
     5
 10
253.21479945056831
 20
15.0893769902373
 30
0.0
 40
9.4468032097394659
 50
196.3215797702602
 51
215.2586227409073
  0
ARC
  5
3D9
  8
DETAIL
  6
CONTINUOUS
 62
     5
 10
251.2458403177462
 20
13.6974018444661
 30
0.0
 40
7.035497573137012
 50
215.2585692773302
 51
237.83088249929631
  0
ARC
  5
3DA
  8
DETAIL
  6
CONTINUOUS
 62
     5
 10
248.7541596822536
 20
13.6974018444661
 30
0.0
 40
7.0354975731370564
 50
302.16911750070278
 51
324.74143072266889
  0
ARC
  5
3DB
  8
DETAIL
  6
CONTINUOUS
 62
     5
 10
246.78520054943141
 20
15.0893769902373
 30
0.0
 40
9.4468032097394872
 50
324.7413772590927
 51
343.67842022973969
  0
ARC
  5
3DC
  8
DETAIL
  6
CONTINUOUS
 62
     5
 10
243.6754672964525
 20
16.000004509360188
 30
0.0
 40
12.687124703548101
 50
343.67839274582479
 51
359.99997963547241
  0
ARC
  5
3DD
  8
DETAIL
  6
CONTINUOUS
 62
     5
 10
243.6754672964525
 20
15.999995490639829
 30
0.0
 40
12.687124703548101
 50
0.0000203645275731
 51
16.321607254173649
  0
ARC
  5
3DE
  8
DETAIL
  6
CONTINUOUS
 62
     5
 10
246.78520054943141
 20
16.910623009762698
 30
0.0
 40
9.4468032097394392
 50
16.321579770260222
 51
35.258622740907292
  0
ARC
  5
3DF
  8
DETAIL
  6
CONTINUOUS
 62
     5
 10
248.7541439236673
 20
18.30258145947337
 30
0.0
 40
7.035520078984538
 50
35.25860622030747
 51
59.63341521473221
  0
ARC
  5
3E0
  8
DETAIL
  6
CONTINUOUS
 62
     5
 10
249.99999919206121
 20
20.42892892602811
 30
0.0
 40
4.5710710739719662
 50
59.633426078187881
 51
89.999989872949413
  0
TEXT
  5
3E1
  8
ETC
  6
CONTINUOUS
 62
    61
 10
668.68935044061845
 20
277.01006562649781
 30
0.0
 40
50.0
  1
V-316KR5
 41
0.9
  0
TEXT
  5
3E2
  8
ETC
  6
CONTINUOUS
 62
    61
 10
668.68935044061845
 20
355.30915187186218
 30
0.0
 40
50.0
  1
V-316KP5
 41
0.9
  0
TEXT
  5
3E3
  8
ETC
  6
CONTINUOUS
 62
    61
 10
534.49071073584355
 20
611.98232218155056
 30
0.0
 40
64.0
  1
V-316K5_3
 41
0.9
  0
TEXT
  5
3E4
  8
ETC
  6
CONTINUOUS
 62
    61
 10
668.68935044061845
 20
430.20393327109662
 30
0.0
 40
50.0
  1
V-316K5
 41
0.9
  0
TEXT
  5
3E5
  8
ETC
  6
CONTINUOUS
 62
    61
 10
542.59527173584365
 20
506.63006518155072
 30
0.0
 40
64.0
  1
換気扇
 41
0.9
  0
LINE
  5
412
  8
BASIS
  6
DASHDOT
 62
     6
 10
209.99999999999989
 20
-27.896074967179601
 30
0.0
 11
209.99999999999989
 21
60.717403836894789
 31
0.0
  0
LINE
  5
417
  8
DETAIL
  6
CONTINUOUS
 62
     5
 10
158.99999999999989
 20
46.0
 30
0.0
 11
260.99999999999989
 21
46.0
 31
0.0
  0
LINE
  5
430
  8
DETAIL
  6
CONTINUOUS
 62
     5
 10
158.99999999999989
 20
0.0
 30
0.0
 11
158.99999999999989
 21
46.0
 31
0.0
  0
LINE
  5
431
  8
DETAIL
  6
CONTINUOUS
 62
     5
 10
260.99999999999989
 20
46.0
 30
0.0
 11
260.99999999999989
 21
30.000000000000028
 31
0.0
  0
LINE
  5
47C
  8
SIZE
  6
CONTINUOUS
 10
209.99999999999989
 20
80.717403836894874
 30
0.0
 11
209.99999999999989
 21
161.25961921320231
 31
0.0
  0
LINE
  5
47D
  8
SIZE
  6
CONTINUOUS
 10
-0.0000000000000284
 20
97.584557000000103
 30
0.0
 11
-0.0000000000000284
 21
67.355669015748362
 31
0.0
  0
LINE
  5
47E
  8
SIZE
  6
CONTINUOUS
 10
209.99999999999989
 20
134.84598466951411
 30
0.0
 11
-0.0000000000000284
 21
134.84598466951411
 31
0.0
  0
LINE
  5
480
  8
SIZE
  6
CONTINUOUS
 10
279.99999999999989
 20
46.0
 30
0.0
 11
661.25274356804402
 21
45.999999999999879
 31
0.0
  0
LINE
  5
482
  8
SIZE
  6
CONTINUOUS
 10
631.25274356804391
 20
45.999999999999879
 30
0.0
 11
631.25274356804391
 21
0.0
 31
0.0
  0
LINE
  5
483
  8
SIZE
  6
CONTINUOUS
 10
631.25274356804391
 20
226.5167620703451
 30
0.0
 11
631.25274356804391
 21
45.999999999999879
 31
0.0
  0
LINE
  5
485
  8
SIZE
  6
CONTINUOUS
 10
216.83297699999989
 20
-90.999999999999943
 30
0.0
 11
536.37812903697136
 21
-91.000000000000057
 31
0.0
  0
LINE
  5
486
  8
SIZE
  6
CONTINUOUS
 10
515.66474499999993
 20
0.0
 30
0.0
 11
476.37812903697142
 21
0.0
 31
0.0
  0
LINE
  5
487
  8
SIZE
  6
CONTINUOUS
 10
506.37812903697142
 20
-91.000000000000057
 30
0.0
 11
506.37812903697142
 21
0.0
 31
0.0
  0
LINE
  5
488
  8
SIZE
  6
CONTINUOUS
 10
506.37812903697142
 20
-242.114455252477
 30
0.0
 11
506.37812903697142
 21
-91.000000000000057
 31
0.0
  0
LINE
  5
48A
  8
SIZE
  6
CONTINUOUS
 10
158.99999999999989
 20
66.0
 30
0.0
 11
158.99999999999989
 21
268.618253350538
 31
0.0
  0
LINE
  5
48B
  8
SIZE
  6
CONTINUOUS
 10
260.99999999999989
 20
66.0
 30
0.0
 11
260.99999999999989
 21
265.21004147640269
 31
0.0
  0
LINE
  5
48C
  8
SIZE
  6
CONTINUOUS
 10
158.99999999999989
 20
241.35257331918001
 30
0.0
 11
260.99999999999989
 21
241.35257331918001
 31
0.0
  0
LINE
  5
48D
  8
SIZE
  6
CONTINUOUS
 10
484.08119145027268
 20
241.35257331918001
 30
0.0
 11
260.99999999999989
 21
241.35257331918001
 31
0.0
  0
TEXT
  5
48F
  8
SIZE
  6
CONTINUOUS
 10
486.37812903697142
 20
-222.114455252477
 30
0.0
 40
64.0
  1
91
 50
90.0
 41
0.9
  0
TEXT
  5
490
  8
SIZE
  6
CONTINUOUS
 10
326.93833430741569
 20
261.3525733191799
 30
0.0
 40
64.0
  1
102
 41
0.9
  0
TEXT
  5
491
  8
SIZE
  6
CONTINUOUS
 10
36.428571428571388
 20
154.84598466951411
 30
0.0
 40
64.0
  1
210
 41
0.9
  0
TEXT
  5
492
  8
SIZE
  6
CONTINUOUS
 10
611.25274356804402
 20
116.0024763560595
 30
0.0
 40
64.0
  1
46
 50
90.0
 41
0.9
  0
CIRCLE
  5
496
  8
SIZE
  6
CONTINUOUS
 62
    30
 10
-0.0000000000000284
 20
134.84598466951411
 30
0.0
 40
6.0
  0
CIRCLE
  5
497
  8
SIZE
  6
CONTINUOUS
 62
    30
 10
209.99999999999989
 20
134.84598466951411
 30
0.0
 40
6.0
  0
CIRCLE
  5
498
  8
SIZE
  6
CONTINUOUS
 62
    30
 10
158.99999999999989
 20
241.35257331918001
 30
0.0
 40
6.0
  0
CIRCLE
  5
499
  8
SIZE
  6
CONTINUOUS
 62
    30
 10
260.99999999999989
 20
241.35257331918001
 30
0.0
 40
6.0
  0
CIRCLE
  5
49A
  8
SIZE
  6
CONTINUOUS
 62
    30
 10
631.25274356804391
 20
45.999999999999879
 30
0.0
 40
6.0
  0
CIRCLE
  5
49B
  8
SIZE
  6
CONTINUOUS
 62
    30
 10
631.25274356804391
 20
0.0
 30
0.0
 40
6.0
  0
CIRCLE
  5
49C
  8
SIZE
  6
CONTINUOUS
 62
    30
 10
506.37812903697142
 20
-91.000000000000057
 30
0.0
 40
6.0
  0
LINE
  5
4E8
  8
NOTE
  6
CONTINUOUS
 62
     4
 10
-249.9999991920613
 20
20.42892892602811
 30
0.0
 11
-483.99247451006153
 21
286.12211388671409
 31
0.0
  0
LINE
  5
4E9
  8
NOTE
  6
CONTINUOUS
 62
     4
 10
-283.64445285080558
 20
42.375796238014061
 30
0.0
 11
-249.9999991920613
 21
20.42892892602811
 31
0.0
  0
LINE
  5
4EA
  8
NOTE
  6
CONTINUOUS
 62
     4
 10
-483.99247451006153
 20
286.12211388671409
 30
0.0
 11
-796.31318251006155
 21
286.12211388671409
 31
0.0
  0
TEXT
  5
4EB
  8
NOTE
  6
CONTINUOUS
 62
     4
 10
-776.2628935100613
 20
316.32240888671379
 30
0.0
 40
64.0
  1
取付金具
 41
0.9
  0
LINE
  5
4EC
  8
NOTE
  6
CONTINUOUS
 62
     4
 10
-249.9999991920613
 20
20.42892892602811
 30
0.0
 11
-262.90448777359961
 21
56.469968676200601
 31
0.0
  0
LINE
  5
4ED
  8
OUTLINE
  6
CONTINUOUS
 62
     3
 10
299.99999999999989
 20
0.0
 30
0.0
 11
299.99999999999989
 21
-189.99999999999989
 31
0.0
  0
LINE
  5
4EE
  8
OUTLINE
  6
CONTINUOUS
 62
     3
 10
-300.0
 20
0.0
 30
0.0
 11
-300.0
 21
-189.99999999999989
 31
0.0
  0
LINE
  5
4EF
  8
OUTLINE
  6
CONTINUOUS
 62
     3
 10
-300.0
 20
-189.99999999999989
 30
0.0
 11
299.99999999999989
 21
-189.99999999999989
 31
0.0
  0
LINE
  5
4F0
  8
OUTLINE
  6
CONTINUOUS
 62
     3
 10
-300.0
 20
0.0
 30
0.0
 11
299.99999999999989
 21
0.0
 31
0.0
  0
CIRCLE
  5
4F1
  8
ARRANGE
  6
CONTINUOUS
 62
     1
 10
-0.0000000000000284
 20
0.0
 30
0.0
 40
40.0
  0
POINT
  5
4F2
  8
ARRANGE
  6
CONTINUOUS
 62
     1
 10
-0.0000000000000284
 20
0.0
 30
0.0
  0
TEXT
  5
57A
  8
NOTE
  6
CONTINUOUS
 62
     4
 10
-646.65476741542
 20
-307.05592879631411
 30
0.0
 40
64.0
  1
排気口半抜き
 41
0.9
  0
LINE
  5
57B
  8
NOTE
  6
CONTINUOUS
 62
     4
 10
-99.373887866240153
 20
-135.9923515270815
 30
0.0
 11
-218.58198168713369
 21
-340.2186931609175
 31
0.0
1001
ACAD
1000
DSTYLE
1002
{
1070
    41
1040
40.0
1070
    42
1040
20.0
1070
    43
1040
200.0
1070
    44
1040
30.0
1070
    73
1070
     0
1070
    74
1070
     0
1070
    77
1070
     0
1070
    78
1070
     8
1070
   140
1040
64.0
1070
   147
1040
20.0
1070
   172
1070
     1
1070
   174
1070
     1
1070
   176
1070
   256
1070
   177
1070
   256
1070
   178
1070
   256
1070
   275
1070
     0
1070
   279
1070
     0
1070
   284
1070
     0
1070
   285
1070
     0
1070
   286
1070
     0
1070
   341
1005
3EA
1070
   342
1005
3E7
1002
}
  0
LINE
  5
57C
  8
NOTE
  6
CONTINUOUS
 62
     4
 10
-218.58198168713369
 20
-340.2186931609175
 30
0.0
 11
-676.52031437904395
 21
-340.2186931609175
 31
0.0
1001
ACAD
1000
DSTYLE
1002
{
1070
    41
1040
40.0
1070
    42
1040
20.0
1070
    43
1040
200.0
1070
    44
1040
30.0
1070
    73
1070
     0
1070
    74
1070
     0
1070
    77
1070
     0
1070
    78
1070
     8
1070
   140
1040
64.0
1070
   147
1040
20.0
1070
   172
1070
     1
1070
   174
1070
     1
1070
   176
1070
   256
1070
   177
1070
   256
1070
   178
1070
   256
1070
   275
1070
     0
1070
   279
1070
     0
1070
   284
1070
     0
1070
   285
1070
     0
1070
   286
1070
     0
1070
   341
1005
3EA
1070
   342
1005
3E7
1002
}
  0
LINE
  5
57D
  8
NOTE
  6
CONTINUOUS
 62
     4
 10
-108.63034134442709
 20
-130.5893062301391
 30
0.0
 11
-79.209448119501843
 21
-101.4467965351559
 31
0.0
  0
LINE
  5
57E
  8
NOTE
  6
CONTINUOUS
 62
     4
 10
-79.209448119501843
 20
-101.4467965351559
 30
0.0
 11
-90.117434388053198
 21
-141.39539682402381
 31
0.0
  0
LINE
  5
57F
  8
NOTE
  6
CONTINUOUS
 62
     4
 10
-79.209448119501843
 20
-101.4467965351559
 30
0.0
 11
-99.373887866240153
 21
-135.9923515270815
 31
0.0
  0
ENDSEC
  0
EOF
