  0
SECTION
  2
HEADER
  9
$ACADVER
  1
AC1009
  9
$DWGCODEPAGE
  3
dos932
  9
$INSBASE
 10
0.0
 20
0.0
 30
0.0
  9
$EXTMIN
 10
-1304.2693934103829
 20
-1041.7327770750651
 30
-0.0015257624927045
  9
$EXTMAX
 10
1141.1224482244829
 20
468.15491510573162
 30
0.0022888765696933
  9
$LIMMIN
 10
-2970.0
 20
-2100.0
  9
$LIMMAX
 10
2970.0
 20
2100.0
  9
$ORTHOMODE
 70
     1
  9
$REGENMODE
 70
     1
  9
$FILLMODE
 70
     1
  9
$QTEXTMODE
 70
     0
  9
$MIRRTEXT
 70
     0
  9
$LTSCALE
 40
20.0
  9
$ATTMODE
 70
     1
  9
$TEXTSIZE
 40
64.0
  9
$TRACEWID
 40
0.05
  9
$TEXTSTYLE
  7
STANDARD
  9
$CLAYER
  8
NOTE
  9
$CELTYPE
  6
CONTINUOUS
  9
$CECOLOR
 62
     7
  9
$DIMSCALE
 40
1.0
  9
$DIMASZ
 40
12.0
  9
$DIMEXO
 40
20.0
  9
$DIMDLI
 40
200.0
  9
$DIMRND
 40
0.0
  9
$DIMDLE
 40
0.0
  9
$DIMEXE
 40
20.0
  9
$DIMTP
 40
0.0
  9
$DIMTM
 40
0.0
  9
$DIMTXT
 40
64.0
  9
$DIMCEN
 40
0.09
  9
$DIMTSZ
 40
0.0
  9
$DIMTOL
 70
     0
  9
$DIMLIM
 70
     0
  9
$DIMTIH
 70
     0
  9
$DIMTOH
 70
     0
  9
$DIMSE1
 70
     0
  9
$DIMSE2
 70
     0
  9
$DIMTAD
 70
     1
  9
$DIMZIN
 70
     8
  9
$DIMBLK
  1

  9
$DIMASO
 70
     1
  9
$DIMSHO
 70
     0
  9
$DIMPOST
  1

  9
$DIMAPOST
  1

  9
$DIMALT
 70
     0
  9
$DIMALTD
 70
     2
  9
$DIMALTF
 40
25.399999999999999
  9
$DIMLFAC
 40
1.0
  9
$DIMTOFL
 70
     1
  9
$DIMTVP
 40
0.0
  9
$DIMTIX
 70
     1
  9
$DIMSOXD
 70
     0
  9
$DIMSAH
 70
     0
  9
$DIMBLK1
  1

  9
$DIMBLK2
  1

  9
$DIMSTYLE
  2
STANDARD
  9
$DIMCLRD
 70
     7
  9
$DIMCLRE
 70
     7
  9
$DIMCLRT
 70
     7
  9
$DIMTFAC
 40
1.0
  9
$DIMGAP
 40
25.0
  9
$LUNITS
 70
     2
  9
$LUPREC
 70
     4
  9
$SKETCHINC
 40
0.1
  9
$FILLETRAD
 40
3.0
  9
$AUNITS
 70
     1
  9
$AUPREC
 70
     3
  9
$MENU
  1
ACAD
  9
$ELEVATION
 40
0.0
  9
$PELEVATION
 40
0.0
  9
$THICKNESS
 40
50.0
  9
$LIMCHECK
 70
     0
  9
$CHAMFERA
 40
0.0
  9
$CHAMFERB
 40
0.0
  9
$SKPOLY
 70
     0
  9
$TDCREATE
 40
2453019.62301037
  9
$TDUPDATE
 40
2458887.738241088
  9
$TDINDWG
 40
1.7072413889
  9
$TDUSRTIMER
 40
1.7072413889
  9
$USRTIMER
 70
     1
  9
$ANGBASE
 50
0.0
  9
$ANGDIR
 70
     0
  9
$PDMODE
 70
     3
  9
$PDSIZE
 40
-2.0
  9
$PLINEWID
 40
0.0
  9
$SPLFRAME
 70
     0
  9
$SPLINETYPE
 70
     6
  9
$SPLINESEGS
 70
     8
  9
$SURFTAB1
 70
     6
  9
$SURFTAB2
 70
     6
  9
$SURFTYPE
 70
     6
  9
$SURFU
 70
     6
  9
$SURFV
 70
     6
  9
$UCSNAME
  2

  9
$UCSORG
 10
0.0
 20
0.0
 30
0.0
  9
$UCSXDIR
 10
1.0
 20
0.0
 30
0.0
  9
$UCSYDIR
 10
0.0
 20
1.0
 30
0.0
  9
$PUCSNAME
  2

  9
$PUCSORG
 10
0.0
 20
0.0
 30
0.0
  9
$PUCSXDIR
 10
1.0
 20
0.0
 30
0.0
  9
$PUCSYDIR
 10
0.0
 20
1.0
 30
0.0
  9
$USERI1
 70
     0
  9
$USERI2
 70
     0
  9
$USERI3
 70
     0
  9
$USERI4
 70
     0
  9
$USERI5
 70
     0
  9
$USERR1
 40
20.0
  9
$USERR2
 40
0.0
  9
$USERR3
 40
0.0
  9
$USERR4
 40
0.0
  9
$USERR5
 40
0.0
  9
$WORLDVIEW
 70
     1
  9
$SHADEDGE
 70
     3
  9
$SHADEDIF
 70
    70
  9
$TILEMODE
 70
     1
  9
$MAXACTVP
 70
    48
  9
$PINSBASE
 10
0.0
 20
0.0
 30
0.0
  9
$PLIMCHECK
 70
     0
  9
$PEXTMIN
 10
-100000000000000000000.0
 20
-100000000000000000000.0
 30
-100000000000000000000.0
  9
$PEXTMAX
 10
100000000000000000000.0
 20
100000000000000000000.0
 30
100000000000000000000.0
  9
$PLIMMIN
 10
0.0
 20
0.0
  9
$PLIMMAX
 10
12.0
 20
9.0
  9
$UNITMODE
 70
     0
  9
$VISRETAIN
 70
     0
  9
$PLINEGEN
 70
     0
  9
$PSLTSCALE
 70
     0
  9
$TREEDEPTH
 70
  3020
  9
$ATTDIA
 70
     0
  9
$ATTREQ
 70
     1
  9
$BLIPMODE
 70
     1
  9
$COORDS
 70
     1
  9
$DRAGMODE
 70
     2
  9
$OSMODE
 70
     0
  9
$HANDLING
 70
     0
  9
$HANDSEED
  5
E68F
  0
ENDSEC
  0
SECTION
  2
TABLES
  0
TABLE
  2
LTYPE
 70
     3
  0
LTYPE
  2
CONTINUOUS
 70
     0
  3
実線
 72
    65
 73
     0
 40
0.0
  0
LTYPE
  2
DASHDOT
 70
     0
  3
____ _ ____ _ ____ _ ____ _ ____ _ ____ _ ____
 72
    65
 73
     4
 40
5.5
 49
4.0
 49
-0.6
 49
0.3
 49
-0.6
  0
LTYPE
  2
DIVIDE
 70
     0
  3
Divide ____ . . ____ . . ____ . . ____ . . ____
 72
    65
 73
     6
 40
1.25
 49
0.5
 49
-0.25
 49
0.0
 49
-0.25
 49
0.0
 49
-0.25
  0
ENDTAB
  0
TABLE
  2
LAYER
 70
    12
  0
LAYER
  2
0
 70
     0
 62
     7
  6
CONTINUOUS
  0
LAYER
  2
BASIS
 70
     0
 62
     6
  6
DASHDOT
  0
LAYER
  2
OUTLINE
 70
     0
 62
     3
  6
CONTINUOUS
  0
LAYER
  2
DETAIL
 70
     0
 62
     5
  6
CONTINUOUS
  0
LAYER
  2
SIZE
 70
     0
 62
    30
  6
CONTINUOUS
  0
LAYER
  2
ARRANGE
 70
     0
 62
     1
  6
CONTINUOUS
  0
LAYER
  2
ETC
 70
     0
 62
    61
  6
CONTINUOUS
  0
LAYER
  2
FIX
 70
     0
 62
    11
  6
CONTINUOUS
  0
LAYER
  2
NOTE
 70
     0
 62
     4
  6
CONTINUOUS
  0
LAYER
  2
DEFPOINTS
 70
    64
 62
     7
  6
CONTINUOUS
  0
LAYER
  2
SERVICESPACE
 70
    64
 62
     2
  6
DASHDOT
  0
LAYER
  2
SYMBOLLINE
 70
    64
 62
    15
  6
CONTINUOUS
  0
ENDTAB
  0
TABLE
  2
STYLE
 70
     1
  0
STYLE
  2
STANDARD
 70
     0
 40
64.0
 41
0.9
 50
0.0
 71
     0
 42
64.0
  3
SIMPLEX.shx
  4
BIGFONT.shx
  0
ENDTAB
  0
TABLE
  2
APPID
 70
    16
  0
APPID
  2
ACAD
 70
     0
  0
APPID
  2
AUTOCAD_POSTSCRIPT_FIGURE
 70
     0
  0
APPID
  2
ACAD_EXEMPT_FROM_CAD_STANDARDS
 70
     0
  0
APPID
  2
ACAD_PSEXT
 70
     0
  0
APPID
  2
ACAUTHENVIRON
 70
     0
  0
APPID
  2
GENIUS_GENOENT_13
 70
     0
  0
APPID
  2
GENIUS_GENCFG_13
 70
     0
  0
APPID
  2
GENIUS_GENCFG0_13
 70
     0
  0
APPID
  2
GENIUS_GENCFG1_13
 70
     0
  0
APPID
  2
GENIUS_GENCFG2_13
 70
     0
  0
APPID
  2
GENIUS_GENCFG3_13
 70
     0
  0
APPID
  2
GENIUS_GENCFG4_13
 70
     0
  0
APPID
  2
GENIUS_GEVCFG0_13
 70
     0
  0
APPID
  2
CONTENTBLOCKICON
 70
     0
  0
APPID
  2
CONTENTBLOCKDESCRIPTION
 70
     0
  0
APPID
  2
ACAD_NAV_VCDISPLAY
 70
     0
  0
ENDTAB
  0
TABLE
  2
DIMSTYLE
 70
     1
  0
DIMSTYLE
  2
STANDARD
 70
     0
  3

  4

  5
_ORIGIN
  6

  7

 40
1.0
 41
12.0
 42
20.0
 43
200.0
 44
20.0
 45
0.0
 46
0.0
 47
0.0
 48
0.0
140
64.0
141
0.09
142
0.0
143
25.399999999999999
144
1.0
145
0.0
146
1.0
147
25.0
 71
     0
 72
     0
 73
     0
 74
     0
 75
     0
 76
     0
 77
     1
 78
     8
170
     0
171
     2
172
     1
173
     0
174
     1
175
     0
176
     7
177
     7
178
     7
  0
ENDTAB
  0
TABLE
  2
VIEW
 70
     1
  0
VIEW
  2
ALL
 70
     0
 40
4282.6198079999986
 10
0.0
 20
41.309904000000003
 41
5940.0
 11
0.0
 21
0.0
 31
1.0
 12
0.0
 22
0.0
 32
0.0
 42
50.0
 43
0.0
 44
0.0
 50
0.0
 71
     0
  0
ENDTAB
  0
TABLE
  2
UCS
 70
     0
  0
ENDTAB
  0
TABLE
  2
VPORT
 70
     1
  0
VPORT
  2
*ACTIVE
 70
     0
 10
0.0
 20
0.0
 11
1.0
 21
1.0
 12
-81.573472592949713
 22
-286.78893098466688
 13
0.0
 23
0.0
 14
1.0
 24
1.0
 15
0.0
 25
0.0
 16
0.0
 26
0.0
 36
1.0
 17
0.0
 27
0.0
 37
0.0
 40
1520.698343914788
 41
1.7980884109916371
 42
50.0
 43
0.0
 44
0.0
 50
0.0
 51
0.0
 71
     0
 72
  1000
 73
     1
 74
     3
 75
     0
 76
     0
 77
     0
 78
     0
  0
ENDTAB
  0
ENDSEC
  0
SECTION
  2
BLOCKS
  0
BLOCK
  8
0
  2
_ORIGIN
 70
     0
 10
0.0
 20
0.0
 30
0.0
  3
_ORIGIN
  1
_ORIGIN
  0
CIRCLE
  8
0
  6
CONTINUOUS
 62
     7
 10
0.0
 20
0.0
 30
0.0
 40
0.5
  0
LINE
  8
0
  6
CONTINUOUS
 62
     7
 10
0.0
 20
0.0
 30
0.0
 11
-1.0
 21
0.0
 31
0.0
  0
ENDBLK
  8
0
  0
ENDSEC
  0
SECTION
  2
ENTITIES
  0
LINE
  8
SIZE
  6
CONTINUOUS
 62
    30
 10
-688.83153399999981
 20
-2.0
 30
0.0
 11
-688.83153399999981
 21
110.57399980678569
 31
0.0
  0
LINE
  8
NOTE
  6
CONTINUOUS
 62
     4
 10
332.71181219187451
 20
249.39454699219129
 30
0.0
 11
494.94159819187439
 21
249.39454699219129
 31
0.0
  0
LINE
  8
BASIS
  6
DASHDOT
 62
     6
 10
0.0000000000002274
 20
89.843853999999965
 30
0.0
 11
0.0000000000002274
 21
-646.74659899999983
 31
0.0
  0
LINE
  8
DETAIL
  6
CONTINUOUS
 62
     5
 10
-299.99999999999972
 20
0.0
 30
0.0
 11
-299.99999999999972
 21
-550.0
 31
0.0
  0
LINE
  8
DETAIL
  6
CONTINUOUS
 62
     5
 10
300.00000000000023
 20
0.0
 30
0.0
 11
300.00000000000023
 21
-550.0
 31
0.0
  0
LINE
  8
DETAIL
  6
CONTINUOUS
 62
     5
 10
-269.99999999999972
 20
-580.0
 30
0.0
 11
270.0
 21
-580.0
 31
0.0
  0
TEXT
  8
NOTE
  6
CONTINUOUS
 62
     4
 10
379.56907519187439
 20
275.05783999219148
 30
0.0
 40
64.0
  1
EL
 41
0.9
  0
CIRCLE
  8
DETAIL
  6
CONTINUOUS
 62
     5
 10
125.0000000000001
 20
-15.0
 30
0.0
 40
5.0
  0
CIRCLE
  8
DETAIL
  6
CONTINUOUS
 62
     5
 10
-124.9999999999998
 20
-15.0
 30
0.0
 40
5.0
  0
CIRCLE
  8
DETAIL
  6
CONTINUOUS
 62
     5
 10
125.0000000000001
 20
-351.0
 30
0.0
 40
5.0
  0
CIRCLE
  8
DETAIL
  6
CONTINUOUS
 62
     5
 10
-124.9999999999998
 20
-351.0
 30
0.0
 40
5.0
  0
CIRCLE
  8
FIX
  6
CONTINUOUS
 62
    11
 10
125.0000000000001
 20
-15.0
 30
0.0
 40
5.0
  0
CIRCLE
  8
FIX
  6
CONTINUOUS
 62
    11
 10
125.0000000000001
 20
-351.0
 30
0.0
 40
5.0
  0
CIRCLE
  8
FIX
  6
CONTINUOUS
 62
    11
 10
-124.9999999999998
 20
-351.0
 30
0.0
 40
5.0
  0
CIRCLE
  8
FIX
  6
CONTINUOUS
 62
    11
 10
-124.9999999999998
 20
-15.0
 30
0.0
 40
5.0
  0
LINE
  8
NOTE
  6
CONTINUOUS
 62
     4
 10
125.0000000000001
 20
-351.0
 30
0.0
 11
418.07423899999998
 21
-584.69604899999979
 31
0.0
  0
LINE
  8
NOTE
  6
CONTINUOUS
 62
     4
 10
418.07423899999998
 20
-584.69604899999979
 30
0.0
 11
876.99311900000021
 21
-584.69604899999979
 31
0.0
  0
TEXT
  8
NOTE
  6
CONTINUOUS
 62
     4
 10
433.94376500000021
 20
-559.62728200000004
 30
0.0
 40
64.0
  1
AH 4-φ10
 41
0.9
  0
LINE
  8
NOTE
  6
CONTINUOUS
 62
     4
 10
0.0000564747583667
 20
-235.0001007942129
 30
0.0
 11
332.71181219187451
 21
249.39454699219129
 31
0.0
  0
LINE
  8
DETAIL
  6
CONTINUOUS
 62
     5
 10
-299.99999999999972
 20
-485.0
 30
0.0
 11
300.00000000000023
 21
-485.0
 31
0.0
  0
LINE
  8
SIZE
  6
CONTINUOUS
 62
    30
 10
-319.99999999999972
 20
-485.0
 30
0.0
 11
-718.83153399999958
 21
-485.0
 31
0.0
  0
LINE
  8
SIZE
  6
CONTINUOUS
 62
    30
 10
-319.99999999999972
 20
-580.0
 30
0.0
 11
-718.83153399999958
 21
-580.0
 31
0.0
  0
LINE
  8
SIZE
  6
CONTINUOUS
 62
    30
 10
-1077.253700999999
 20
-487.0
 30
0.0
 11
-1077.253700999999
 21
-532.5
 31
0.0
  0
LINE
  8
SIZE
  6
CONTINUOUS
 62
    30
 10
-1077.253700999999
 20
-580.0
 30
0.0
 11
-1077.253700999999
 21
-532.5
 31
0.0
  0
TEXT
  8
SIZE
  6
CONTINUOUS
 62
    30
 10
-1109.253700999999
 20
-579.12857099999985
 30
0.0
 40
64.0
  1
95
 50
90.0
 41
0.9
  0
LINE
  8
SIZE
  6
CONTINUOUS
 62
    30
 10
-319.99999999999972
 20
0.0
 30
0.0
 11
-718.83153399999958
 21
0.0
 31
0.0
  0
LINE
  8
SIZE
  6
CONTINUOUS
 62
    30
 10
-319.99999999999972
 20
-485.0
 30
0.0
 11
-1101.7488183538869
 21
-485.0
 31
0.0
  0
LINE
  8
SIZE
  6
CONTINUOUS
 62
    30
 10
-1077.253700999999
 20
0.0
 30
0.0
 11
-1077.253700999999
 21
-242.5
 31
0.0
  0
LINE
  8
SIZE
  6
CONTINUOUS
 62
    30
 10
-1077.253700999999
 20
-487.0
 30
0.0
 11
-1077.253700999999
 21
-242.5
 31
0.0
  0
TEXT
  8
SIZE
  6
CONTINUOUS
 62
    30
 10
-1109.253700999999
 20
-316.55714299999988
 30
0.0
 40
64.0
  1
485
 50
90.0
 41
0.9
  0
LINE
  8
SIZE
  6
CONTINUOUS
 62
    30
 10
-319.99999999999972
 20
0.0
 30
0.0
 11
-589.74681299999975
 21
0.0
 31
0.0
  0
LINE
  8
SIZE
  6
CONTINUOUS
 62
    30
 10
-39.999999999999773
 20
-427.0
 30
0.0
 11
-975.85160320731939
 21
-427.0
 31
0.0
  0
LINE
  8
SIZE
  6
CONTINUOUS
 62
    30
 10
-948.16897999999981
 20
0.0
 30
0.0
 11
-948.16897999999981
 21
-213.4999999999998
 31
0.0
  0
LINE
  8
SIZE
  6
CONTINUOUS
 62
    30
 10
-948.16898000000003
 20
-427.0
 30
0.0
 11
-948.16897999999981
 21
-213.4999999999998
 31
0.0
  0
TEXT
  8
SIZE
  6
CONTINUOUS
 62
    30
 10
-980.16897999999924
 20
-287.55714299999983
 30
0.0
 40
64.0
  1
427
 50
90.0
 41
0.9
  0
LINE
  8
SIZE
  6
CONTINUOUS
 62
    30
 10
-319.99999999999972
 20
-580.0
 30
0.0
 11
-1232.396868611751
 21
-580.0
 31
0.0
  0
LINE
  8
SIZE
  6
CONTINUOUS
 62
    30
 10
-319.99999999999972
 20
0.0
 30
0.0
 11
-1235.9599949452249
 21
0.0
 31
0.0
  0
LINE
  8
SIZE
  6
CONTINUOUS
 62
    30
 10
-1207.972753999999
 20
-580.0
 30
0.0
 11
-1207.972753999999
 21
-290.0
 31
0.0
  0
LINE
  8
SIZE
  6
CONTINUOUS
 62
    30
 10
-1207.972753999999
 20
0.0
 30
0.0
 11
-1207.972753999999
 21
-290.0
 31
0.0
  0
TEXT
  8
SIZE
  6
CONTINUOUS
 62
    30
 10
-1239.972753999999
 20
-364.05714299999988
 30
0.0
 40
64.0
  1
580
 50
90.0
 41
0.9
  0
LINE
  8
SIZE
  6
CONTINUOUS
 62
    30
 10
-319.99999999999972
 20
0.0
 30
0.0
 11
-459.49408799999992
 21
0.0
 31
0.0
  0
LINE
  8
SIZE
  6
CONTINUOUS
 62
    30
 10
-164.99999999999969
 20
-15.0
 30
0.0
 11
-459.49408799999992
 21
-15.0
 31
0.0
  0
LINE
  8
SIZE
  6
CONTINUOUS
 62
    30
 10
-688.83153399999981
 20
-17.0
 30
0.0
 11
-688.83153399999981
 21
-19.0
 31
0.0
  0
LINE
  8
SIZE
  6
CONTINUOUS
 62
    30
 10
-688.83153399999981
 20
2.0
 30
0.0
 11
-688.83153399999981
 21
4.0
 31
0.0
  0
LINE
  8
SIZE
  6
CONTINUOUS
 62
    30
 10
-688.83153399999981
 20
-15.0
 30
0.0
 11
-688.83153399999981
 21
0.0
 31
0.0
  0
TEXT
  8
SIZE
  6
CONTINUOUS
 62
    30
 10
-720.83153399999981
 20
26.65648299999998
 30
0.0
 40
64.0
  1
15
 50
90.0
 41
0.9
  0
LINE
  8
SIZE
  6
CONTINUOUS
 62
    30
 10
-164.99999999999969
 20
-15.0
 30
0.0
 11
-718.87868267712713
 21
-15.0
 31
0.0
  0
LINE
  8
SIZE
  6
CONTINUOUS
 62
    30
 10
-164.99999999999969
 20
-351.0
 30
0.0
 11
-717.17429423921055
 21
-351.0
 31
0.0
  0
LINE
  8
SIZE
  6
CONTINUOUS
 62
    30
 10
-688.83153399999981
 20
-17.0
 30
0.0
 11
-688.83153399999981
 21
-183.0
 31
0.0
  0
LINE
  8
SIZE
  6
CONTINUOUS
 62
    30
 10
-688.83153399999981
 20
-351.0
 30
0.0
 11
-688.83153399999981
 21
-183.0
 31
0.0
  0
TEXT
  8
SIZE
  6
CONTINUOUS
 62
    30
 10
-720.83153399999981
 20
-255.68571399999971
 30
0.0
 40
64.0
  1
336
 50
90.0
 41
0.9
  0
LINE
  8
SIZE
  6
CONTINUOUS
 62
    30
 10
-124.9999999999998
 20
-391.0
 30
0.0
 11
-124.9999999999998
 21
-770.05378499999983
 31
0.0
  0
LINE
  8
SIZE
  6
CONTINUOUS
 62
    30
 10
0.0000000000002274
 20
-666.74659900000017
 30
0.0
 11
0.0000000000002274
 21
-770.05378499999983
 31
0.0
  0
LINE
  8
SIZE
  6
CONTINUOUS
 62
    30
 10
-188.34020971197421
 20
-740.05378499999983
 30
0.0
 11
-62.499999999999773
 21
-740.05378499999983
 31
0.0
  0
LINE
  8
SIZE
  6
CONTINUOUS
 62
    30
 10
-1.9999999999997731
 20
-740.05378499999983
 30
0.0
 11
-62.499999999999773
 21
-740.05378499999983
 31
0.0
  0
TEXT
  8
SIZE
  6
CONTINUOUS
 62
    30
 10
-183.58937460067679
 20
-708.05378499999983
 30
0.0
 40
64.0
  1
125
 41
0.9
  0
LINE
  8
SIZE
  6
CONTINUOUS
 62
    30
 10
0.0000000000002274
 20
-666.74659900000017
 30
0.0
 11
0.0000000000002274
 21
-770.05378499999983
 31
0.0
  0
LINE
  8
SIZE
  6
CONTINUOUS
 62
    30
 10
125.0000000000001
 20
-391.0
 30
0.0
 11
125.0000000000001
 21
-770.05378499999983
 31
0.0
  0
LINE
  8
SIZE
  6
CONTINUOUS
 62
    30
 10
2.0000000000002269
 20
-740.05378499999983
 30
0.0
 11
62.500000000000107
 21
-740.05378499999983
 31
0.0
  0
LINE
  8
SIZE
  6
CONTINUOUS
 62
    30
 10
195.28997961685121
 20
-740.05378499999983
 30
0.0
 11
62.500000000000107
 21
-740.05378499999983
 31
0.0
  0
TEXT
  8
SIZE
  6
CONTINUOUS
 62
    30
 10
43.263158327811652
 20
-708.05378499999983
 30
0.0
 40
64.0
  1
125
 41
0.9
  0
LINE
  8
SIZE
  6
CONTINUOUS
 62
    30
 10
-299.99999999999972
 20
-600.0
 30
0.0
 11
-299.99999999999972
 21
-1040.230708408387
 31
0.0
  0
LINE
  8
SIZE
  6
CONTINUOUS
 62
    30
 10
300.00000000000023
 20
-600.0
 30
0.0
 11
300.00000000000023
 21
-1041.4179208875451
 31
0.0
  0
LINE
  8
SIZE
  6
CONTINUOUS
 62
    30
 10
-299.99999999999972
 20
-1016.486467549012
 30
0.0
 11
300.00000000000023
 21
-1016.486467549012
 31
0.0
  0
TEXT
  8
SIZE
  6
CONTINUOUS
 62
    30
 10
-74.057141999999772
 20
-984.48646754901245
 30
0.0
 40
64.0
  1
600
 41
0.9
  0
CIRCLE
  8
SIZE
  6
CONTINUOUS
 62
    30
 10
300.00000000000023
 20
-1016.486467549012
 30
0.0
 40
6.0
  0
CIRCLE
  8
SIZE
  6
CONTINUOUS
 62
    30
 10
-299.99999999999972
 20
-1016.486467549012
 30
0.0
 40
6.0
  0
CIRCLE
  8
SIZE
  6
CONTINUOUS
 62
    30
 10
125.0000000000001
 20
-740.05378499999983
 30
0.0
 40
6.0
  0
CIRCLE
  8
SIZE
  6
CONTINUOUS
 62
    30
 10
0.0000000000002274
 20
-740.05378499999983
 30
0.0
 40
6.0
  0
CIRCLE
  8
SIZE
  6
CONTINUOUS
 62
    30
 10
0.0000000000002274
 20
-740.05378499999983
 30
0.0
 40
6.0
  0
CIRCLE
  8
SIZE
  6
CONTINUOUS
 62
    30
 10
-124.9999999999998
 20
-740.05378499999983
 30
0.0
 40
6.0
  0
CIRCLE
  8
SIZE
  6
CONTINUOUS
 62
    30
 10
-688.83153399999981
 20
-351.0
 30
0.0
 40
6.0
  0
CIRCLE
  8
SIZE
  6
CONTINUOUS
 62
    30
 10
-688.83153399999981
 20
-15.0
 30
0.0
 40
6.0
  0
CIRCLE
  8
SIZE
  6
CONTINUOUS
 62
    30
 10
-688.83153399999981
 20
0.0
 30
0.0
 40
6.0
  0
CIRCLE
  8
SIZE
  6
CONTINUOUS
 62
    30
 10
-688.83153399999981
 20
-15.0
 30
0.0
 40
6.0
  0
CIRCLE
  8
SIZE
  6
CONTINUOUS
 62
    30
 10
-1207.972753999999
 20
0.0
 30
0.0
 40
6.0
  0
CIRCLE
  8
SIZE
  6
CONTINUOUS
 62
    30
 10
-1207.972753999999
 20
-580.0
 30
0.0
 40
6.0
  0
CIRCLE
  8
SIZE
  6
CONTINUOUS
 62
    30
 10
-948.16897999999981
 20
-427.0
 30
0.0
 40
6.0
  0
CIRCLE
  8
SIZE
  6
CONTINUOUS
 62
    30
 10
-948.16897999999981
 20
0.0
 30
0.0
 40
6.0
  0
CIRCLE
  8
SIZE
  6
CONTINUOUS
 62
    30
 10
-1077.253700999999
 20
-485.0
 30
0.0
 40
6.0
  0
CIRCLE
  8
SIZE
  6
CONTINUOUS
 62
    30
 10
-1077.253700999999
 20
0.0
 30
0.0
 40
6.0
  0
CIRCLE
  8
SIZE
  6
CONTINUOUS
 62
    30
 10
-1077.253700999999
 20
-580.0
 30
0.0
 40
6.0
  0
CIRCLE
  8
SIZE
  6
CONTINUOUS
 62
    30
 10
-1077.253700999999
 20
-485.0
 30
0.0
 40
6.0
  0
LINE
  8
NOTE
  6
CONTINUOUS
 62
     4
 10
125.0000000000001
 20
-35.0
 30
0.0
 11
125.0000000000001
 21
5.0
 31
0.0
  0
LINE
  8
NOTE
  6
CONTINUOUS
 62
     4
 10
105.0000000000001
 20
-15.0
 30
0.0
 11
145.0
 21
-15.0
 31
0.0
  0
LINE
  8
NOTE
  6
CONTINUOUS
 62
     4
 10
-124.9999999999998
 20
-35.0
 30
0.0
 11
-124.9999999999998
 21
5.0
 31
0.0
  0
LINE
  8
NOTE
  6
CONTINUOUS
 62
     4
 10
-144.99999999999969
 20
-15.0
 30
0.0
 11
-104.9999999999997
 21
-15.0
 31
0.0
  0
LINE
  8
NOTE
  6
CONTINUOUS
 62
     4
 10
0.0000000000002274
 20
-447.0
 30
0.0
 11
0.0000000000002274
 21
-407.0
 31
0.0
  0
LINE
  8
NOTE
  6
CONTINUOUS
 62
     4
 10
-19.999999999999769
 20
-427.0
 30
0.0
 11
20.00000000000011
 21
-427.0
 31
0.0
  0
LINE
  8
NOTE
  6
CONTINUOUS
 62
     4
 10
125.0000000000001
 20
-371.0
 30
0.0
 11
125.0000000000001
 21
-331.0
 31
0.0
  0
LINE
  8
NOTE
  6
CONTINUOUS
 62
     4
 10
105.0000000000001
 20
-351.0
 30
0.0
 11
145.0
 21
-351.0
 31
0.0
  0
LINE
  8
NOTE
  6
CONTINUOUS
 62
     4
 10
-124.9999999999998
 20
-371.0
 30
0.0
 11
-124.9999999999998
 21
-331.0
 31
0.0
  0
LINE
  8
NOTE
  6
CONTINUOUS
 62
     4
 10
-144.99999999999969
 20
-351.0
 30
0.0
 11
-104.9999999999997
 21
-351.0
 31
0.0
  0
LINE
  8
NOTE
  6
CONTINUOUS
 62
     4
 10
0.0000280000001567
 20
-255.0
 30
0.0
 11
0.0000280000001567
 21
-215.0
 31
0.0
  0
LINE
  8
NOTE
  6
CONTINUOUS
 62
     4
 10
-19.99997199999984
 20
-235.0
 30
0.0
 11
20.000027999999929
 21
-235.0
 31
0.0
  0
LINE
  8
NOTE
  6
CONTINUOUS
 62
     4
 10
161.68882500000021
 20
-366.93518499999988
 30
0.0
 11
125.0000000000001
 21
-351.0
 31
0.0
  0
LINE
  8
NOTE
  6
CONTINUOUS
 62
     4
 10
125.0000000000001
 20
-351.0
 30
0.0
 11
148.80586199999991
 21
-383.14468699999992
 31
0.0
  0
LINE
  8
NOTE
  6
CONTINUOUS
 62
     4
 10
13.70842586788126
 20
-197.422422553731
 30
0.0
 11
0.0000656094939586
 21
-235.00008750675241
 31
0.0
  0
LINE
  8
NOTE
  6
CONTINUOUS
 62
     4
 10
0.0000656094939586
 20
-235.00008750675241
 30
0.0
 11
30.660685765661128
 21
-209.311055748348
 31
0.0
  0
TEXT
  8
ETC
  6
CONTINUOUS
 62
    61
 10
548.63284184562599
 20
404.14500875771972
 30
0.0
 40
64.0
  1
V-316KSW6_1
 41
0.9
  0
TEXT
  8
ETC
  6
CONTINUOUS
 62
    61
 10
682.83148155040089
 20
222.36661984726581
 30
0.0
 40
50.0
  1
V-316KSW6
 41
0.9
  0
TEXT
  8
ETC
  6
CONTINUOUS
 62
    61
 10
556.73740284562564
 20
298.79275175771949
 30
0.0
 40
64.0
  1
換気扇
 41
0.9
  0
LINE
  8
DETAIL
  6
CONTINUOUS
 62
     5
 10
-39.999999999999773
 20
-275.0
 30
0.0
 11
40.000000000000107
 21
-275.0
 31
0.0
  0
LINE
  8
DETAIL
  6
CONTINUOUS
 62
     5
 10
-39.999999999999773
 20
-195.0
 30
0.0
 11
40.000000000000107
 21
-195.0
 31
0.0
  0
LINE
  8
DETAIL
  6
CONTINUOUS
 62
     5
 10
-49.999999999999773
 20
-205.0
 30
0.0
 11
-49.999999999999773
 21
-265.0
 31
0.0
  0
LINE
  8
DETAIL
  6
CONTINUOUS
 62
     5
 10
50.000000000000107
 20
-205.0
 30
0.0
 11
50.000000000000107
 21
-265.0
 31
0.0
  0
ARC
  8
DETAIL
  6
CONTINUOUS
 62
     5
 10
-39.999999999999773
 20
-205.0
 30
0.0
 40
10.0
 50
90.0
 51
180.0
  0
ARC
  8
DETAIL
  6
CONTINUOUS
 62
     5
 10
40.000000000000107
 20
-205.0
 30
0.0
 40
10.0
 50
0.0
 51
90.0
  0
ARC
  8
DETAIL
  6
CONTINUOUS
 62
     5
 10
40.000000000000107
 20
-265.0
 30
0.0
 40
10.0
 50
270.0
 51
0.0
  0
ARC
  8
DETAIL
  6
CONTINUOUS
 62
     5
 10
-39.999999999999773
 20
-265.0
 30
0.0
 40
10.0
 50
180.0
 51
270.0
  0
ARC
  8
DETAIL
  6
CONTINUOUS
 62
     5
 10
-269.99999999999972
 20
-550.0
 30
0.0
 40
30.0
 50
180.0
 51
270.0
  0
ARC
  8
DETAIL
  6
CONTINUOUS
 62
     5
 10
270.0
 20
-550.0
 30
0.0
 40
30.0
 50
270.0
 51
0.0
  0
LINE
  8
NOTE
  6
CONTINUOUS
 62
     4
 10
-249.99999999999949
 20
0.0
 30
0.0
 11
-676.49008103828601
 21
176.6844505383142
 31
0.0
  0
LINE
  8
NOTE
  6
CONTINUOUS
 62
     4
 10
-676.49008103828601
 20
176.6844505383142
 30
0.0
 11
-988.81078903828563
 21
176.6844505383142
 31
0.0
  0
TEXT
  8
NOTE
  6
CONTINUOUS
 62
     4
 10
-968.76050003828573
 20
206.88474553831409
 30
0.0
 40
64.0
  1
取付金具
 41
0.9
  0
LINE
  8
SIZE
  6
CONTINUOUS
 62
    30
 10
250.0000000000002
 20
341.83597984429491
 30
0.0
 11
0.0000000000002274
 21
341.83597984429491
 31
0.0
  0
LINE
  8
DETAIL
  6
CONTINUOUS
 62
     5
 10
-299.99999999999972
 20
0.0
 30
0.0
 11
300.00000000000023
 21
0.0
 31
0.0
  0
LINE
  8
SIZE
  6
CONTINUOUS
 62
    30
 10
-249.99999999999949
 20
40.0
 30
0.0
 11
-249.99999999999949
 21
374.6767396036671
 31
0.0
  0
CIRCLE
  8
FIX
  6
CONTINUOUS
 62
    11
 10
-249.99999999999949
 20
0.0
 30
0.0
 40
6.5
  0
LINE
  8
NOTE
  6
CONTINUOUS
 62
     4
 10
-249.99999999999949
 20
-20.0
 30
0.0
 11
-249.99999999999949
 21
20.0
 31
0.0
  0
LINE
  8
NOTE
  6
CONTINUOUS
 62
     4
 10
-296.32289292706531
 20
6.9131270852158204
 30
0.0
 11
-249.99999999999949
 21
0.0
 31
0.0
  0
LINE
  8
NOTE
  6
CONTINUOUS
 62
     4
 10
-269.99999999999972
 20
0.0
 30
0.0
 11
-229.99999999999949
 21
0.0
 31
0.0
  0
LINE
  8
DETAIL
  6
CONTINUOUS
 62
     5
 10
-262.49999999999972
 20
6.0
 30
0.0
 11
-259.49999999999972
 21
6.0
 31
0.0
  0
LINE
  8
DETAIL
  6
CONTINUOUS
 62
     5
 10
-262.49999999999972
 20
0.0
 30
0.0
 11
-262.49999999999972
 21
6.0
 31
0.0
  0
LINE
  8
DETAIL
  6
CONTINUOUS
 62
     5
 10
-240.49999999999969
 20
0.0
 30
0.0
 11
-240.49999999999969
 21
6.0
 31
0.0
  0
LINE
  8
DETAIL
  6
CONTINUOUS
 62
     5
 10
-237.49999999999949
 20
0.0
 30
0.0
 11
-237.49999999999949
 21
6.0
 31
0.0
  0
LINE
  8
DETAIL
  6
CONTINUOUS
 62
     5
 10
-240.49999999999969
 20
6.0
 30
0.0
 11
-237.49999999999949
 21
6.0
 31
0.0
  0
LINE
  8
DETAIL
  6
CONTINUOUS
 62
     5
 10
-259.49999999999972
 20
0.0
 30
0.0
 11
-259.49999999999972
 21
6.0
 31
0.0
  0
LINE
  8
NOTE
  6
CONTINUOUS
 62
     4
 10
-249.99999999999949
 20
0.0
 30
0.0
 11
-288.00892496712731
 21
30.657367944590991
 31
0.0
  0
LINE
  8
SIZE
  6
CONTINUOUS
 62
    30
 10
-249.99999999999949
 20
341.83597984429491
 30
0.0
 11
0.0000000000002274
 21
341.83597984429491
 31
0.0
  0
CIRCLE
  8
SIZE
  6
CONTINUOUS
 62
    30
 10
-249.99999999999949
 20
341.83597984429491
 30
0.0
 40
6.0
  0
TEXT
  8
SIZE
  6
CONTINUOUS
 62
    30
 10
-74.057142999999769
 20
373.83597984429503
 30
0.0
 40
64.0
  1
500
 41
0.9
  0
LINE
  8
SIZE
  6
CONTINUOUS
 62
    30
 10
250.0000000000002
 20
40.0
 30
0.0
 11
250.0000000000002
 21
374.6767396036671
 31
0.0
  0
CIRCLE
  8
FIX
  6
CONTINUOUS
 62
    11
 10
250.0000000000002
 20
0.0
 30
0.0
 40
6.5
  0
LINE
  8
NOTE
  6
CONTINUOUS
 62
     4
 10
250.0000000000002
 20
-20.0
 30
0.0
 11
250.0000000000002
 21
20.0
 31
0.0
  0
LINE
  8
NOTE
  6
CONTINUOUS
 62
     4
 10
270.0
 20
0.0
 30
0.0
 11
230.0
 21
0.0
 31
0.0
  0
LINE
  8
DETAIL
  6
CONTINUOUS
 62
     5
 10
237.5000000000002
 20
0.0
 30
0.0
 11
237.5000000000002
 21
6.0
 31
0.0
  0
LINE
  8
DETAIL
  6
CONTINUOUS
 62
     5
 10
240.50000000000011
 20
0.0
 30
0.0
 11
240.50000000000011
 21
6.0
 31
0.0
  0
LINE
  8
DETAIL
  6
CONTINUOUS
 62
     5
 10
240.50000000000011
 20
6.0
 30
0.0
 11
237.5000000000002
 21
6.0
 31
0.0
  0
LINE
  8
DETAIL
  6
CONTINUOUS
 62
     5
 10
262.50000000000023
 20
6.0
 30
0.0
 11
259.5
 21
6.0
 31
0.0
  0
LINE
  8
DETAIL
  6
CONTINUOUS
 62
     5
 10
259.5
 20
0.0
 30
0.0
 11
259.5
 21
6.0
 31
0.0
  0
LINE
  8
DETAIL
  6
CONTINUOUS
 62
     5
 10
262.50000000000023
 20
0.0
 30
0.0
 11
262.50000000000023
 21
6.0
 31
0.0
  0
CIRCLE
  8
SIZE
  6
CONTINUOUS
 62
    30
 10
250.0000000000002
 20
341.83597984429491
 30
0.0
 40
6.0
  0
POINT
  8
ARRANGE
  6
CONTINUOUS
 62
     1
 10
0.0
 20
0.0
 30
0.0
  0
CIRCLE
  8
ARRANGE
  6
CONTINUOUS
 62
     1
 10
0.0
 20
0.0
 30
0.0
 40
40.0
  0
LINE
  8
BASIS
  6
DASHDOT
 62
     6
 10
-209.99999999999969
 20
8.1199149045605736
 30
0.0
 11
-209.99999999999969
 21
-366.60676194964577
 31
0.0
  0
LINE
  8
BASIS
  6
DASHDOT
 62
     6
 10
210.0
 20
13.22982388494165
 30
0.0
 11
210.0
 21
-366.60676194964577
 31
0.0
  0
LINE
  8
DETAIL
  6
CONTINUOUS
 62
     5
 10
-260.9999999999996
 20
-32.5
 30
0.0
 11
-158.99999999999969
 21
-32.5
 31
0.0
  0
LINE
  8
DETAIL
  6
CONTINUOUS
 62
     5
 10
-158.99999999999969
 20
-32.5
 30
0.0
 11
-158.99999999999969
 21
-323.49999999999989
 31
0.0
  0
LINE
  8
DETAIL
  6
CONTINUOUS
 62
     5
 10
-158.99999999999969
 20
-323.49999999999989
 30
0.0
 11
-260.9999999999996
 21
-323.49999999999989
 31
0.0
  0
LINE
  8
DETAIL
  6
CONTINUOUS
 62
     5
 10
-260.9999999999996
 20
-323.49999999999989
 30
0.0
 11
-260.9999999999996
 21
-32.5
 31
0.0
  0
LINE
  8
DETAIL
  6
DIVIDE
 62
     5
 10
159.0
 20
-32.5
 30
0.0
 11
261.0
 21
-32.5
 31
0.0
  0
LINE
  8
DETAIL
  6
DIVIDE
 62
     5
 10
261.0
 20
-32.5
 30
0.0
 11
261.0
 21
-323.49999999999989
 31
0.0
  0
LINE
  8
DETAIL
  6
DIVIDE
 62
     5
 10
261.0
 20
-323.49999999999989
 30
0.0
 11
159.0
 21
-323.49999999999989
 31
0.0
  0
LINE
  8
DETAIL
  6
DIVIDE
 62
     5
 10
159.0
 20
-323.49999999999989
 30
0.0
 11
159.0
 21
-32.499999999999893
 31
0.0
  0
LINE
  8
BASIS
  6
DASHDOT
 62
     6
 10
-299.99999999999972
 20
-178.0
 30
0.0
 11
-119.9999999999998
 21
-178.0
 31
0.0
  0
LINE
  8
BASIS
  6
DASHDOT
 62
     6
 10
300.00000000000023
 20
-178.0
 30
0.0
 11
120.0000000000001
 21
-178.0
 31
0.0
  0
CIRCLE
  8
SIZE
  6
CONTINUOUS
 62
    30
 10
-260.9999999999996
 20
139.53014736961529
 30
0.0
 40
6.0
  0
CIRCLE
  8
SIZE
  6
CONTINUOUS
 62
    30
 10
-158.99999999999969
 20
139.53014736961529
 30
0.0
 40
6.0
  0
CIRCLE
  8
SIZE
  6
CONTINUOUS
 62
    30
 10
-209.99999999999969
 20
226.39860502507591
 30
0.0
 40
6.0
  0
CIRCLE
  8
SIZE
  6
CONTINUOUS
 62
    30
 10
0.0000000000002274
 20
226.39860502507591
 30
0.0
 40
6.0
  0
CIRCLE
  8
SIZE
  6
CONTINUOUS
 62
    30
 10
210.0
 20
226.39860502507591
 30
0.0
 40
6.0
  0
CIRCLE
  8
SIZE
  6
CONTINUOUS
 62
    30
 10
-558.66596950849566
 20
-32.499999999999893
 30
0.0
 40
6.0
  0
CIRCLE
  8
SIZE
  6
CONTINUOUS
 62
    30
 10
-422.31472780477549
 20
0.0
 30
0.0
 40
6.0
  0
CIRCLE
  8
SIZE
  6
CONTINUOUS
 62
    30
 10
-422.31472780477549
 20
-178.0
 30
0.0
 40
6.0
  0
CIRCLE
  8
SIZE
  6
CONTINUOUS
 62
    30
 10
-558.66596950849589
 20
-323.49999999999989
 30
0.0
 40
6.0
  0
LINE
  8
SIZE
  6
CONTINUOUS
 62
    30
 10
-209.99999999999969
 20
28.11991490456057
 30
0.0
 11
-209.99999999999969
 21
256.39860502507582
 31
0.0
  0
LINE
  8
SIZE
  6
CONTINUOUS
 62
    30
 10
0.0000000000002274
 20
89.843853999999965
 30
0.0
 11
0.0000000000002274
 21
256.39860502507582
 31
0.0
  0
LINE
  8
SIZE
  6
CONTINUOUS
 62
    30
 10
-209.99999999999969
 20
226.39860502507591
 30
0.0
 11
0.0000000000002274
 21
226.39860502507591
 31
0.0
  0
LINE
  8
SIZE
  6
CONTINUOUS
 62
    30
 10
-260.9999999999996
 20
-12.49999999999989
 30
0.0
 11
-260.9999999999996
 21
169.53014736961541
 31
0.0
  0
LINE
  8
SIZE
  6
CONTINUOUS
 62
    30
 10
-158.99999999999969
 20
-12.49999999999989
 30
0.0
 11
-158.99999999999969
 21
169.53014736961541
 31
0.0
  0
LINE
  8
SIZE
  6
CONTINUOUS
 62
    30
 10
-260.9999999999996
 20
139.53014736961529
 30
0.0
 11
-158.99999999999969
 21
139.53014736961529
 31
0.0
  0
LINE
  8
SIZE
  6
CONTINUOUS
 62
    30
 10
-522.7787662488339
 20
139.53014736961529
 30
0.0
 11
-260.9999999999996
 21
139.53014736961529
 31
0.0
  0
LINE
  8
SIZE
  6
CONTINUOUS
 62
    30
 10
-280.9999999999996
 20
-32.5
 30
0.0
 11
-588.66596950849566
 21
-32.499999999999893
 31
0.0
  0
LINE
  8
SIZE
  6
CONTINUOUS
 62
    30
 10
-280.9999999999996
 20
-323.49999999999989
 30
0.0
 11
-588.66596950849566
 21
-323.49999999999989
 31
0.0
  0
LINE
  8
SIZE
  6
CONTINUOUS
 62
    30
 10
-558.66596950849566
 20
-32.499999999999893
 30
0.0
 11
-558.66596950849589
 21
-323.49999999999989
 31
0.0
  0
LINE
  8
SIZE
  6
CONTINUOUS
 62
    30
 10
-319.99999999999972
 20
-178.0
 30
0.0
 11
-452.31472780477571
 21
-178.0
 31
0.0
  0
LINE
  8
SIZE
  6
CONTINUOUS
 62
    30
 10
-499.41576699999968
 20
0.0
 30
0.0
 11
-392.31472780477549
 21
0.0
 31
0.0
  0
LINE
  8
SIZE
  6
CONTINUOUS
 62
    30
 10
-422.31472780477549
 20
-178.0
 30
0.0
 11
-422.31472780477549
 21
0.0
 31
0.0
  0
LINE
  8
SIZE
  6
CONTINUOUS
 62
    30
 10
0.0000000000002274
 20
236.39860502507591
 30
0.0
 11
0.0000000000002274
 21
196.39860502507599
 31
0.0
  0
LINE
  8
SIZE
  6
CONTINUOUS
 62
    30
 10
210.0
 20
33.229823884941652
 30
0.0
 11
210.0
 21
256.39860502507582
 31
0.0
  0
LINE
  8
SIZE
  6
CONTINUOUS
 62
    30
 10
0.0000000000002274
 20
226.39860502507591
 30
0.0
 11
210.0
 21
226.39860502507591
 31
0.0
  0
LINE
  8
SIZE
  6
CONTINUOUS
 62
    30
 10
282.50000000000023
 20
6.0
 30
0.0
 11
582.04307183080891
 21
6.0
 31
0.0
  0
LINE
  8
SIZE
  6
CONTINUOUS
 62
    30
 10
320.00000000000023
 20
0.0
 30
0.0
 11
582.04307183080891
 21
0.0
 31
0.0
  0
LINE
  8
SIZE
  6
CONTINUOUS
 62
    30
 10
559.47659202181057
 20
-235.0
 30
0.0
 11
559.47659202181057
 21
92.028189785774885
 31
0.0
  0
LINE
  8
SIZE
  6
CONTINUOUS
 62
    30
 10
559.47659202181057
 20
6.0
 30
0.0
 11
559.47659202181057
 21
0.0
 31
0.0
  0
TEXT
  8
SIZE
  6
CONTINUOUS
 62
    30
 10
-173.5714285714283
 20
246.39860502507591
 30
0.0
 40
64.0
  1
210
 41
0.9
  0
TEXT
  8
SIZE
  6
CONTINUOUS
 62
    30
 10
-578.66596950849566
 20
-239.71428571428569
 30
0.0
 40
64.0
  1
291
 50
90.0
 41
0.9
  0
TEXT
  8
SIZE
  6
CONTINUOUS
 62
    30
 10
-442.31472780477549
 20
-157.57142857142861
 30
0.0
 40
64.0
  1
178
 50
90.0
 41
0.9
  0
TEXT
  8
SIZE
  6
CONTINUOUS
 62
    30
 10
-502.77876624883379
 20
159.53014736961541
 30
0.0
 40
64.0
  1
102
 41
0.9
  0
TEXT
  8
SIZE
  6
CONTINUOUS
 62
    30
 10
533.76415642944085
 20
31.42651562465721
 30
0.0
 40
64.0
  1
6
 50
90.0
 41
0.9
  0
TEXT
  8
SIZE
  6
CONTINUOUS
 62
    30
 10
36.428571428571558
 20
246.39860502507591
 30
0.0
 40
64.0
  1
210
 41
0.9
  0
CIRCLE
  8
SIZE
  6
CONTINUOUS
 62
    30
 10
559.47659202181057
 20
6.0
 30
0.0
 40
6.0
  0
CIRCLE
  8
SIZE
  6
CONTINUOUS
 62
    30
 10
559.47659202181057
 20
0.0
 30
0.0
 40
6.0
  0
TEXT
  8
NOTE
  6
CONTINUOUS
 62
     4
 10
437.43153173999627
 20
-414.1675962717481
 30
0.0
 40
64.0
  1
排気口半抜き
 41
0.9
  0
LINE
  8
NOTE
  6
CONTINUOUS
 62
     4
 10
257.51333935041612
 20
-292.8255199502247
 30
0.0
 11
403.34372101247249
 21
-441.4204477342264
 31
0.0
1001
ACAD
1000
DSTYLE
1002
{
1070
    41
1040
40.0
1070
    42
1040
20.0
1070
    43
1040
200.0
1070
    44
1040
30.0
1070
    73
1070
     0
1070
    74
1070
     0
1070
    77
1070
     0
1070
    78
1070
     8
1070
   140
1040
64.0
1070
   147
1040
20.0
1070
   172
1070
     1
1070
   174
1070
     1
1070
   176
1070
   256
1070
   177
1070
   256
1070
   178
1070
   256
1002
}
  0
LINE
  8
NOTE
  6
CONTINUOUS
 62
     4
 10
403.34372101247249
 20
-441.4204477342264
 30
0.0
 11
856.71160785530469
 21
-441.4204477342264
 31
0.0
1001
ACAD
1000
DSTYLE
1002
{
1070
    41
1040
40.0
1070
    42
1040
20.0
1070
    43
1040
200.0
1070
    44
1040
30.0
1070
    73
1070
     0
1070
    74
1070
     0
1070
    77
1070
     0
1070
    78
1070
     8
1070
   140
1040
64.0
1070
   147
1040
20.0
1070
   172
1070
     1
1070
   174
1070
     1
1070
   176
1070
   256
1070
   177
1070
   256
1070
   178
1070
   256
1002
}
  0
LINE
  8
NOTE
  6
CONTINUOUS
 62
     4
 10
249.86376731398701
 20
-300.33277491686403
 30
0.0
 11
229.49588213533991
 21
-264.2769281950894
 31
0.0
  0
LINE
  8
NOTE
  6
CONTINUOUS
 62
     4
 10
229.49588213533991
 20
-264.2769281950894
 30
0.0
 11
265.16291138684511
 21
-285.31826498358532
 31
0.0
  0
LINE
  8
NOTE
  6
CONTINUOUS
 62
     4
 10
229.49588213533991
 20
-264.2769281950894
 30
0.0
 11
257.51333935041612
 21
-292.8255199502247
 31
0.0
  0
LINE
  8
BASIS
  6
DASHDOT
 62
     6
 10
73.812061370207289
 20
-235.0
 30
0.0
 11
-75.068914155979087
 21
-235.0
 31
0.0
  0
ARC
  8
DETAIL
  6
CONTINUOUS
 62
     5
 10
-49.999999999999773
 20
-235.0
 30
0.0
 40
10.0
 50
90.0
 51
270.0
  0
ARC
  8
DETAIL
  6
CONTINUOUS
 62
     5
 10
50.000000000000107
 20
-235.0
 30
0.0
 40
10.0
 50
270.0
 51
90.0
  0
LINE
  8
SIZE
  6
CONTINUOUS
 62
    30
 10
93.812061370207289
 20
-235.0
 30
0.0
 11
580.85536305298501
 21
-235.0
 31
0.0
  0
TEXT
  8
SIZE
  6
CONTINUOUS
 62
    30
 10
531.4357979885483
 20
-191.55714285714279
 30
0.0
 40
64.0
  1
235
 50
90.0
 41
0.9
  0
CIRCLE
  8
SIZE
  6
CONTINUOUS
 62
    30
 10
559.47659202181057
 20
-235.0
 30
0.0
 40
6.0
  0
LINE
  8
OUTLINE
  6
CONTINUOUS
 62
     3
 10
-269.99999999999972
 20
-580.0
 30
0.0
 11
270.0
 21
-580.0
 31
0.0
  0
LINE
  8
OUTLINE
  6
CONTINUOUS
 62
     3
 10
-299.99999999999972
 20
0.0
 30
0.0
 11
300.0
 21
0.0
 31
0.0
  0
LINE
  8
OUTLINE
  6
CONTINUOUS
 62
     3
 10
-299.99999999999972
 20
0.0
 30
0.0
 11
-299.99999999999972
 21
-550.0
 31
0.0
  0
ARC
  8
OUTLINE
  6
CONTINUOUS
 62
     3
 10
-269.99999999999972
 20
-550.0
 30
0.0
 40
30.0
 50
180.0
 51
270.0
  0
LINE
  8
OUTLINE
  6
CONTINUOUS
 62
     3
 10
300.0
 20
0.0
 30
0.0
 11
300.0
 21
-550.0
 31
0.0
  0
ARC
  8
OUTLINE
  6
CONTINUOUS
 62
     3
 10
270.0
 20
-550.0
 30
0.0
 40
30.0
 50
270.0
 51
0.0
  0
LINE
  8
NOTE
  6
CONTINUOUS
 62
     4
 10
-284.99999999999972
 20
-410.0
 30
0.0
 11
-244.9999999999998
 21
-410.0
 31
0.0
  0
LINE
  8
NOTE
  6
CONTINUOUS
 62
     4
 10
-264.99999999999972
 20
-430.0
 30
0.0
 11
-264.99999999999972
 21
-390.0
 31
0.0
  0
LINE
  8
NOTE
  6
CONTINUOUS
 62
     4
 10
245.0000000000002
 20
-410.0
 30
0.0
 11
285.0
 21
-410.0
 31
0.0
  0
LINE
  8
NOTE
  6
CONTINUOUS
 62
     4
 10
265.00000000000023
 20
-430.0
 30
0.0
 11
265.00000000000023
 21
-390.0
 31
0.0
  0
LINE
  8
NOTE
  6
CONTINUOUS
 62
     4
 10
-76.999999999999716
 20
-78.0
 30
0.0
 11
-76.999999999999716
 21
-38.0
 31
0.0
  0
LINE
  8
NOTE
  6
CONTINUOUS
 62
     4
 10
-96.999999999999716
 20
-58.0
 30
0.0
 11
-56.999999999999773
 21
-58.0
 31
0.0
  0
LINE
  8
NOTE
  6
CONTINUOUS
 62
     4
 10
77.000000000000227
 20
-78.0
 30
0.0
 11
77.000000000000227
 21
-38.0
 31
0.0
  0
LINE
  8
NOTE
  6
CONTINUOUS
 62
     4
 10
57.000000000000227
 20
-58.0
 30
0.0
 11
97.000000000000114
 21
-58.0
 31
0.0
  0
LINE
  8
NOTE
  6
CONTINUOUS
 62
     4
 10
-76.999999999999773
 20
-190.0
 30
0.0
 11
-76.999999999999773
 21
-150.0
 31
0.0
  0
LINE
  8
NOTE
  6
CONTINUOUS
 62
     4
 10
-96.999999999999773
 20
-170.0
 30
0.0
 11
-56.999999999999893
 21
-170.0
 31
0.0
  0
LINE
  8
NOTE
  6
CONTINUOUS
 62
     4
 10
77.000000000000227
 20
-190.0
 30
0.0
 11
77.000000000000227
 21
-150.0
 31
0.0
  0
LINE
  8
NOTE
  6
CONTINUOUS
 62
     4
 10
57.000000000000227
 20
-170.0
 30
0.0
 11
97.000000000000114
 21
-170.0
 31
0.0
  0
LINE
  8
NOTE
  6
CONTINUOUS
 62
     4
 10
-76.999999999999716
 20
-302.0
 30
0.0
 11
-76.999999999999716
 21
-262.0
 31
0.0
  0
LINE
  8
NOTE
  6
CONTINUOUS
 62
     4
 10
-96.999999999999716
 20
-282.0
 30
0.0
 11
-56.999999999999773
 21
-282.0
 31
0.0
  0
LINE
  8
NOTE
  6
CONTINUOUS
 62
     4
 10
77.000000000000227
 20
-302.0
 30
0.0
 11
77.000000000000227
 21
-262.0
 31
0.0
  0
LINE
  8
NOTE
  6
CONTINUOUS
 62
     4
 10
57.000000000000227
 20
-282.0
 30
0.0
 11
97.000000000000227
 21
-282.0
 31
0.0
  0
LINE
  8
SIZE
  6
CONTINUOUS
 62
    30
 10
77.000000000000227
 20
-18.0
 30
0.0
 11
77.000000000000227
 21
127.2912244442159
 31
0.0
  0
LINE
  8
SIZE
  6
CONTINUOUS
 62
    30
 10
0.0000000000002274
 20
117.2912244442159
 30
0.0
 11
0.0000000000002274
 21
127.2912244442159
 31
0.0
  0
LINE
  8
SIZE
  6
CONTINUOUS
 62
    30
 10
77.000000000000227
 20
97.291224444215914
 30
0.0
 11
117.0000000000002
 21
97.291224444215914
 31
0.0
  0
LINE
  8
SIZE
  6
CONTINUOUS
 62
    30
 10
0.0000000000002274
 20
97.291224444215914
 30
0.0
 11
-39.999999999999773
 21
97.291224444215914
 31
0.0
  0
LINE
  8
SIZE
  6
CONTINUOUS
 62
    30
 10
77.000000000000227
 20
97.291224444215914
 30
0.0
 11
0.0000000000002274
 21
97.291224444215914
 31
0.0
  0
LINE
  8
SIZE
  6
CONTINUOUS
 62
    30
 10
-76.999999999999716
 20
-18.0
 30
0.0
 11
-76.999999999999716
 21
127.2912244442159
 31
0.0
  0
LINE
  8
SIZE
  6
CONTINUOUS
 62
    30
 10
0.0000000000002274
 20
109.84385399999989
 30
0.0
 11
0.0000000000002274
 21
127.2912244442159
 31
0.0
  0
LINE
  8
SIZE
  6
CONTINUOUS
 62
    30
 10
-76.999999999999716
 20
97.291224444215914
 30
0.0
 11
-116.9999999999997
 21
97.291224444215914
 31
0.0
  0
LINE
  8
SIZE
  6
CONTINUOUS
 62
    30
 10
0.0000000000002274
 20
97.291224444215914
 30
0.0
 11
40.000000000000227
 21
97.291224444215914
 31
0.0
  0
LINE
  8
SIZE
  6
CONTINUOUS
 62
    30
 10
-76.999999999999716
 20
97.291224444215914
 30
0.0
 11
0.0000000000002274
 21
97.291224444215914
 31
0.0
  0
TEXT
  8
SIZE
  6
CONTINUOUS
 62
    30
 10
-112.32679580986949
 20
117.2912244442159
 30
0.0
 40
64.0
  1
77
 41
0.9
  0
TEXT
  8
SIZE
  6
CONTINUOUS
 62
    30
 10
24.259804852285011
 20
117.2912244442159
 30
0.0
 40
64.0
  1
77
 41
0.9
  0
CIRCLE
  8
SIZE
  6
CONTINUOUS
 62
    30
 10
-76.999999999999716
 20
97.291224444215914
 30
0.0
 40
6.0
  0
CIRCLE
  8
SIZE
  6
CONTINUOUS
 62
    30
 10
0.0000000000002274
 20
97.291224444215914
 30
0.0
 40
6.0
  0
CIRCLE
  8
SIZE
  6
CONTINUOUS
 62
    30
 10
77.000000000000227
 20
97.291224444215914
 30
0.0
 40
6.0
  0
CIRCLE
  8
SIZE
  6
CONTINUOUS
 62
    30
 10
-264.99999999999972
 20
-881.14429290581757
 30
0.0
 40
6.0
  0
CIRCLE
  8
SIZE
  6
CONTINUOUS
 62
    30
 10
265.00000000000023
 20
-881.14429290581757
 30
0.0
 40
6.0
  0
CIRCLE
  8
SIZE
  6
CONTINUOUS
 62
    30
 10
-820.26164906963822
 20
0.0
 30
0.0
 40
6.0
  0
CIRCLE
  8
SIZE
  6
CONTINUOUS
 62
    30
 10
-820.26164906963822
 20
-409.99999999999977
 30
0.0
 40
6.0
  0
LINE
  8
SIZE
  6
CONTINUOUS
 62
    30
 10
438.82853524877652
 20
-58.000000000000107
 30
0.0
 11
398.82853524877652
 21
-58.000000000000107
 31
0.0
  0
TEXT
  8
SIZE
  6
CONTINUOUS
 62
    30
 10
412.39166158224998
 20
28.846091842195051
 30
0.0
 40
64.0
  1
58
 50
90.0
 41
0.9
  0
LINE
  8
SIZE
  6
CONTINUOUS
 62
    30
 10
117.0000000000001
 20
-282.0
 30
0.0
 11
451.39502157294459
 21
-282.00000000000011
 31
0.0
  0
LINE
  8
SIZE
  6
CONTINUOUS
 62
    30
 10
117.0000000000001
 20
-170.0
 30
0.0
 11
449.01959750212683
 21
-170.00000000000011
 31
0.0
  0
LINE
  8
SIZE
  6
CONTINUOUS
 62
    30
 10
428.82853524877652
 20
-282.00000000000011
 30
0.0
 11
428.82853524877652
 21
-322.00000000000011
 31
0.0
  0
LINE
  8
SIZE
  6
CONTINUOUS
 62
    30
 10
428.82853524877652
 20
-282.00000000000011
 30
0.0
 11
428.82853524877652
 21
134.83277889024239
 31
0.0
  0
TEXT
  8
SIZE
  6
CONTINUOUS
 62
    30
 10
408.82853524877652
 20
-317.49501427893301
 30
0.0
 40
64.0
  1
112
 50
90.0
 41
0.9
  0
LINE
  8
SIZE
  6
CONTINUOUS
 62
    30
 10
117.0000000000001
 20
-58.0
 30
0.0
 11
450.20730627995079
 21
-58.000000000000107
 31
0.0
  0
LINE
  8
SIZE
  6
CONTINUOUS
 62
    30
 10
428.82853524877652
 20
-170.00000000000011
 30
0.0
 11
428.82853524877652
 21
-210.0
 31
0.0
  0
TEXT
  8
SIZE
  6
CONTINUOUS
 62
    30
 10
408.82853524877652
 20
-171.4679316852089
 30
0.0
 40
64.0
  1
112
 50
90.0
 41
0.9
  0
CIRCLE
  8
SIZE
  6
CONTINUOUS
 62
    30
 10
428.82853524877652
 20
0.0
 30
0.0
 40
6.0
  0
CIRCLE
  8
SIZE
  6
CONTINUOUS
 62
    30
 10
428.82853524877652
 20
-58.000000000000107
 30
0.0
 40
6.0
  0
CIRCLE
  8
SIZE
  6
CONTINUOUS
 62
    30
 10
428.82853524877652
 20
-170.00000000000011
 30
0.0
 40
6.0
  0
CIRCLE
  8
SIZE
  6
CONTINUOUS
 62
    30
 10
428.82853524877652
 20
-282.00000000000011
 30
0.0
 40
6.0
  0
LINE
  8
SIZE
  6
CONTINUOUS
 62
    30
 10
-304.99999999999972
 20
-410.0
 30
0.0
 11
-850.26164906963822
 21
-409.99999999999977
 31
0.0
  0
LINE
  8
SIZE
  6
CONTINUOUS
 62
    30
 10
-738.83153399999935
 20
0.0
 30
0.0
 11
-850.26164906963822
 21
0.0
 31
0.0
  0
LINE
  8
SIZE
  6
CONTINUOUS
 62
    30
 10
-820.26164906963822
 20
-409.99999999999977
 30
0.0
 11
-820.26164906963822
 21
0.0
 31
0.0
  0
TEXT
  8
SIZE
  6
CONTINUOUS
 62
    30
 10
-840.26164906963822
 20
-273.5714285714285
 30
0.0
 40
64.0
  1
410
 50
90.0
 41
0.9
  0
LINE
  8
BASIS
  6
DASHDOT
 62
     6
 10
-20.496838609248702
 20
-295.0
 30
0.0
 11
20.182214720700362
 21
-295.0
 31
0.0
  0
CIRCLE
  8
SIZE
  6
CONTINUOUS
 62
    30
 10
674.68442165279066
 20
-295.00000000000028
 30
0.0
 40
6.0
  0
CIRCLE
  8
SIZE
  6
CONTINUOUS
 62
    30
 10
674.68442165279066
 20
-0.0000000000001137
 30
0.0
 40
6.0
  0
LINE
  8
SIZE
  6
CONTINUOUS
 62
    30
 10
582.04307183080891
 20
0.0
 30
0.0
 11
704.68442165279066
 21
-0.0000000000001137
 31
0.0
  0
LINE
  8
SIZE
  6
CONTINUOUS
 62
    30
 10
25.9722974557817
 20
-295.0
 30
0.0
 11
704.68442165279066
 21
-295.00000000000028
 31
0.0
  0
LINE
  8
SIZE
  6
CONTINUOUS
 62
    30
 10
674.68442165279066
 20
-0.0000000000001137
 30
0.0
 11
674.68442165279066
 21
-295.00000000000028
 31
0.0
  0
TEXT
  8
SIZE
  6
CONTINUOUS
 62
    30
 10
654.68442165279066
 20
-221.55714285714279
 30
0.0
 40
64.0
  1
295
 50
90.0
 41
0.9
  0
LINE
  8
DETAIL
  6
CONTINUOUS
 62
     5
 10
-15.0036781822464
 20
-290.0
 30
0.0
 11
14.83752196290607
 21
-290.0
 31
0.0
  0
LINE
  8
DETAIL
  6
CONTINUOUS
 62
     5
 10
-15.0036781822464
 20
-299.99999999999989
 30
0.0
 11
14.985989632114981
 21
-300.0
 31
0.0
  0
LINE
  8
DETAIL
  6
CONTINUOUS
 62
     5
 10
-7.4999999999997726
 20
-290.0
 30
0.0
 11
-7.4999999999997726
 21
-300.0
 31
0.0
  0
LINE
  8
DETAIL
  6
CONTINUOUS
 62
     5
 10
7.5000000000002274
 20
-290.0
 30
0.0
 11
7.5000000000002274
 21
-300.0
 31
0.0
  0
LINE
  8
BASIS
  6
DASHDOT
 62
     6
 10
-14.999999999999771
 20
-290.0
 30
0.0
 11
-14.999999999999771
 21
-300.0
 31
0.0
  0
LINE
  8
BASIS
  6
DASHDOT
 62
     6
 10
15.000000000000229
 20
-290.0
 30
0.0
 11
15.000000000000229
 21
-300.0
 31
0.0
  0
ARC
  8
DETAIL
  6
CONTINUOUS
 62
     5
 10
-14.999999999999771
 20
-295.0
 30
0.0
 40
5.0
 50
90.0
 51
270.0
  0
ARC
  8
DETAIL
  6
CONTINUOUS
 62
     5
 10
15.000000000000229
 20
-295.0
 30
0.0
 40
5.0
 50
270.0
 51
90.0
  0
CIRCLE
  8
DETAIL
  6
CONTINUOUS
 62
     5
 10
-14.999999999999771
 20
-295.0
 30
0.0
 40
3.5
  0
CIRCLE
  8
DETAIL
  6
CONTINUOUS
 62
     5
 10
15.000000000000229
 20
-295.0
 30
0.0
 40
3.5
  0
LINE
  8
DETAIL
  6
CONTINUOUS
 62
     5
 10
-16.414213562372879
 20
-293.58578643762689
 30
0.0
 11
-13.58578643762667
 21
-296.41421356237311
 31
0.0
  0
LINE
  8
DETAIL
  6
CONTINUOUS
 62
     5
 10
-16.414213562372879
 20
-296.41421356237311
 30
0.0
 11
-13.58578643762667
 21
-293.58578643762689
 31
0.0
  0
LINE
  8
DETAIL
  6
CONTINUOUS
 62
     5
 10
13.585786437627119
 20
-293.58578643762689
 30
0.0
 11
16.41421356237333
 21
-296.41421356237311
 31
0.0
  0
LINE
  8
DETAIL
  6
CONTINUOUS
 62
     5
 10
13.585786437627119
 20
-296.41421356237311
 30
0.0
 11
16.41421356237333
 21
-293.58578643762689
 31
0.0
  0
TEXT
  8
NOTE
  6
CONTINUOUS
 62
     4
 10
-930.7246375447221
 20
396.31868115891427
 30
0.0
 40
64.0
  1
6-φ3.2
 41
0.9
  0
TEXT
  8
NOTE
  6
CONTINUOUS
 62
     4
 10
-827.45861737997416
 20
-729.00465197603501
 30
0.0
 40
64.0
  1
2-φ3.2
 41
0.9
  0
LINE
  8
SIZE
  6
CONTINUOUS
 62
    30
 10
265.00000000000023
 20
-450.0
 30
0.0
 11
265.0
 21
-911.14429290581757
 31
0.0
  0
LINE
  8
SIZE
  6
CONTINUOUS
 62
    30
 10
-264.99999999999972
 20
-450.0
 30
0.0
 11
-264.99999999999972
 21
-911.14429290581757
 31
0.0
  0
LINE
  8
SIZE
  6
CONTINUOUS
 62
    30
 10
265.00000000000023
 20
-881.14429290581757
 30
0.0
 11
-264.99999999999972
 21
-881.14429290581757
 31
0.0
  0
TEXT
  8
NOTE
  6
CONTINUOUS
 62
     4
 10
-819.14465593520413
 20
-825.3059173441635
 30
0.0
 40
50.0
  1
幕板取付用穴
 41
0.9
  0
TEXT
  8
NOTE
  6
CONTINUOUS
 62
     4
 10
-939.23580012217633
 20
310.70231937941662
 30
0.0
 40
50.0
  1
棚取付用金具締付穴
 41
0.9
  0
TEXT
  8
SIZE
  6
CONTINUOUS
 62
    30
 10
-74.057142857142594
 20
-861.14429290581757
 30
0.0
 40
64.0
  1
530
 41
0.9
  0
LINE
  8
NOTE
  6
CONTINUOUS
 62
     4
 10
-104.6479199112086
 20
-22.495176037848299
 30
0.0
 11
-410.44313238092133
 21
370.20001485078768
 31
0.0
1001
ACAD
1000
DSTYLE
1002
{
1070
    41
1040
45.0
1070
    42
1040
20.0
1070
    43
1040
200.0
1070
    44
1040
30.0
1070
    73
1070
     0
1070
    74
1070
     0
1070
    77
1070
     0
1070
    78
1070
     8
1070
   140
1040
64.0
1070
   147
1040
20.0
1070
   172
1070
     1
1070
   174
1070
     1
1070
   176
1070
   256
1070
   177
1070
   256
1070
   178
1070
   256
1002
}
  0
LINE
  8
NOTE
  6
CONTINUOUS
 62
     4
 10
-410.44313238092133
 20
370.20001485078768
 30
0.0
 11
-957.97725032253481
 21
370.20001485078768
 31
0.0
1001
ACAD
1000
DSTYLE
1002
{
1070
    41
1040
45.0
1070
    42
1040
20.0
1070
    43
1040
200.0
1070
    44
1040
30.0
1070
    73
1070
     0
1070
    74
1070
     0
1070
    77
1070
     0
1070
    78
1070
     8
1070
   140
1040
64.0
1070
   147
1040
20.0
1070
   172
1070
     1
1070
   174
1070
     1
1070
   176
1070
   256
1070
   177
1070
   256
1070
   178
1070
   256
1002
}
  0
LINE
  8
NOTE
  6
CONTINUOUS
 62
     4
 10
-287.86525989787469
 20
-448.75796550133441
 30
0.0
 11
-469.72849176244841
 21
-757.02688079249128
 31
0.0
1001
ACAD
1000
DSTYLE
1002
{
1070
    41
1040
45.0
1070
    42
1040
20.0
1070
    43
1040
200.0
1070
    44
1040
30.0
1070
    73
1070
     0
1070
    74
1070
     0
1070
    77
1070
     0
1070
    78
1070
     8
1070
   140
1040
64.0
1070
   147
1040
20.0
1070
   172
1070
     1
1070
   174
1070
     1
1070
   176
1070
   256
1070
   177
1070
   256
1070
   178
1070
   256
1002
}
  0
LINE
  8
NOTE
  6
CONTINUOUS
 62
     4
 10
-469.72849176244841
 20
-757.02688079249128
 30
0.0
 11
-838.14800289556104
 21
-757.02688079249128
 31
0.0
1001
ACAD
1000
DSTYLE
1002
{
1070
    41
1040
45.0
1070
    42
1040
20.0
1070
    43
1040
200.0
1070
    44
1040
30.0
1070
    73
1070
     0
1070
    74
1070
     0
1070
    77
1070
     0
1070
    78
1070
     8
1070
   140
1040
64.0
1070
   147
1040
20.0
1070
   172
1070
     1
1070
   174
1070
     1
1070
   176
1070
   256
1070
   177
1070
   256
1070
   178
1070
   256
1002
}
  0
LINE
  8
NOTE
  6
CONTINUOUS
 62
     4
 10
-298.25042536000518
 20
-442.6312376325593
 30
0.0
 11
-264.99999999999972
 21
-410.0
 31
0.0
  0
LINE
  8
NOTE
  6
CONTINUOUS
 62
     4
 10
-264.99999999999972
 20
-410.0
 30
0.0
 11
-277.48009443574409
 21
-454.88469337010952
 31
0.0
  0
LINE
  8
NOTE
  6
CONTINUOUS
 62
     4
 10
-264.99999999999972
 20
-410.0
 30
0.0
 11
-287.86525989787469
 21
-448.75796550133441
 31
0.0
  0
LINE
  8
NOTE
  6
CONTINUOUS
 62
     4
 10
-95.134431089457507
 20
-15.0869382924551
 30
0.0
 11
-76.999999999999716
 21
-58.0
 31
0.0
  0
LINE
  8
NOTE
  6
CONTINUOUS
 62
     4
 10
-76.999999999999716
 20
-58.0
 30
0.0
 11
-114.1614087329597
 21
-29.9034137832416
 31
0.0
  0
LINE
  8
NOTE
  6
CONTINUOUS
 62
     4
 10
-76.999999999999716
 20
-58.0
 30
0.0
 11
-104.6479199112086
 21
-22.495176037848299
 31
0.0
  0
LINE
  8
OUTLINE
  6
CONTINUOUS
 62
     3
 10
-262.49999999999972
 20
6.0
 30
0.0
 11
-259.49999999999972
 21
6.0
 31
0.0
  0
LINE
  8
OUTLINE
  6
CONTINUOUS
 62
     3
 10
-262.49999999999972
 20
0.0
 30
0.0
 11
-262.49999999999972
 21
6.0
 31
0.0
  0
LINE
  8
OUTLINE
  6
CONTINUOUS
 62
     3
 10
-240.49999999999969
 20
0.0
 30
0.0
 11
-240.49999999999969
 21
6.0
 31
0.0
  0
LINE
  8
OUTLINE
  6
CONTINUOUS
 62
     3
 10
-237.49999999999949
 20
0.0
 30
0.0
 11
-237.49999999999949
 21
6.0
 31
0.0
  0
LINE
  8
OUTLINE
  6
CONTINUOUS
 62
     3
 10
-240.49999999999969
 20
6.0
 30
0.0
 11
-237.49999999999949
 21
6.0
 31
0.0
  0
LINE
  8
OUTLINE
  6
CONTINUOUS
 62
     3
 10
-259.49999999999972
 20
0.0
 30
0.0
 11
-259.49999999999972
 21
6.0
 31
0.0
  0
LINE
  8
OUTLINE
  6
CONTINUOUS
 62
     3
 10
237.5000000000002
 20
0.0
 30
0.0
 11
237.5000000000002
 21
6.0
 31
0.0
  0
LINE
  8
OUTLINE
  6
CONTINUOUS
 62
     3
 10
240.50000000000011
 20
0.0
 30
0.0
 11
240.50000000000011
 21
6.0
 31
0.0
  0
LINE
  8
OUTLINE
  6
CONTINUOUS
 62
     3
 10
240.50000000000011
 20
6.0
 30
0.0
 11
237.5000000000002
 21
6.0
 31
0.0
  0
LINE
  8
OUTLINE
  6
CONTINUOUS
 62
     3
 10
262.50000000000023
 20
6.0
 30
0.0
 11
259.5
 21
6.0
 31
0.0
  0
LINE
  8
OUTLINE
  6
CONTINUOUS
 62
     3
 10
259.5
 20
0.0
 30
0.0
 11
259.5
 21
6.0
 31
0.0
  0
LINE
  8
OUTLINE
  6
CONTINUOUS
 62
     3
 10
262.50000000000023
 20
0.0
 30
0.0
 11
262.50000000000023
 21
6.0
 31
0.0
  0
ENDSEC
  0
EOF
