  0
SECTION
  2
HEADER
  9
$ACADVER
  1
AC1009
  9
$DWGCODEPAGE
  3
dos932
  9
$INSBASE
 10
0.0
 20
0.0
 30
0.0
  9
$EXTMIN
 10
-630.38175834853064
 20
-425.85753221746751
 30
-0.001525762492705
  9
$EXTMAX
 10
1496.4203002006029
 20
861.96900247825397
 30
0.002288876569693
  9
$LIMMIN
 10
-2970.0
 20
-2100.0
  9
$LIMMAX
 10
2970.0
 20
2100.0
  9
$ORTHOMODE
 70
     1
  9
$REGENMODE
 70
     1
  9
$FILLMODE
 70
     1
  9
$QTEXTMODE
 70
     0
  9
$MIRRTEXT
 70
     0
  9
$LTSCALE
 40
20.0
  9
$ATTMODE
 70
     1
  9
$TEXTSIZE
 40
64.0
  9
$TRACEWID
 40
0.05
  9
$TEXTSTYLE
  7
STANDARD
  9
$CLAYER
  8
NOTE
  9
$CELTYPE
  6
CONTINUOUS
  9
$CECOLOR
 62
     7
  9
$DIMSCALE
 40
1.0
  9
$DIMASZ
 40
12.0
  9
$DIMEXO
 40
20.0
  9
$DIMDLI
 40
200.0
  9
$DIMRND
 40
0.0
  9
$DIMDLE
 40
0.0
  9
$DIMEXE
 40
20.0
  9
$DIMTP
 40
0.0
  9
$DIMTM
 40
0.0
  9
$DIMTXT
 40
64.0
  9
$DIMCEN
 40
0.09
  9
$DIMTSZ
 40
0.0
  9
$DIMTOL
 70
     0
  9
$DIMLIM
 70
     0
  9
$DIMTIH
 70
     0
  9
$DIMTOH
 70
     0
  9
$DIMSE1
 70
     0
  9
$DIMSE2
 70
     0
  9
$DIMTAD
 70
     1
  9
$DIMZIN
 70
     8
  9
$DIMBLK
  1

  9
$DIMASO
 70
     1
  9
$DIMSHO
 70
     0
  9
$DIMPOST
  1

  9
$DIMAPOST
  1

  9
$DIMALT
 70
     0
  9
$DIMALTD
 70
     2
  9
$DIMALTF
 40
25.399999999999999
  9
$DIMLFAC
 40
1.0
  9
$DIMTOFL
 70
     1
  9
$DIMTVP
 40
0.0
  9
$DIMTIX
 70
     1
  9
$DIMSOXD
 70
     0
  9
$DIMSAH
 70
     0
  9
$DIMBLK1
  1

  9
$DIMBLK2
  1

  9
$DIMSTYLE
  2
STANDARD
  9
$DIMCLRD
 70
     7
  9
$DIMCLRE
 70
     7
  9
$DIMCLRT
 70
     7
  9
$DIMTFAC
 40
1.0
  9
$DIMGAP
 40
25.0
  9
$LUNITS
 70
     2
  9
$LUPREC
 70
     4
  9
$SKETCHINC
 40
0.1
  9
$FILLETRAD
 40
3.0
  9
$AUNITS
 70
     1
  9
$AUPREC
 70
     3
  9
$MENU
  1
ACAD
  9
$ELEVATION
 40
0.0
  9
$PELEVATION
 40
0.0
  9
$THICKNESS
 40
50.0
  9
$LIMCHECK
 70
     0
  9
$CHAMFERA
 40
0.0
  9
$CHAMFERB
 40
0.0
  9
$SKPOLY
 70
     0
  9
$TDCREATE
 40
2453019.62301037
  9
$TDUPDATE
 40
2458887.738460104
  9
$TDINDWG
 40
1.7141199537
  9
$TDUSRTIMER
 40
1.7141199537
  9
$USRTIMER
 70
     1
  9
$ANGBASE
 50
0.0
  9
$ANGDIR
 70
     0
  9
$PDMODE
 70
     3
  9
$PDSIZE
 40
-2.0
  9
$PLINEWID
 40
0.0
  9
$SPLFRAME
 70
     0
  9
$SPLINETYPE
 70
     6
  9
$SPLINESEGS
 70
     8
  9
$SURFTAB1
 70
     6
  9
$SURFTAB2
 70
     6
  9
$SURFTYPE
 70
     6
  9
$SURFU
 70
     6
  9
$SURFV
 70
     6
  9
$UCSNAME
  2

  9
$UCSORG
 10
0.0
 20
0.0
 30
0.0
  9
$UCSXDIR
 10
1.0
 20
0.0
 30
0.0
  9
$UCSYDIR
 10
0.0
 20
1.0
 30
0.0
  9
$PUCSNAME
  2

  9
$PUCSORG
 10
0.0
 20
0.0
 30
0.0
  9
$PUCSXDIR
 10
1.0
 20
0.0
 30
0.0
  9
$PUCSYDIR
 10
0.0
 20
1.0
 30
0.0
  9
$USERI1
 70
     0
  9
$USERI2
 70
     0
  9
$USERI3
 70
     0
  9
$USERI4
 70
     0
  9
$USERI5
 70
     0
  9
$USERR1
 40
20.0
  9
$USERR2
 40
0.0
  9
$USERR3
 40
0.0
  9
$USERR4
 40
0.0
  9
$USERR5
 40
0.0
  9
$WORLDVIEW
 70
     1
  9
$SHADEDGE
 70
     3
  9
$SHADEDIF
 70
    70
  9
$TILEMODE
 70
     1
  9
$MAXACTVP
 70
    48
  9
$PINSBASE
 10
0.0
 20
0.0
 30
0.0
  9
$PLIMCHECK
 70
     0
  9
$PEXTMIN
 10
-100000000000000000000.0
 20
-100000000000000000000.0
 30
-100000000000000000000.0
  9
$PEXTMAX
 10
100000000000000000000.0
 20
100000000000000000000.0
 30
100000000000000000000.0
  9
$PLIMMIN
 10
0.0
 20
0.0
  9
$PLIMMAX
 10
12.0
 20
9.0
  9
$UNITMODE
 70
     0
  9
$VISRETAIN
 70
     0
  9
$PLINEGEN
 70
     0
  9
$PSLTSCALE
 70
     0
  9
$TREEDEPTH
 70
  3020
  9
$ATTDIA
 70
     0
  9
$ATTREQ
 70
     1
  9
$BLIPMODE
 70
     1
  9
$COORDS
 70
     1
  9
$DRAGMODE
 70
     2
  9
$OSMODE
 70
     0
  9
$HANDLING
 70
     0
  9
$HANDSEED
  5
ED1D
  0
ENDSEC
  0
SECTION
  2
TABLES
  0
TABLE
  2
LTYPE
 70
     4
  0
LTYPE
  2
CONTINUOUS
 70
     0
  3
実線
 72
    65
 73
     0
 40
0.0
  0
LTYPE
  2
DASHDOT
 70
     0
  3
____ _ ____ _ ____ _ ____ _ ____ _ ____ _ ____
 72
    65
 73
     4
 40
5.5
 49
4.0
 49
-0.6
 49
0.3
 49
-0.6
  0
LTYPE
  2
DIVIDE
 70
     0
  3
Divide ____ . . ____ . . ____ . . ____ . . ____
 72
    65
 73
     6
 40
1.25
 49
0.5
 49
-0.25
 49
0.0
 49
-0.25
 49
0.0
 49
-0.25
  0
LTYPE
  2
DASHDOT1
 70
     0
  3
____ _ ____ _ ____ _ ____ _ ____ _ ____ _ ____
 72
    65
 73
     4
 40
2.0
 49
1.5
 49
-0.2
 49
0.1
 49
-0.2
  0
ENDTAB
  0
TABLE
  2
LAYER
 70
    12
  0
LAYER
  2
0
 70
     0
 62
     7
  6
CONTINUOUS
  0
LAYER
  2
BASIS
 70
     0
 62
     6
  6
DASHDOT
  0
LAYER
  2
OUTLINE
 70
     0
 62
     3
  6
CONTINUOUS
  0
LAYER
  2
DETAIL
 70
     0
 62
     5
  6
CONTINUOUS
  0
LAYER
  2
SIZE
 70
     0
 62
    30
  6
CONTINUOUS
  0
LAYER
  2
ARRANGE
 70
     0
 62
     1
  6
CONTINUOUS
  0
LAYER
  2
ETC
 70
     0
 62
    61
  6
CONTINUOUS
  0
LAYER
  2
FIX
 70
     0
 62
    11
  6
CONTINUOUS
  0
LAYER
  2
NOTE
 70
     0
 62
     4
  6
CONTINUOUS
  0
LAYER
  2
DEFPOINTS
 70
    64
 62
     7
  6
CONTINUOUS
  0
LAYER
  2
SERVICESPACE
 70
    64
 62
     2
  6
DASHDOT
  0
LAYER
  2
SYMBOLLINE
 70
    64
 62
    15
  6
CONTINUOUS
  0
ENDTAB
  0
TABLE
  2
STYLE
 70
     1
  0
STYLE
  2
STANDARD
 70
     0
 40
64.0
 41
0.9
 50
0.0
 71
     0
 42
64.0
  3
SIMPLEX.shx
  4
BIGFONT.shx
  0
ENDTAB
  0
TABLE
  2
APPID
 70
    16
  0
APPID
  2
ACAD
 70
     0
  0
APPID
  2
AUTOCAD_POSTSCRIPT_FIGURE
 70
     0
  0
APPID
  2
ACAD_EXEMPT_FROM_CAD_STANDARDS
 70
     0
  0
APPID
  2
ACAD_PSEXT
 70
     0
  0
APPID
  2
ACAUTHENVIRON
 70
     0
  0
APPID
  2
GENIUS_GENOENT_13
 70
     0
  0
APPID
  2
GENIUS_GENCFG_13
 70
     0
  0
APPID
  2
GENIUS_GENCFG0_13
 70
     0
  0
APPID
  2
GENIUS_GENCFG1_13
 70
     0
  0
APPID
  2
GENIUS_GENCFG2_13
 70
     0
  0
APPID
  2
GENIUS_GENCFG3_13
 70
     0
  0
APPID
  2
GENIUS_GENCFG4_13
 70
     0
  0
APPID
  2
GENIUS_GEVCFG0_13
 70
     0
  0
APPID
  2
CONTENTBLOCKICON
 70
     0
  0
APPID
  2
CONTENTBLOCKDESCRIPTION
 70
     0
  0
APPID
  2
ACAD_NAV_VCDISPLAY
 70
     0
  0
ENDTAB
  0
TABLE
  2
DIMSTYLE
 70
     1
  0
DIMSTYLE
  2
STANDARD
 70
     0
  3

  4

  5
_ORIGIN
  6

  7

 40
1.0
 41
12.0
 42
20.0
 43
200.0
 44
20.0
 45
0.0
 46
0.0
 47
0.0
 48
0.0
140
64.0
141
0.09
142
0.0
143
25.399999999999999
144
1.0
145
0.0
146
1.0
147
25.0
 71
     0
 72
     0
 73
     0
 74
     0
 75
     0
 76
     0
 77
     1
 78
     8
170
     0
171
     2
172
     1
173
     0
174
     1
175
     0
176
     7
177
     7
178
     7
  0
ENDTAB
  0
TABLE
  2
VIEW
 70
     1
  0
VIEW
  2
ALL
 70
     0
 40
4282.6198079999986
 10
0.0
 20
41.309904000000003
 41
5940.0
 11
0.0
 21
0.0
 31
1.0
 12
0.0
 22
0.0
 32
0.0
 42
50.0
 43
0.0
 44
0.0
 50
0.0
 71
     0
  0
ENDTAB
  0
TABLE
  2
UCS
 70
     0
  0
ENDTAB
  0
TABLE
  2
VPORT
 70
     1
  0
VPORT
  2
*ACTIVE
 70
     0
 10
0.0
 20
0.0
 11
1.0
 21
1.0
 12
433.01927092603643
 22
218.0557351303932
 13
0.0
 23
0.0
 14
1.0
 24
1.0
 15
0.0
 25
0.0
 16
0.0
 26
0.0
 36
1.0
 17
0.0
 27
0.0
 37
0.0
 40
1297.047249741275
 41
1.798088410991637
 42
50.0
 43
0.0
 44
0.0
 50
0.0
 51
0.0
 71
     0
 72
  1000
 73
     1
 74
     3
 75
     0
 76
     0
 77
     0
 78
     0
  0
ENDTAB
  0
ENDSEC
  0
SECTION
  2
BLOCKS
  0
BLOCK
  8
0
  2
_ORIGIN
 70
     0
 10
0.0
 20
0.0
 30
0.0
  3
_ORIGIN
  1
_ORIGIN
  0
CIRCLE
  8
0
  6
CONTINUOUS
 62
     7
 10
0.0
 20
0.0
 30
0.0
 40
0.5
  0
LINE
  8
0
  6
CONTINUOUS
 62
     7
 10
0.0
 20
0.0
 30
0.0
 11
-1.0
 21
0.0
 31
0.0
  0
ENDBLK
  8
0
  0
ENDSEC
  0
SECTION
  2
ENTITIES
  0
LINE
  8
SIZE
  6
CONTINUOUS
 62
    30
 10
-386.37032399999958
 20
-2.000000000000171
 30
0.0
 11
-386.37032399999958
 21
187.5329169999998
 31
0.0
  0
LINE
  8
SIZE
  6
CONTINUOUS
 62
    30
 10
886.78675599999974
 20
-152.9999999999998
 30
0.0
 11
886.78675599999974
 21
-311.148146
 31
0.0
  0
LINE
  8
SIZE
  6
CONTINUOUS
 62
    30
 10
886.78675599999974
 20
-2.000000000000171
 30
0.0
 11
886.78675599999974
 21
172.55668999999941
 31
0.0
  0
LINE
  8
SIZE
  6
CONTINUOUS
 62
    30
 10
-534.1096049515877
 20
30.0
 30
0.0
 11
-534.1096049515877
 21
182.7008289999998
 31
0.0
  0
LINE
  8
BASIS
  6
DASHDOT
 62
     6
 10
-1.75361396992048
 20
-90.999999999999943
 30
0.0
 11
352.71045778001991
 21
-90.999999999999943
 31
0.0
  0
LINE
  8
DETAIL
  6
CONTINUOUS
 62
     5
 10
0.0
 20
0.0
 30
0.0
 11
484.99999999999949
 21
0.0
 31
0.0
  0
LINE
  8
DETAIL
  6
CONTINUOUS
 62
     5
 10
0.0
 20
-189.9999999999998
 30
0.0
 11
484.99999999999949
 21
-189.9999999999998
 31
0.0
  0
LINE
  8
DETAIL
  6
CONTINUOUS
 62
     5
 10
0.0
 20
30.0
 30
0.0
 11
0.0
 21
0.0
 31
0.0
  0
LINE
  8
DETAIL
  6
CONTINUOUS
 62
     5
 10
-6.0
 20
30.0
 30
0.0
 11
0.0
 21
30.0
 31
0.0
  0
LINE
  8
DETAIL
  6
CONTINUOUS
 62
     5
 10
580.0
 20
-109.9999999999996
 30
0.0
 11
580.0
 21
-167.9999999999996
 31
0.0
  0
CIRCLE
  8
ARRANGE
  6
CONTINUOUS
 62
     1
 10
0.0
 20
0.0
 30
0.0
 40
40.0
  0
LINE
  8
DETAIL
  6
CONTINUOUS
 62
     5
 10
0.0
 20
0.0
 30
0.0
 11
0.0
 21
-189.9999999999998
 31
0.0
  0
LINE
  8
DETAIL
  6
CONTINUOUS
 62
     5
 10
580.0
 20
-109.9999999999996
 30
0.0
 11
580.0
 21
-180.9999999999998
 31
0.0
  0
LINE
  8
DETAIL
  6
CONTINUOUS
 62
     5
 10
484.99999999999949
 20
0.0
 30
0.0
 11
580.0
 21
-109.9999999999996
 31
0.0
  0
LINE
  8
DETAIL
  6
CONTINUOUS
 62
     5
 10
580.0
 20
-180.9999999999998
 30
0.0
 11
484.99999999999949
 21
-189.9999999999998
 31
0.0
  0
LINE
  8
DETAIL
  6
CONTINUOUS
 62
     5
 10
-6.0
 20
30.0
 30
0.0
 11
-6.0
 21
-174.9999999999998
 31
0.0
  0
LINE
  8
DETAIL
  6
CONTINUOUS
 62
     5
 10
-6.0
 20
-174.9999999999998
 30
0.0
 11
0.0
 21
-174.9999999999998
 31
0.0
  0
LINE
  8
SIZE
  6
CONTINUOUS
 62
    30
 10
578.0
 20
654.91303499999958
 30
0.0
 11
742.57775599999923
 21
654.91303499999958
 31
0.0
  0
LINE
  8
NOTE
  6
CONTINUOUS
 62
     4
 10
350.99999999999977
 20
0.0
 30
0.0
 11
712.63922899999966
 21
363.94510399999967
 31
0.0
  0
LINE
  8
NOTE
  6
CONTINUOUS
 62
     4
 10
712.63922899999966
 20
363.94510399999967
 30
0.0
 11
1167.605
 21
363.94510399999967
 31
0.0
  0
TEXT
  8
NOTE
  6
CONTINUOUS
 62
     4
 10
716.71492899999976
 20
394.65959600000002
 30
0.0
 40
64.0
  1
AH 4-φ10
 41
0.9
  0
CIRCLE
  8
FIX
  6
CONTINUOUS
 62
    11
 10
350.99999999999977
 20
0.0
 30
0.0
 40
5.0
  0
CIRCLE
  8
FIX
  6
CONTINUOUS
 62
    11
 10
15.0
 20
0.0
 30
0.0
 40
5.0
  0
LINE
  8
SIZE
  6
CONTINUOUS
 62
    30
 10
-20.0
 20
0.0
 30
0.0
 11
-416.37032399999998
 21
0.0
 31
0.0
  0
LINE
  8
SIZE
  6
CONTINUOUS
 62
    30
 10
-20.0
 20
-189.9999999999998
 30
0.0
 11
-572.32406062603582
 21
-189.9999999999998
 31
0.0
  0
LINE
  8
SIZE
  6
CONTINUOUS
 62
    30
 10
-534.1096049515877
 20
6.0
 30
0.0
 11
-534.1096049515877
 21
-95.0
 31
0.0
  0
LINE
  8
SIZE
  6
CONTINUOUS
 62
    30
 10
-534.1096049515877
 20
-189.9999999999998
 30
0.0
 11
-534.1096049515877
 21
-95.0
 31
0.0
  0
TEXT
  8
SIZE
  6
CONTINUOUS
 62
    30
 10
-566.10960495158793
 20
-163.57142899999971
 30
0.0
 40
64.0
  1
190
 50
90.0
 41
0.9
  0
LINE
  8
SIZE
  6
CONTINUOUS
 62
    30
 10
-26.0
 20
30.0
 30
0.0
 11
-572.32406062603582
 21
30.0
 31
0.0
  0
LINE
  8
SIZE
  6
CONTINUOUS
 62
    30
 10
-20.0
 20
0.0
 30
0.0
 11
-572.32406062603582
 21
0.0
 31
0.0
  0
LINE
  8
SIZE
  6
CONTINUOUS
 62
    30
 10
-534.1096049515877
 20
-2.000000000000171
 30
0.0
 11
-534.1096049515877
 21
-4.0
 31
0.0
  0
LINE
  8
SIZE
  6
CONTINUOUS
 62
    30
 10
-534.1096049515877
 20
32.0
 30
0.0
 11
-534.1096049515877
 21
34.0
 31
0.0
  0
LINE
  8
SIZE
  6
CONTINUOUS
 62
    30
 10
-534.1096049515877
 20
0.0
 30
0.0
 11
-534.1096049515877
 21
30.0
 31
0.0
  0
TEXT
  8
SIZE
  6
CONTINUOUS
 62
    30
 10
-566.10960495158793
 20
74.130813999999873
 30
0.0
 40
64.0
  1
30
 50
90.0
 41
0.9
  0
LINE
  8
SIZE
  6
CONTINUOUS
 62
    30
 10
-20.0
 20
0.0
 30
0.0
 11
-292.45754799999992
 21
0.0
 31
0.0
  0
LINE
  8
SIZE
  6
CONTINUOUS
 62
    30
 10
-27.3159283187033
 20
-90.999999999999943
 30
0.0
 11
-418.86795075005188
 21
-90.999999999999943
 31
0.0
  0
LINE
  8
SIZE
  6
CONTINUOUS
 62
    30
 10
-386.37032399999958
 20
-2.000000000000171
 30
0.0
 11
-386.37032399999958
 21
-45.500000000000107
 31
0.0
  0
LINE
  8
SIZE
  6
CONTINUOUS
 62
    30
 10
-386.37032399999958
 20
-90.999999999999943
 30
0.0
 11
-386.37032399999958
 21
-45.500000000000107
 31
0.0
  0
TEXT
  8
SIZE
  6
CONTINUOUS
 62
    30
 10
-408.88114277064972
 20
79.387502999999981
 30
0.0
 40
64.0
  1
91
 50
90.0
 41
0.9
  0
LINE
  8
SIZE
  6
CONTINUOUS
 62
    30
 10
600.0
 20
-109.9999999999996
 30
0.0
 11
916.78675599999974
 21
-109.9999999999996
 31
0.0
  0
LINE
  8
SIZE
  6
CONTINUOUS
 62
    30
 10
600.0
 20
-180.9999999999998
 30
0.0
 11
916.78675599999974
 21
-180.9999999999998
 31
0.0
  0
LINE
  8
SIZE
  6
CONTINUOUS
 62
    30
 10
886.78675599999974
 20
-103.9999999999996
 30
0.0
 11
886.78675599999974
 21
-145.4999999999998
 31
0.0
  0
LINE
  8
SIZE
  6
CONTINUOUS
 62
    30
 10
886.78675599999974
 20
-178.9999999999998
 30
0.0
 11
886.78675599999974
 21
-145.4999999999998
 31
0.0
  0
TEXT
  8
SIZE
  6
CONTINUOUS
 62
    30
 10
854.78675599999997
 20
-281.64004199999988
 30
0.0
 40
64.0
  1
71
 50
90.0
 41
0.9
  0
LINE
  8
SIZE
  6
CONTINUOUS
 62
    30
 10
505.0
 20
0.0
 30
0.0
 11
917.22889499999974
 21
0.0
 31
0.0
  0
LINE
  8
SIZE
  6
CONTINUOUS
 62
    30
 10
600.0
 20
-109.9999999999996
 30
0.0
 11
917.22889499999974
 21
-109.9999999999996
 31
0.0
  0
LINE
  8
SIZE
  6
CONTINUOUS
 62
    30
 10
887.22889499999974
 20
-111.9999999999996
 30
0.0
 11
887.22889499999974
 21
-113.9999999999999
 31
0.0
  0
LINE
  8
SIZE
  6
CONTINUOUS
 62
    30
 10
887.22889499999974
 20
1.999999999999829
 30
0.0
 11
887.22889499999974
 21
4.0
 31
0.0
  0
LINE
  8
SIZE
  6
CONTINUOUS
 62
    30
 10
887.22889499999974
 20
-109.9999999999996
 30
0.0
 11
887.22889499999974
 21
0.0
 31
0.0
  0
TEXT
  8
SIZE
  6
CONTINUOUS
 62
    30
 10
855.22889499999974
 20
24.510344000000028
 30
0.0
 40
64.0
  1
110
 50
90.0
 41
0.9
  0
LINE
  8
SIZE
  6
CONTINUOUS
 62
    30
 10
0.0
 20
50.0
 30
0.0
 11
0.0
 21
450.0407349999997
 31
0.0
  0
LINE
  8
SIZE
  6
CONTINUOUS
 62
    30
 10
426.99999999999949
 20
40.0
 30
0.0
 11
426.99999999999949
 21
571.71236052197935
 31
0.0
  0
LINE
  8
SIZE
  6
CONTINUOUS
 62
    30
 10
0.0
 20
542.8505229999995
 30
0.0
 11
426.99999999999949
 21
542.8505229999995
 31
0.0
  0
TEXT
  8
SIZE
  6
CONTINUOUS
 62
    30
 10
139.44285699999949
 20
565.52538191178655
 30
0.0
 40
64.0
  1
427
 41
0.9
  0
LINE
  8
SIZE
  6
CONTINUOUS
 62
    30
 10
0.0
 20
50.0
 30
0.0
 11
0.0
 21
327.23094699999962
 31
0.0
  0
LINE
  8
SIZE
  6
CONTINUOUS
 62
    30
 10
350.99999999999977
 20
40.0
 30
0.0
 11
350.99999999999977
 21
447.32182405366228
 31
0.0
  0
LINE
  8
SIZE
  6
CONTINUOUS
 62
    30
 10
-126.15686491318959
 20
420.04073499999981
 30
0.0
 11
350.99999999999977
 21
420.04073499999981
 31
0.0
  0
TEXT
  8
SIZE
  6
CONTINUOUS
 62
    30
 10
95.314285999999925
 20
442.83882341343798
 30
0.0
 40
64.0
  1
336
 41
0.9
  0
LINE
  8
SIZE
  6
CONTINUOUS
 62
    30
 10
0.0
 20
50.0
 30
0.0
 11
0.0
 21
212.1962119999998
 31
0.0
  0
LINE
  8
SIZE
  6
CONTINUOUS
 62
    30
 10
0.0
 20
50.0
 30
0.0
 11
0.0
 21
96.941718000000037
 31
0.0
  0
LINE
  8
SIZE
  6
CONTINUOUS
 62
    30
 10
15.0
 20
40.0
 30
0.0
 11
15.0
 21
447.32182405366228
 31
0.0
  0
TEXT
  8
SIZE
  6
CONTINUOUS
 62
    30
 10
-121.04440870932559
 20
442.83882341343798
 30
0.0
 40
64.0
  1
15
 41
0.9
  0
LINE
  8
SIZE
  6
CONTINUOUS
 62
    30
 10
484.99999999999949
 20
19.99999999999989
 30
0.0
 11
484.99999999999949
 21
562.10324699999967
 31
0.0
  0
LINE
  8
SIZE
  6
CONTINUOUS
 62
    30
 10
0.0
 20
50.0
 30
0.0
 11
0.0
 21
562.10324699999967
 31
0.0
  0
LINE
  8
SIZE
  6
CONTINUOUS
 62
    30
 10
487.0
 20
654.91303499999958
 30
0.0
 11
242.4999999999998
 21
654.91303499999958
 31
0.0
  0
LINE
  8
SIZE
  6
CONTINUOUS
 62
    30
 10
0.0
 20
654.91303499999958
 30
0.0
 11
242.4999999999998
 21
654.91303499999958
 31
0.0
  0
TEXT
  8
SIZE
  6
CONTINUOUS
 62
    30
 10
168.4428569999998
 20
679.69204058369905
 30
0.0
 40
64.0
  1
485
 41
0.9
  0
LINE
  8
SIZE
  6
CONTINUOUS
 62
    30
 10
580.0
 20
-90.0
 30
0.0
 11
580.0
 21
562.10324699999967
 31
0.0
  0
LINE
  8
SIZE
  6
CONTINUOUS
 62
    30
 10
484.99999999999949
 20
19.99999999999989
 30
0.0
 11
484.99999999999949
 21
685.87902418219051
 31
0.0
  0
LINE
  8
SIZE
  6
CONTINUOUS
 62
    30
 10
578.0
 20
654.91303499999958
 30
0.0
 11
532.5
 21
654.91303499999958
 31
0.0
  0
LINE
  8
SIZE
  6
CONTINUOUS
 62
    30
 10
487.0
 20
654.91303499999958
 30
0.0
 11
532.5
 21
654.91303499999958
 31
0.0
  0
TEXT
  8
SIZE
  6
CONTINUOUS
 62
    30
 10
612.1920769999997
 20
677.98806261373124
 30
0.0
 40
64.0
  1
95
 41
0.9
  0
LINE
  8
SIZE
  6
CONTINUOUS
 62
    30
 10
-6.0
 20
50.0
 30
0.0
 11
-6.0
 21
201.94870206866599
 31
0.0
  0
LINE
  8
SIZE
  6
CONTINUOUS
 62
    30
 10
0.0
 20
50.0
 30
0.0
 11
0.0
 21
96.941716999999926
 31
0.0
  0
TEXT
  8
SIZE
  6
CONTINUOUS
 62
    30
 10
-80.957112999999936
 20
198.84308758178989
 30
0.0
 40
64.0
  1
6
 41
0.9
  0
LINE
  8
SIZE
  6
CONTINUOUS
 62
    30
 10
0.0
 20
50.0
 30
0.0
 11
0.0
 21
805.15762175230384
 31
0.0
  0
LINE
  8
SIZE
  6
CONTINUOUS
 62
    30
 10
580.0
 20
-90.0
 30
0.0
 11
580.0
 21
805.15762175230384
 31
0.0
  0
LINE
  8
SIZE
  6
CONTINUOUS
 62
    30
 10
0.0
 20
775.0065979999988
 30
0.0
 11
289.99999999999977
 21
775.0065979999988
 31
0.0
  0
LINE
  8
SIZE
  6
CONTINUOUS
 62
    30
 10
580.0
 20
775.00659799999971
 30
0.0
 11
289.99999999999977
 21
775.0065979999988
 31
0.0
  0
TEXT
  8
SIZE
  6
CONTINUOUS
 62
    30
 10
215.94285699999969
 20
797.86899727857326
 30
0.0
 40
64.0
  1
580
 41
0.9
  0
CIRCLE
  8
SIZE
  6
CONTINUOUS
 62
    30
 10
580.0
 20
775.0065979999988
 30
0.0
 40
6.0
  0
CIRCLE
  8
SIZE
  6
CONTINUOUS
 62
    30
 10
0.0
 20
775.0065979999988
 30
0.0
 40
6.0
  0
CIRCLE
  8
SIZE
  6
CONTINUOUS
 62
    30
 10
484.99999999999949
 20
654.91303499999958
 30
0.0
 40
6.0
  0
CIRCLE
  8
SIZE
  6
CONTINUOUS
 62
    30
 10
580.0
 20
654.91303499999958
 30
0.0
 40
6.0
  0
CIRCLE
  8
SIZE
  6
CONTINUOUS
 62
    30
 10
0.0
 20
654.91303499999958
 30
0.0
 40
6.0
  0
CIRCLE
  8
SIZE
  6
CONTINUOUS
 62
    30
 10
484.99999999999949
 20
654.91303499999958
 30
0.0
 40
6.0
  0
CIRCLE
  8
SIZE
  6
CONTINUOUS
 62
    30
 10
350.99999999999977
 20
420.04073499999981
 30
0.0
 40
6.0
  0
CIRCLE
  8
SIZE
  6
CONTINUOUS
 62
    30
 10
0.0
 20
420.04073499999981
 30
0.0
 40
6.0
  0
CIRCLE
  8
SIZE
  6
CONTINUOUS
 62
    30
 10
426.99999999999949
 20
542.8505229999995
 30
0.0
 40
6.0
  0
CIRCLE
  8
SIZE
  6
CONTINUOUS
 62
    30
 10
0.0
 20
542.8505229999995
 30
0.0
 40
6.0
  0
CIRCLE
  8
SIZE
  6
CONTINUOUS
 62
    30
 10
887.22889499999974
 20
0.0
 30
0.0
 40
6.0
  0
CIRCLE
  8
SIZE
  6
CONTINUOUS
 62
    30
 10
887.22889499999974
 20
-109.9999999999996
 30
0.0
 40
6.0
  0
CIRCLE
  8
SIZE
  6
CONTINUOUS
 62
    30
 10
886.78675599999974
 20
-180.9999999999998
 30
0.0
 40
6.0
  0
CIRCLE
  8
SIZE
  6
CONTINUOUS
 62
    30
 10
886.78675599999974
 20
-109.9999999999996
 30
0.0
 40
6.0
  0
CIRCLE
  8
SIZE
  6
CONTINUOUS
 62
    30
 10
-386.37032399999958
 20
-90.999999999999943
 30
0.0
 40
6.0
  0
CIRCLE
  8
SIZE
  6
CONTINUOUS
 62
    30
 10
-386.37032399999958
 20
0.0
 30
0.0
 40
6.0
  0
CIRCLE
  8
SIZE
  6
CONTINUOUS
 62
    30
 10
-534.1096049515877
 20
30.0
 30
0.0
 40
6.0
  0
CIRCLE
  8
SIZE
  6
CONTINUOUS
 62
    30
 10
-534.1096049515877
 20
0.0
 30
0.0
 40
6.0
  0
CIRCLE
  8
SIZE
  6
CONTINUOUS
 62
    30
 10
-534.1096049515877
 20
-189.9999999999998
 30
0.0
 40
6.0
  0
CIRCLE
  8
SIZE
  6
CONTINUOUS
 62
    30
 10
-534.1096049515877
 20
0.0
 30
0.0
 40
6.0
  0
LINE
  8
NOTE
  6
CONTINUOUS
 62
     4
 10
426.99999999999949
 20
-20.0
 30
0.0
 11
426.99999999999949
 21
19.99999999999989
 31
0.0
  0
LINE
  8
NOTE
  6
CONTINUOUS
 62
     4
 10
447.0
 20
0.0
 30
0.0
 11
406.99999999999977
 21
0.0
 31
0.0
  0
LINE
  8
NOTE
  6
CONTINUOUS
 62
     4
 10
15.0
 20
-20.0
 30
0.0
 11
15.0
 21
19.99999999999989
 31
0.0
  0
LINE
  8
NOTE
  6
CONTINUOUS
 62
     4
 10
34.999999999999773
 20
0.0
 30
0.0
 11
-5.0
 21
0.0
 31
0.0
  0
LINE
  8
NOTE
  6
CONTINUOUS
 62
     4
 10
350.99999999999977
 20
-20.0
 30
0.0
 11
350.99999999999977
 21
19.99999999999989
 31
0.0
  0
LINE
  8
NOTE
  6
CONTINUOUS
 62
     4
 10
371.0
 20
0.0
 30
0.0
 11
330.99999999999977
 21
0.0
 31
0.0
  0
LINE
  8
NOTE
  6
CONTINUOUS
 62
     4
 10
384.88724799999977
 20
21.252162999999999
 30
0.0
 11
350.99999999999977
 21
0.0
 31
0.0
  0
LINE
  8
NOTE
  6
CONTINUOUS
 62
     4
 10
350.99999999999977
 20
0.0
 30
0.0
 11
369.72113599999972
 21
35.348536999999908
 31
0.0
  0
TEXT
  8
ETC
  6
CONTINUOUS
 62
    61
 10
1013.14571368913
 20
590.15799131875565
 30
0.0
 40
50.0
  1
V-316KSW6
 41
0.9
  0
TEXT
  8
ETC
  6
CONTINUOUS
 62
    61
 10
878.94707398435639
 20
771.93638022921004
 30
0.0
 40
64.0
  1
V-316KSW6_5
 41
0.9
  0
TEXT
  8
ETC
  6
CONTINUOUS
 62
    61
 10
887.0516349843565
 20
666.58412322921004
 30
0.0
 40
64.0
  1
換気扇
 41
0.9
  0
LINE
  8
BASIS
  6
DASHDOT1
 62
     6
 10
177.9999999999998
 20
75.04200776493758
 30
0.0
 11
177.9999999999998
 21
-18.62666813232789
 31
0.0
  0
LINE
  8
DETAIL
  6
DIVIDE
 62
     5
 10
32.499999999999893
 20
-40.0
 30
0.0
 11
32.499999999999893
 21
-141.9999999999996
 31
0.0
  0
LINE
  8
DETAIL
  6
DIVIDE
 62
     5
 10
32.499999999999893
 20
-141.9999999999996
 30
0.0
 11
323.49999999999977
 21
-141.9999999999996
 31
0.0
  0
LINE
  8
DETAIL
  6
DIVIDE
 62
     5
 10
323.49999999999977
 20
-141.9999999999996
 30
0.0
 11
323.49999999999977
 21
-40.0
 31
0.0
  0
LINE
  8
DETAIL
  6
CONTINUOUS
 62
     5
 10
32.499999999999893
 20
0.0
 30
0.0
 11
32.499999999999893
 21
46.0
 31
0.0
  0
LINE
  8
DETAIL
  6
CONTINUOUS
 62
     5
 10
32.499999999999893
 20
46.0
 30
0.0
 11
323.49999999999977
 21
46.0
 31
0.0
  0
LINE
  8
DETAIL
  6
CONTINUOUS
 62
     5
 10
323.49999999999977
 20
46.0
 30
0.0
 11
323.49999999999977
 21
0.0
 31
0.0
  0
LINE
  8
BASIS
  6
DASHDOT
 62
     6
 10
177.9999999999998
 20
-27.141998676953559
 30
0.0
 11
177.9999999999998
 21
-161.68428213927481
 31
0.0
  0
LINE
  8
SIZE
  6
CONTINUOUS
 62
    30
 10
32.499999999999893
 20
65.999999999999886
 30
0.0
 11
32.499999999999893
 21
327.37158311773652
 31
0.0
  0
LINE
  8
SIZE
  6
CONTINUOUS
 62
    30
 10
323.49999999999977
 20
65.999999999999886
 30
0.0
 11
323.49999999999977
 21
327.37158311773652
 31
0.0
  0
LINE
  8
SIZE
  6
CONTINUOUS
 62
    30
 10
32.499999999999893
 20
297.37158311773652
 30
0.0
 11
323.49999999999977
 21
297.37158311773652
 31
0.0
  0
LINE
  8
SIZE
  6
CONTINUOUS
 62
    30
 10
177.9999999999998
 20
99.387502999999924
 30
0.0
 11
177.9999999999998
 21
207.4970534287088
 31
0.0
  0
LINE
  8
SIZE
  6
CONTINUOUS
 62
    30
 10
0.0
 20
168.61547349999981
 30
0.0
 11
0.0
 21
147.49705342870911
 31
0.0
  0
LINE
  8
SIZE
  6
CONTINUOUS
 62
    30
 10
177.9999999999998
 20
177.49705342870931
 30
0.0
 11
-94.045202917752249
 21
177.49705342870931
 31
0.0
  0
TEXT
  8
SIZE
  6
CONTINUOUS
 62
    30
 10
116.28571428571379
 20
317.37158311773652
 30
0.0
 40
64.0
  1
291
 41
0.9
  0
TEXT
  8
SIZE
  6
CONTINUOUS
 62
    30
 10
54.295701073733539
 20
197.49705342870911
 30
0.0
 40
64.0
  1
178
 41
0.9
  0
CIRCLE
  8
SIZE
  6
CONTINUOUS
 62
    30
 10
15.0
 20
420.04073499999981
 30
0.0
 40
6.0
  0
CIRCLE
  8
SIZE
  6
CONTINUOUS
 62
    30
 10
32.499999999999893
 20
297.37158311773652
 30
0.0
 40
6.0
  0
CIRCLE
  8
SIZE
  6
CONTINUOUS
 62
    30
 10
323.49999999999977
 20
297.37158311773652
 30
0.0
 40
6.0
  0
CIRCLE
  8
SIZE
  6
CONTINUOUS
 62
    30
 10
177.9999999999998
 20
177.49705342870931
 30
0.0
 40
6.0
  0
CIRCLE
  8
SIZE
  6
CONTINUOUS
 62
    30
 10
0.0
 20
177.49705342870931
 30
0.0
 40
6.0
  0
CIRCLE
  8
SIZE
  6
CONTINUOUS
 62
    30
 10
-6.0
 20
177.49705342870931
 30
0.0
 40
6.0
  0
CIRCLE
  8
SIZE
  6
CONTINUOUS
 62
    30
 10
-221.0800732064925
 20
46.000000000000107
 30
0.0
 40
6.0
  0
CIRCLE
  8
SIZE
  6
CONTINUOUS
 62
    30
 10
-221.0800732064925
 20
0.0
 30
0.0
 40
6.0
  0
LINE
  8
SIZE
  6
CONTINUOUS
 62
    30
 10
12.5
 20
46.0
 30
0.0
 11
-251.08007320649239
 21
46.000000000000107
 31
0.0
  0
LINE
  8
SIZE
  6
CONTINUOUS
 62
    30
 10
-238.18516199999991
 20
0.0
 30
0.0
 11
-251.08007320649239
 21
0.0
 31
0.0
  0
LINE
  8
SIZE
  6
CONTINUOUS
 62
    30
 10
-221.0800732064925
 20
46.000000000000107
 30
0.0
 11
-221.0800732064925
 21
0.0
 31
0.0
  0
LINE
  8
SIZE
  6
CONTINUOUS
 62
    30
 10
-221.0800732064925
 20
181.06842604130159
 30
0.0
 11
-221.0800732064925
 21
46.000000000000107
 31
0.0
  0
TEXT
  8
SIZE
  6
CONTINUOUS
 62
    30
 10
-241.08007320649261
 20
65.197784411122313
 30
0.0
 40
64.0
  1
46
 50
90.0
 41
0.9
  0
TEXT
  8
NOTE
  6
CONTINUOUS
 62
     4
 10
567.41450397084191
 20
-401.69273483850787
 30
0.0
 40
64.0
  1
排気口半抜き
 41
0.9
  0
LINE
  8
NOTE
  6
CONTINUOUS
 62
     4
 10
296.8275802613764
 20
-138.92412747697099
 30
0.0
 11
543.54355752165952
 21
-425.54845567899241
 31
0.0
1001
ACAD
1000
DSTYLE
1002
{
1070
    41
1040
40.0
1070
    42
1040
20.0
1070
    43
1040
200.0
1070
    44
1040
30.0
1070
    73
1070
     0
1070
    74
1070
     0
1070
    77
1070
     0
1070
    78
1070
     8
1070
   140
1040
64.0
1070
   147
1040
20.0
1070
   172
1070
     1
1070
   174
1070
     1
1070
   176
1070
   256
1070
   177
1070
   256
1070
   178
1070
   256
1002
}
  0
LINE
  8
NOTE
  6
CONTINUOUS
 62
     4
 10
288.70444578878408
 20
-145.91623129591051
 30
0.0
 11
270.73269332053661
 21
-108.6081766334829
 31
0.0
  0
LINE
  8
NOTE
  6
CONTINUOUS
 62
     4
 10
270.73269332053661
 20
-108.6081766334829
 30
0.0
 11
304.95071473396888
 21
-131.93202365803151
 31
0.0
  0
LINE
  8
NOTE
  6
CONTINUOUS
 62
     4
 10
270.73269332053661
 20
-108.6081766334829
 30
0.0
 11
296.8275802613764
 21
-138.92412747697099
 31
0.0
  0
LINE
  8
NOTE
  6
CONTINUOUS
 62
     4
 10
543.54355752165952
 20
-425.54845567899241
 30
0.0
 11
990.27135181941594
 21
-425.54845567899241
 31
0.0
  0
LINE
  8
ARRANGE
  6
CONTINUOUS
 62
     1
 10
-14.142135623730949
 20
-14.142135623730949
 30
0.0
 11
14.142135623730949
 21
14.142135623730949
 31
0.0
  0
LINE
  8
ARRANGE
  6
CONTINUOUS
 62
     1
 10
-14.142135623730949
 20
14.142135623730949
 30
0.0
 11
14.142135623730949
 21
-14.142135623730949
 31
0.0
  0
LINE
  8
OUTLINE
  6
CONTINUOUS
 62
     3
 10
0.0
 20
-190.0
 30
0.0
 11
484.99999999999949
 21
-190.0
 31
0.0
  0
LINE
  8
OUTLINE
  6
CONTINUOUS
 62
     3
 10
0.0
 20
0.0
 30
0.0
 11
32.5
 21
0.0
 31
0.0
  0
LINE
  8
OUTLINE
  6
CONTINUOUS
 62
     3
 10
323.49999999999977
 20
0.0
 30
0.0
 11
484.99999999999949
 21
0.0
 31
0.0
  0
LINE
  8
OUTLINE
  6
CONTINUOUS
 62
     3
 10
0.0
 20
-175.0
 30
0.0
 11
0.0
 21
-190.0
 31
0.0
  0
LINE
  8
OUTLINE
  6
CONTINUOUS
 62
     3
 10
484.99999999999949
 20
0.0
 30
0.0
 11
580.0
 21
-110.0
 31
0.0
  0
LINE
  8
OUTLINE
  6
CONTINUOUS
 62
     3
 10
580.0
 20
-110.0
 30
0.0
 11
580.0
 21
-181.0
 31
0.0
  0
LINE
  8
OUTLINE
  6
CONTINUOUS
 62
     3
 10
580.0
 20
-181.0
 30
0.0
 11
484.99999999999949
 21
-190.0
 31
0.0
  0
LINE
  8
OUTLINE
  6
CONTINUOUS
 62
     3
 10
0.0
 20
30.0
 30
0.0
 11
0.0
 21
0.0
 31
0.0
  0
LINE
  8
OUTLINE
  6
CONTINUOUS
 62
     3
 10
-6.0
 20
30.0
 30
0.0
 11
0.0
 21
30.0
 31
0.0
  0
LINE
  8
OUTLINE
  6
CONTINUOUS
 62
     3
 10
-6.0
 20
30.0
 30
0.0
 11
-6.0
 21
-175.0
 31
0.0
  0
LINE
  8
OUTLINE
  6
CONTINUOUS
 62
     3
 10
-6.0
 20
-175.0
 30
0.0
 11
0.0
 21
-175.0
 31
0.0
  0
LINE
  8
OUTLINE
  6
CONTINUOUS
 62
     3
 10
323.49999999999977
 20
0.0
 30
0.0
 11
323.49999999999977
 21
46.0
 31
0.0
  0
LINE
  8
OUTLINE
  6
CONTINUOUS
 62
     3
 10
323.49999999999977
 20
46.0
 30
0.0
 11
32.5
 21
46.0
 31
0.0
  0
LINE
  8
OUTLINE
  6
CONTINUOUS
 62
     3
 10
32.5
 20
46.0
 30
0.0
 11
32.5
 21
0.0
 31
0.0
  0
ENDSEC
  0
EOF
