  0
SECTION
  2
HEADER
  9
$ACADVER
  1
AC1009
  9
$INSBASE
 10
0.0
 20
0.0
 30
0.0
  9
$EXTMIN
 10
-896.57590433091184
 20
-551.5273881395442
 30
-0.0015258207003583
  9
$EXTMAX
 10
1072.1740881821279
 20
529.77448608699888
 30
0.0000000349246037
  9
$LIMMIN
 10
-4200.0
 20
-2970.0
  9
$LIMMAX
 10
4200.0
 20
2970.0
  9
$ORTHOMODE
 70
     1
  9
$REGENMODE
 70
     0
  9
$FILLMODE
 70
     1
  9
$QTEXTMODE
 70
     0
  9
$MIRRTEXT
 70
     0
  9
$DRAGMODE
 70
     2
  9
$LTSCALE
 40
20.0
  9
$OSMODE
 70
    36
  9
$ATTMODE
 70
     1
  9
$TEXTSIZE
 40
64.0
  9
$TRACEWID
 40
0.05
  9
$TEXTSTYLE
  7
STANDARD
  9
$CLAYER
  8
NOTE
  9
$CELTYPE
  6
CONTINUOUS
  9
$CECOLOR
 62
     4
  9
$DIMSCALE
 40
1.0
  9
$DIMASZ
 40
40.0
  9
$DIMEXO
 40
20.0
  9
$DIMDLI
 40
200.0
  9
$DIMRND
 40
0.0
  9
$DIMDLE
 40
0.0
  9
$DIMEXE
 40
30.0
  9
$DIMTP
 40
0.0
  9
$DIMTM
 40
0.0
  9
$DIMTXT
 40
64.0
  9
$DIMCEN
 40
0.09
  9
$DIMTSZ
 40
0.0
  9
$DIMTOL
 70
     0
  9
$DIMLIM
 70
     0
  9
$DIMTIH
 70
     0
  9
$DIMTOH
 70
     0
  9
$DIMSE1
 70
     0
  9
$DIMSE2
 70
     0
  9
$DIMTAD
 70
     1
  9
$DIMZIN
 70
     8
  9
$DIMBLK
  1
NONE
  9
$DIMASO
 70
     1
  9
$DIMSHO
 70
     0
  9
$DIMPOST
  1

  9
$DIMAPOST
  1

  9
$DIMALT
 70
     0
  9
$DIMALTD
 70
     2
  9
$DIMALTF
 40
25.399999999999999
  9
$DIMLFAC
 40
1.0
  9
$DIMTOFL
 70
     1
  9
$DIMTVP
 40
0.0
  9
$DIMTIX
 70
     1
  9
$DIMSOXD
 70
     0
  9
$DIMSAH
 70
     0
  9
$DIMBLK1
  1

  9
$DIMBLK2
  1

  9
$DIMSTYLE
  2
STANDARD
  9
$DIMCLRD
 70
   256
  9
$DIMCLRE
 70
   256
  9
$DIMCLRT
 70
   256
  9
$DIMTFAC
 40
1.0
  9
$DIMGAP
 40
20.0
  9
$LUNITS
 70
     2
  9
$LUPREC
 70
     4
  9
$SKETCHINC
 40
0.1
  9
$FILLETRAD
 40
0.0
  9
$AUNITS
 70
     1
  9
$AUPREC
 70
     3
  9
$MENU
  1
ACAD
  9
$ELEVATION
 40
0.0
  9
$PELEVATION
 40
0.0
  9
$THICKNESS
 40
0.0
  9
$LIMCHECK
 70
     1
  9
$BLIPMODE
 70
     0
  9
$CHAMFERA
 40
0.0
  9
$CHAMFERB
 40
0.0
  9
$SKPOLY
 70
     0
  9
$TDCREATE
 40
2452040.3946412038
  9
$TDUPDATE
 40
2455051.4906718521
  9
$TDINDWG
 40
0.0278121528
  9
$TDUSRTIMER
 40
0.0278116088
  9
$USRTIMER
 70
     1
  9
$ANGBASE
 50
0.0
  9
$ANGDIR
 70
     0
  9
$PDMODE
 70
     3
  9
$PDSIZE
 40
-2.0
  9
$PLINEWID
 40
0.0
  9
$COORDS
 70
     0
  9
$SPLFRAME
 70
     0
  9
$SPLINETYPE
 70
     6
  9
$SPLINESEGS
 70
     8
  9
$ATTDIA
 70
     0
  9
$ATTREQ
 70
     1
  9
$HANDLING
 70
     1
  9
$HANDSEED
  5
581
  9
$SURFTAB1
 70
     6
  9
$SURFTAB2
 70
     6
  9
$SURFTYPE
 70
     6
  9
$SURFU
 70
     6
  9
$SURFV
 70
     6
  9
$UCSNAME
  2

  9
$UCSORG
 10
0.0
 20
0.0
 30
0.0
  9
$UCSXDIR
 10
1.0
 20
0.0
 30
0.0
  9
$UCSYDIR
 10
0.0
 20
1.0
 30
0.0
  9
$PUCSNAME
  2

  9
$PUCSORG
 10
0.0
 20
0.0
 30
0.0
  9
$PUCSXDIR
 10
1.0
 20
0.0
 30
0.0
  9
$PUCSYDIR
 10
0.0
 20
1.0
 30
0.0
  9
$USERI1
 70
     0
  9
$USERI2
 70
     0
  9
$USERI3
 70
     0
  9
$USERI4
 70
     0
  9
$USERI5
 70
     0
  9
$USERR1
 40
20.0
  9
$USERR2
 40
0.0
  9
$USERR3
 40
0.0
  9
$USERR4
 40
0.0
  9
$USERR5
 40
0.0
  9
$WORLDVIEW
 70
     1
  9
$SHADEDGE
 70
     3
  9
$SHADEDIF
 70
    70
  9
$TILEMODE
 70
     1
  9
$MAXACTVP
 70
    48
  9
$PLIMCHECK
 70
     0
  9
$PEXTMIN
 10
1.0000000000000000E+020
 20
1.0000000000000000E+020
 30
1.0000000000000000E+020
  9
$PEXTMAX
 10
-1.0000000000000000E+020
 20
-1.0000000000000000E+020
 30
-1.0000000000000000E+020
  9
$PLIMMIN
 10
0.0
 20
0.0
  9
$PLIMMAX
 10
12.0
 20
9.0
  9
$UNITMODE
 70
     0
  9
$VISRETAIN
 70
     1
  9
$PLINEGEN
 70
     0
  9
$PSLTSCALE
 70
     1
  0
ENDSEC
  0
SECTION
  2
TABLES
  0
TABLE
  2
VPORT
 70
     1
  0
VPORT
  2
*ACTIVE
 70
     0
 10
0.0
 20
0.0
 11
1.0
 21
1.0
 12
120.320812241699
 22
-133.5101194719534
 13
0.0
 23
0.0
 14
400.0
 24
400.0
 15
400.0
 25
400.0
 16
0.0
 26
0.0
 36
1.0
 17
0.0
 27
0.0
 37
0.0
 40
2573.2813707023588
 41
1.2318059299191371
 42
50.0
 43
0.0
 44
0.0
 50
0.0
 51
0.0
 71
     0
 72
   500
 73
     1
 74
     0
 75
     0
 76
     0
 77
     0
 78
     1
  0
ENDTAB
  0
TABLE
  2
LTYPE
 70
     7
  0
LTYPE
  2
CONTINUOUS
 70
     0
  3
実線
 72
    65
 73
     0
 40
0.0
  0
LTYPE
  2
DOT
 70
     0
  3
...............................................
 72
    65
 73
     2
 40
0.8
 49
0.5
 49
-0.3
  0
LTYPE
  2
DASHED
 70
     0
  3
_ _ _ _ _ _ _ _ _ _ _ _ _ _ _ _ _ _ _ _ _ _ _
 72
    65
 73
     2
 40
2.0
 49
1.1999999999999991
 49
-0.8
  0
LTYPE
  2
DASHDOT
 70
     0
  3
____ _ ____ _ ____ _ ____ _ ____ _ ____ _ ____
 72
    65
 73
     4
 40
5.5
 49
4.0
 49
-0.6
 49
0.3
 49
-0.6
  0
LTYPE
  2
DASHDOT1
 70
     0
  3
____ _ ____ _ ____ _ ____ _ ____ _ ____ _ ____
 72
    65
 73
     4
 40
2.0
 49
1.5
 49
-0.2
 49
0.1
 49
-0.2
  0
LTYPE
  2
DIVIDE
 70
     0
  3
_____ _ _ _____ _ _ _____ _ _ _____ _ _ ____
 72
    65
 73
     6
 40
6.4000000000000004
 49
4.0
 49
-0.6
 49
0.3
 49
-0.6
 49
0.3
 49
-0.6
  0
LTYPE
  2
DIVIDE1
 70
     0
  3
_____ _ _ _____ _ _ _____ _ _ _____ _ _ ____
 72
    65
 73
     6
 40
3.2000000000000002
 49
2.0
 49
-0.3
 49
0.15
 49
-0.3
 49
0.15
 49
-0.3
  0
ENDTAB
  0
TABLE
  2
LAYER
 70
    12
  0
LAYER
  2
0
 70
     0
 62
     7
  6
CONTINUOUS
  0
LAYER
  2
NOTE
 70
     0
 62
     4
  6
CONTINUOUS
  0
LAYER
  2
SIZE
 70
     0
 62
    30
  6
CONTINUOUS
  0
LAYER
  2
OUTLINE
 70
     0
 62
     3
  6
CONTINUOUS
  0
LAYER
  2
DETAIL
 70
     0
 62
     5
  6
CONTINUOUS
  0
LAYER
  2
BASIS
 70
     0
 62
     6
  6
DASHDOT
  0
LAYER
  2
ARRANGE
 70
     0
 62
     1
  6
CONTINUOUS
  0
LAYER
  2
FIX
 70
     0
 62
    11
  6
CONTINUOUS
  0
LAYER
  2
ETC
 70
     0
 62
    61
  6
CONTINUOUS
  0
LAYER
  2
DEFPOINTS
 70
     0
 62
     7
  6
CONTINUOUS
  0
LAYER
  2
SERVICESPACE
 70
     0
 62
     2
  6
DASHDOT
  0
LAYER
  2
SYMBOLLINE
 70
     0
 62
    15
  6
CONTINUOUS
  0
ENDTAB
  0
TABLE
  2
STYLE
 70
     2
  0
STYLE
  2
STANDARD
 70
     0
 40
0.0
 41
0.9
 50
0.0
 71
     0
 42
64.0
  3
SIMPLEX
  4
BIGFONT
  0
STYLE
  2
ANNOTATIVE
 70
     0
 40
0.0
 41
1.0
 50
0.0
 71
     0
 42
0.2
  3
txt
  4

  0
ENDTAB
  0
TABLE
  2
VIEW
 70
     1
  0
VIEW
  2
ALL
 70
     0
 40
6374.9789810000002
 10
0.0
 20
58.11501599999999
 41
8842.1052629999976
 11
0.0
 21
0.0
 31
1.0
 12
0.0
 22
0.0
 32
0.0
 42
50.0
 43
0.0
 44
0.0
 50
0.0
 71
     0
  0
ENDTAB
  0
TABLE
  2
UCS
 70
     0
  0
ENDTAB
  0
TABLE
  2
APPID
 70
     3
  0
APPID
  2
ACAD
 70
     0
  0
APPID
  2
ACADANNOTATIVE
 70
     0
  0
APPID
  2
ACAD_MLEADERVER
 70
     0
  0
ENDTAB
  0
TABLE
  2
DIMSTYLE
 70
     2
  0
DIMSTYLE
  2
STANDARD
 70
     0
  3

  4

  5

  6

  7

 40
1.0
 41
0.18
 42
0.0625
 43
0.38
 44
0.18
 45
0.0
 46
0.0
 47
0.0
 48
0.0
140
0.18
141
0.09
142
0.0
143
25.399999999999999
144
1.0
145
0.0
146
1.0
147
0.09
 71
     0
 72
     0
 73
     1
 74
     1
 75
     0
 76
     0
 77
     0
 78
     0
170
     0
171
     2
172
     0
173
     0
174
     0
175
     0
176
     0
177
     0
178
     0
  0
DIMSTYLE
  2
ANNOTATIVE
 70
     0
  3

  4

  5

  6

  7

 40
1.0
 41
0.18
 42
0.0625
 43
0.38
 44
0.18
 45
0.0
 46
0.0
 47
0.0
 48
0.0
140
0.18
141
0.09
142
0.0
143
25.399999999999999
144
1.0
145
0.0
146
1.0
147
0.09
 71
     0
 72
     0
 73
     1
 74
     1
 75
     0
 76
     0
 77
     0
 78
     0
170
     0
171
     2
172
     0
173
     0
174
     0
175
     0
176
     0
177
     0
178
     0
  0
ENDTAB
  0
ENDSEC
  0
SECTION
  2
BLOCKS
  0
BLOCK
  8
0
  2
$MODEL_SPACE
 70
     0
 10
0.0
 20
0.0
 30
0.0
  3
$MODEL_SPACE
  1

  0
ENDBLK
  5
529
  8
0
  0
BLOCK
 67
     1
  8
0
  2
$PAPER_SPACE
 70
     0
 10
0.0
 20
0.0
 30
0.0
  3
$PAPER_SPACE
  1

  0
ENDBLK
  5
525
 67
     1
  8
0
  0
BLOCK
  8
0
 62
    30
  2
_NONE
 70
     0
 10
0.0
 20
0.0
 30
0.0
  3
_NONE
  1

  0
ENDBLK
  5
3BD
  8
0
 62
    30
  0
BLOCK
  8
0
 62
    30
  2
_OPEN30
 70
     0
 10
0.0
 20
0.0
 30
0.0
  3
_OPEN30
  1

  0
LINE
  5
3C0
  8
0
  6
BYBLOCK
 62
     0
 10
-1.0
 20
0.26794919
 30
0.0
 11
0.0
 21
0.0
 31
0.0
  0
LINE
  5
3C1
  8
0
  6
BYBLOCK
 62
     0
 10
0.0
 20
0.0
 30
0.0
 11
-1.0
 21
-0.26794919
 31
0.0
  0
LINE
  5
3C2
  8
0
  6
BYBLOCK
 62
     0
 10
0.0
 20
0.0
 30
0.0
 11
-1.0
 21
0.0
 31
0.0
  0
ENDBLK
  5
3C3
  8
0
 62
    30
  0
ENDSEC
  0
SECTION
  2
ENTITIES
  0
LINE
  5
3C4
  8
NOTE
  6
CONTINUOUS
 62
     4
 10
-250.0
 20
-7.0
 30
0.0
 11
-250.0
 21
53.0
 31
0.0
  0
LINE
  5
3C5
  8
NOTE
  6
CONTINUOUS
 62
     4
 10
-220.0
 20
23.0
 30
0.0
 11
-280.0
 21
23.0
 31
0.0
  0
LINE
  5
3C6
  8
NOTE
  6
CONTINUOUS
 62
     4
 10
279.99999999999989
 20
23.0
 30
0.0
 11
219.99999999999989
 21
23.0
 31
0.0
  0
LINE
  5
3C7
  8
NOTE
  6
CONTINUOUS
 62
     4
 10
249.99999999999989
 20
-7.0
 30
0.0
 11
249.99999999999989
 21
53.0
 31
0.0
  0
LINE
  5
3C8
  8
BASIS
  6
DASHDOT
 62
     6
 10
0.0
 20
-272.39686599999999
 30
0.0
 11
0.0
 21
117.584557
 31
0.0
  0
POINT
  5
3C9
  8
ARRANGE
  6
CONTINUOUS
 62
     1
 10
0.0
 20
0.0
 30
0.0
  0
LINE
  5
3CA
  8
DETAIL
  6
CONTINUOUS
 62
     5
 10
-300.0
 20
0.0
 30
0.0
 11
-260.0
 21
0.0
 31
0.0
  0
LINE
  5
3CB
  8
DETAIL
  6
CONTINUOUS
 62
     5
 10
-300.0
 20
-190.0
 30
0.0
 11
299.99999999999989
 21
-190.0
 31
0.0
  0
LINE
  5
3CC
  8
DETAIL
  6
CONTINUOUS
 62
     5
 10
299.99999999999989
 20
0.0
 30
0.0
 11
299.99999999999989
 21
-190.0
 31
0.0
  0
LINE
  5
3CD
  8
DETAIL
  6
CONTINUOUS
 62
     5
 10
-300.0
 20
0.0
 30
0.0
 11
-300.0
 21
-190.0
 31
0.0
  0
LINE
  5
3CE
  8
DETAIL
  6
CONTINUOUS
 62
     5
 10
239.99999999999989
 20
-175.0
 30
0.0
 11
239.99999999999989
 21
30.0
 31
0.0
  0
LINE
  5
3CF
  8
DETAIL
  6
CONTINUOUS
 62
     5
 10
259.99999999999989
 20
-175.0
 30
0.0
 11
259.99999999999989
 21
30.0
 31
0.0
  0
LINE
  5
3D0
  8
DETAIL
  6
CONTINUOUS
 62
     5
 10
239.99999999999989
 20
30.0
 30
0.0
 11
259.99999999999989
 21
30.0
 31
0.0
  0
LINE
  5
3D1
  8
DETAIL
  6
CONTINUOUS
 62
     5
 10
-260.0
 20
-175.0
 30
0.0
 11
-260.0
 21
30.0
 31
0.0
  0
LINE
  5
3D2
  8
DETAIL
  6
CONTINUOUS
 62
     5
 10
-240.0
 20
-175.0
 30
0.0
 11
-240.0
 21
30.0
 31
0.0
  0
LINE
  5
3D3
  8
DETAIL
  6
CONTINUOUS
 62
     5
 10
-240.0
 20
30.0
 30
0.0
 11
-260.0
 21
30.0
 31
0.0
  0
LINE
  5
3D4
  8
SIZE
  6
CONTINUOUS
 62
    30
 10
505.66474499999981
 20
30.0
 30
0.0
 11
505.66474499999981
 21
161.39597299999991
 31
0.0
  0
CIRCLE
  5
3D5
  8
ARRANGE
  6
CONTINUOUS
 62
     1
 10
0.0
 20
0.0
 30
0.0
 40
40.0
  0
LINE
  5
3D6
  8
OUTLINE
  6
CONTINUOUS
 62
     3
 10
-300.0
 20
0.0
 30
0.0
 11
-300.0
 21
-190.0
 31
0.0
  0
LINE
  5
3D7
  8
OUTLINE
  6
CONTINUOUS
 62
     3
 10
-300.0
 20
-190.0
 30
0.0
 11
299.99999999999989
 21
-190.0
 31
0.0
  0
LINE
  5
3D8
  8
OUTLINE
  6
CONTINUOUS
 62
     3
 10
299.99999999999989
 20
0.0
 30
0.0
 11
299.99999999999989
 21
-190.0
 31
0.0
  0
LINE
  5
3D9
  8
SIZE
  6
CONTINUOUS
 62
    30
 10
-435.97339300568262
 20
32.0
 30
0.0
 11
-435.97339300568262
 21
155.32307199999991
 31
0.0
  0
LINE
  5
3DA
  8
SIZE
  6
CONTINUOUS
 62
    30
 10
-435.97339300568262
 20
-2.0
 30
0.0
 11
-435.97339300568262
 21
-152.66336699999999
 31
0.0
  0
LINE
  5
3DB
  8
NOTE
  6
CONTINUOUS
 62
     4
 10
-256.36259200000001
 20
16.0
 30
0.0
 11
-243.63740799999999
 21
16.0
 31
0.0
  0
LINE
  5
3DC
  8
DETAIL
  6
CONTINUOUS
 62
     5
 10
-252.49999999999989
 20
-23.0
 30
0.0
 11
-252.49999999999989
 21
7.7419919999999989
 31
0.0
  0
LINE
  5
3DD
  8
DETAIL
  6
CONTINUOUS
 62
     5
 10
-247.5
 20
-23.0
 30
0.0
 11
-247.5
 21
7.7419919999999989
 31
0.0
  0
ARC
  5
3DE
  8
DETAIL
  6
CONTINUOUS
 62
     5
 10
-250.0
 20
-23.0
 30
0.0
 40
2.5
 50
180.0
 51
0.0
  0
ARC
  5
3DF
  8
DETAIL
  6
CONTINUOUS
 62
     5
 10
249.99999999999989
 20
-23.0
 30
0.0
 40
2.5
 50
180.0
 51
0.0
  0
LINE
  5
3E0
  8
DETAIL
  6
CONTINUOUS
 62
     5
 10
252.4999999999998
 20
-23.0
 30
0.0
 11
252.4999999999998
 21
7.7419919999999989
 31
0.0
  0
LINE
  5
3E1
  8
DETAIL
  6
CONTINUOUS
 62
     5
 10
247.49999999999989
 20
-23.0
 30
0.0
 11
247.49999999999989
 21
7.7419919999999989
 31
0.0
  0
LINE
  5
3E2
  8
NOTE
  6
CONTINUOUS
 62
     4
 10
243.63740799999991
 20
16.0
 30
0.0
 11
256.36259199999989
 21
16.0
 31
0.0
  0
LINE
  5
3E3
  8
DETAIL
  6
DIVIDE
 62
     5
 10
145.49999999999989
 20
-142.0
 30
0.0
 11
-145.5
 21
-142.0
 31
0.0
  0
LINE
  5
3E4
  8
DETAIL
  6
DIVIDE
 62
     5
 10
-145.50643052071291
 20
-40.0
 30
0.0
 11
145.49999999999989
 21
-40.0
 31
0.0
  0
LINE
  5
3E5
  8
BASIS
  6
DASHDOT
 62
     6
 10
-193.02308600000009
 20
-91.0
 30
0.0
 11
196.83297699999989
 21
-91.0
 31
0.0
  0
LINE
  5
3E6
  8
DETAIL
  6
CONTINUOUS
 62
     5
 10
-240.0
 20
0.0
 30
0.0
 11
239.99999999999989
 21
0.0
 31
0.0
  0
LINE
  5
3E7
  8
DETAIL
  6
CONTINUOUS
 62
     5
 10
259.99999999999989
 20
0.0
 30
0.0
 11
299.99999999999989
 21
0.0
 31
0.0
  0
LINE
  5
3E8
  8
DETAIL
  6
CONTINUOUS
 62
     5
 10
247.49999999999989
 20
0.0
 30
0.0
 11
252.4999999999998
 21
0.0
 31
0.0
  0
LINE
  5
3E9
  8
DETAIL
  6
CONTINUOUS
 62
     5
 10
-252.49999999999989
 20
0.0
 30
0.0
 11
-247.5
 21
0.0
 31
0.0
  0
LINE
  5
3EA
  8
DETAIL
  6
CONTINUOUS
 62
     5
 10
-260.0
 20
-175.0
 30
0.0
 11
-240.0
 21
-175.0
 31
0.0
  0
LINE
  5
3EB
  8
DETAIL
  6
CONTINUOUS
 62
     5
 10
239.99999999999989
 20
-175.0
 30
0.0
 11
259.99999999999989
 21
-175.0
 31
0.0
  0
LINE
  5
3EC
  8
NOTE
  6
CONTINUOUS
 62
     4
 10
-250.0
 20
0.0
 30
0.0
 11
-440.048092
 21
-358.25215400000002
 31
0.0
  0
LINE
  5
3ED
  8
NOTE
  6
CONTINUOUS
 62
     4
 10
-440.048092
 20
-358.25215400000002
 30
0.0
 11
-883.90371899999911
 21
-358.25215400000002
 31
0.0
  0
LINE
  5
3EE
  8
NOTE
  6
CONTINUOUS
 62
     4
 10
0.0
 20
0.0
 30
0.0
 11
312.45391172757689
 21
-355.14913268697092
 31
0.0
  0
LINE
  5
3EF
  8
NOTE
  6
CONTINUOUS
 62
     4
 10
312.45391172757689
 20
-355.14913268697092
 30
0.0
 11
441.57232572757681
 21
-355.14913268697092
 31
0.0
  0
TEXT
  5
3F0
  8
NOTE
  6
CONTINUOUS
 62
     4
 10
335.25854672757703
 20
-323.38483368697081
 30
0.0
 40
64.0
  1
EL
 41
0.9
  0
TEXT
  5
3F1
  8
NOTE
  6
CONTINUOUS
 62
     4
 10
-868.89145399999904
 20
-325.81385799999993
 30
0.0
 40
64.0
  1
AH 6-φ10
 41
0.9
  0
LINE
  5
3F2
  8
OUTLINE
  6
CONTINUOUS
 62
     3
 10
-300.0
 20
0.0
 30
0.0
 11
299.99999999999989
 21
0.0
 31
0.0
  0
CIRCLE
  5
3F3
  8
FIX
  6
CONTINUOUS
 62
    11
 10
-250.0
 20
0.0
 30
0.0
 40
5.0
  0
CIRCLE
  5
3F4
  8
FIX
  6
CONTINUOUS
 62
    11
 10
249.99999999999989
 20
0.0
 30
0.0
 40
5.0
  0
LINE
  5
3F5
  8
SIZE
  6
BYBLOCK
 62
    30
 10
249.99999999999989
 20
-40.0
 30
0.0
 11
249.99999999999989
 21
-449.25953362008647
 31
0.0
  0
LINE
  5
3F6
  8
SIZE
  6
BYBLOCK
 62
    30
 10
-250.0
 20
-40.0
 30
0.0
 11
-250.0
 21
-445.8590256326051
 31
0.0
  0
LINE
  5
3F7
  8
SIZE
  6
BYBLOCK
 62
    30
 10
247.99999999999989
 20
-415.25446868544878
 30
0.0
 11
-248.0
 21
-415.25446868544878
 31
0.0
  0
TEXT
  5
3F8
  8
SIZE
  6
BYBLOCK
 62
    30
 10
-74.057142999999996
 20
-383.25446868544878
 30
0.0
 40
64.0
  1
500
 41
0.9
  0
LINE
  5
3F9
  8
SIZE
  6
BYBLOCK
 62
    30
 10
-276.36259199999989
 20
16.0
 30
0.0
 11
-397.24557499999997
 21
16.0
 31
0.0
  0
LINE
  5
3FA
  8
SIZE
  6
BYBLOCK
 62
    30
 10
-300.0
 20
23.0
 30
0.0
 11
-464.89615286805372
 21
23.0
 31
0.0
  0
LINE
  5
3FB
  8
SIZE
  6
BYBLOCK
 62
    30
 10
-435.97339300568262
 20
25.0
 30
0.0
 11
-435.97339300568262
 21
27.0
 31
0.0
  0
LINE
  5
3FC
  8
SIZE
  6
BYBLOCK
 62
    30
 10
-435.97339300568262
 20
14.0
 30
0.0
 11
-435.97339300568262
 21
12.0
 31
0.0
  0
LINE
  5
3FD
  8
SIZE
  6
BYBLOCK
 62
    30
 10
-435.97339300568262
 20
23.0
 30
0.0
 11
-435.97339300568262
 21
16.0
 31
0.0
  0
TEXT
  5
3FE
  8
SIZE
  6
BYBLOCK
 62
    30
 10
-467.97339300568251
 20
74.862281999999979
 30
0.0
 40
64.0
  1
7
 50
90.0
 41
0.9
  0
LINE
  5
3FF
  8
SIZE
  6
BYBLOCK
 62
    30
 10
-276.36259199999989
 20
16.0
 30
0.0
 11
-466.597487769488
 21
16.0
 31
0.0
  0
LINE
  5
400
  8
SIZE
  6
BYBLOCK
 62
    30
 10
-320.0
 20
0.0
 30
0.0
 11
-397.24557499999997
 21
0.0
 31
0.0
  0
LINE
  5
401
  8
SIZE
  6
BYBLOCK
 62
    30
 10
-435.97339300568262
 20
-2.0
 30
0.0
 11
-435.97339300568262
 21
-4.0
 31
0.0
  0
LINE
  5
402
  8
SIZE
  6
BYBLOCK
 62
    30
 10
-435.97339300568262
 20
18.0
 30
0.0
 11
-435.97339300568262
 21
20.0
 31
0.0
  0
LINE
  5
403
  8
SIZE
  6
BYBLOCK
 62
    30
 10
-435.97339300568262
 20
0.0
 30
0.0
 11
-435.97339300568262
 21
16.0
 31
0.0
  0
TEXT
  5
404
  8
SIZE
  6
BYBLOCK
 62
    30
 10
-467.97339300568251
 20
-102.4093799999999
 30
0.0
 40
64.0
  1
16
 50
90.0
 41
0.9
  0
LINE
  5
405
  8
SIZE
  6
BYBLOCK
 62
    30
 10
-320.0
 20
0.0
 30
0.0
 11
-649.10265199999981
 21
0.0
 31
0.0
  0
LINE
  5
406
  8
SIZE
  6
BYBLOCK
 62
    30
 10
-320.0
 20
-190.0
 30
0.0
 11
-649.10265199999981
 21
-190.0
 31
0.0
  0
LINE
  5
407
  8
SIZE
  6
BYBLOCK
 62
    30
 10
-619.10265199999981
 20
-2.0
 30
0.0
 11
-619.10265199999981
 21
-95.0
 31
0.0
  0
LINE
  5
408
  8
SIZE
  6
BYBLOCK
 62
    30
 10
-619.10265199999981
 20
-188.0
 30
0.0
 11
-619.10265199999981
 21
-95.0
 31
0.0
  0
TEXT
  5
409
  8
SIZE
  6
BYBLOCK
 62
    30
 10
-651.10265199999958
 20
-163.57142899999991
 30
0.0
 40
64.0
  1
190
 50
90.0
 41
0.9
  0
LINE
  5
40A
  8
SIZE
  6
BYBLOCK
 62
    30
 10
319.99999999999989
 20
0.0
 30
0.0
 11
535.6647449999997
 21
0.0
 31
0.0
  0
LINE
  5
40B
  8
SIZE
  6
BYBLOCK
 62
    30
 10
505.66474499999981
 20
2.0
 30
0.0
 11
505.66474499999981
 21
4.0
 31
0.0
  0
LINE
  5
40C
  8
SIZE
  6
BYBLOCK
 62
    30
 10
319.99999999999989
 20
0.0
 30
0.0
 11
666.49412661558176
 21
0.0
 31
0.0
  0
LINE
  5
40D
  8
SIZE
  6
BYBLOCK
 62
    30
 10
279.99999999999989
 20
30.0
 30
0.0
 11
535.6647449999997
 21
30.0
 31
0.0
  0
LINE
  5
40E
  8
SIZE
  6
BYBLOCK
 62
    30
 10
505.66474499999981
 20
32.0
 30
0.0
 11
505.66474499999981
 21
34.0
 31
0.0
  0
LINE
  5
40F
  8
SIZE
  6
BYBLOCK
 62
    30
 10
505.66474499999981
 20
-2.0
 30
0.0
 11
505.66474499999981
 21
-4.0
 31
0.0
  0
LINE
  5
410
  8
SIZE
  6
BYBLOCK
 62
    30
 10
505.66474499999981
 20
30.0
 30
0.0
 11
505.66474499999981
 21
0.0
 31
0.0
  0
TEXT
  5
411
  8
SIZE
  6
BYBLOCK
 62
    30
 10
473.6647449999997
 20
60.660786000000002
 30
0.0
 40
64.0
  1
30
 50
90.0
 41
0.9
  0
LINE
  5
412
  8
SIZE
  6
BYBLOCK
 62
    30
 10
299.99999999999989
 20
20.0
 30
0.0
 11
299.99999999999989
 21
416.238112
 31
0.0
  0
LINE
  5
413
  8
SIZE
  6
BYBLOCK
 62
    30
 10
-300.0
 20
20.0
 30
0.0
 11
-300.0
 21
416.238112
 31
0.0
  0
LINE
  5
414
  8
SIZE
  6
BYBLOCK
 62
    30
 10
297.99999999999989
 20
386.238112
 30
0.0
 11
0.0
 21
386.238112
 31
0.0
  0
LINE
  5
415
  8
SIZE
  6
BYBLOCK
 62
    30
 10
-298.0
 20
386.238112
 30
0.0
 11
0.0
 21
386.238112
 31
0.0
  0
TEXT
  5
416
  8
SIZE
  6
BYBLOCK
 62
    30
 10
-74.057142999999996
 20
418.238112
 30
0.0
 40
64.0
  1
600
 41
0.9
  0
LINE
  5
417
  8
SIZE
  6
BYBLOCK
 62
    30
 10
249.99999999999989
 20
73.0
 30
0.0
 11
249.99999999999989
 21
277.79201599999982
 31
0.0
  0
LINE
  5
418
  8
SIZE
  6
BYBLOCK
 62
    30
 10
-250.0
 20
73.0
 30
0.0
 11
-250.0
 21
277.79201599999982
 31
0.0
  0
LINE
  5
419
  8
SIZE
  6
BYBLOCK
 62
    30
 10
247.99999999999989
 20
247.79201599999999
 30
0.0
 11
0.0
 21
247.79201599999999
 31
0.0
  0
LINE
  5
41A
  8
SIZE
  6
BYBLOCK
 62
    30
 10
-248.0
 20
247.79201599999999
 30
0.0
 11
0.0
 21
247.79201599999999
 31
0.0
  0
TEXT
  5
41B
  8
SIZE
  6
BYBLOCK
 62
    30
 10
-74.057142999999996
 20
279.79201599999982
 30
0.0
 40
64.0
  1
500
 41
0.9
  0
CIRCLE
  5
41C
  8
SIZE
  6
CONTINUOUS
 62
    30
 10
-250.0
 20
247.79201599999999
 30
0.0
 40
6.0
  0
CIRCLE
  5
41D
  8
SIZE
  6
CONTINUOUS
 62
    30
 10
249.99999999999989
 20
247.79201599999999
 30
0.0
 40
6.0
  0
CIRCLE
  5
41E
  8
SIZE
  6
CONTINUOUS
 62
    30
 10
-300.0
 20
386.238112
 30
0.0
 40
6.0
  0
CIRCLE
  5
41F
  8
SIZE
  6
CONTINUOUS
 62
    30
 10
299.99999999999989
 20
386.238112
 30
0.0
 40
6.0
  0
CIRCLE
  5
420
  8
SIZE
  6
CONTINUOUS
 62
    30
 10
505.66474499999981
 20
0.0
 30
0.0
 40
6.0
  0
CIRCLE
  5
421
  8
SIZE
  6
CONTINUOUS
 62
    30
 10
505.66474499999981
 20
30.0
 30
0.0
 40
6.0
  0
CIRCLE
  5
422
  8
SIZE
  6
CONTINUOUS
 62
    30
 10
505.66474499999981
 20
0.0
 30
0.0
 40
6.0
  0
CIRCLE
  5
423
  8
SIZE
  6
CONTINUOUS
 62
    30
 10
-619.10265199999981
 20
-190.0
 30
0.0
 40
6.0
  0
CIRCLE
  5
424
  8
SIZE
  6
CONTINUOUS
 62
    30
 10
-619.10265199999981
 20
0.0
 30
0.0
 40
6.0
  0
CIRCLE
  5
425
  8
SIZE
  6
CONTINUOUS
 62
    30
 10
-435.97339300568262
 20
16.0
 30
0.0
 40
6.0
  0
CIRCLE
  5
426
  8
SIZE
  6
CONTINUOUS
 62
    30
 10
-435.97339300568262
 20
0.0
 30
0.0
 40
6.0
  0
CIRCLE
  5
427
  8
SIZE
  6
CONTINUOUS
 62
    30
 10
-435.97339300568262
 20
16.0
 30
0.0
 40
6.0
  0
CIRCLE
  5
428
  8
SIZE
  6
CONTINUOUS
 62
    30
 10
-435.97339300568262
 20
23.0
 30
0.0
 40
6.0
  0
CIRCLE
  5
429
  8
SIZE
  6
CONTINUOUS
 62
    30
 10
-250.0
 20
-415.25446868544878
 30
0.0
 40
6.0
  0
CIRCLE
  5
42A
  8
SIZE
  6
CONTINUOUS
 62
    30
 10
249.99999999999989
 20
-415.25446868544878
 30
0.0
 40
6.0
  0
LINE
  5
42B
  8
NOTE
  6
CONTINUOUS
 62
     4
 10
249.99999999999989
 20
-20.0
 30
0.0
 11
249.99999999999989
 21
20.0
 31
0.0
  0
LINE
  5
42C
  8
NOTE
  6
CONTINUOUS
 62
     4
 10
269.99999999999989
 20
0.0
 30
0.0
 11
229.99999999999989
 21
0.0
 31
0.0
  0
LINE
  5
42D
  8
NOTE
  6
CONTINUOUS
 62
     4
 10
-250.0
 20
-20.0
 30
0.0
 11
-250.0
 21
20.0
 31
0.0
  0
LINE
  5
42E
  8
NOTE
  6
CONTINUOUS
 62
     4
 10
-270.0
 20
0.0
 30
0.0
 11
-230.0
 21
0.0
 31
0.0
  0
LINE
  5
42F
  8
NOTE
  6
CONTINUOUS
 62
     4
 10
0.0
 20
-20.0
 30
0.0
 11
0.0
 21
20.0
 31
0.0
  0
LINE
  5
430
  8
NOTE
  6
CONTINUOUS
 62
     4
 10
-20.0
 20
0.0
 30
0.0
 11
20.0
 21
0.0
 31
0.0
  0
TEXT
  5
431
  8
ETC
  6
CONTINUOUS
 62
    61
 10
653.45197859104917
 20
283.36440005086882
 30
0.0
 40
50.0
  1
V-316KY5
 41
0.9
  0
TEXT
  5
432
  8
ETC
  6
CONTINUOUS
 62
    61
 10
520.82810888969345
 20
465.5582620045555
 30
0.0
 40
64.0
  1
V-316KY5_3
 41
0.9
  0
TEXT
  5
433
  8
ETC
  6
CONTINUOUS
 62
    61
 10
518.80573788969355
 20
360.20600500455521
 30
0.0
 40
64.0
  1
換気扇
 41
0.9
  0
LINE
  5
434
  8
DETAIL
  6
DIVIDE
 62
     5
 10
-145.5
 20
-40.0
 30
0.0
 11
-145.5
 21
-142.0
 31
0.0
  0
LINE
  5
435
  8
DETAIL
  6
DIVIDE
 62
     5
 10
145.49999999999989
 20
-40.0
 30
0.0
 11
145.49999999999989
 21
-142.0
 31
0.0
  0
LINE
  5
436
  8
NOTE
  6
CONTINUOUS
 62
     4
 10
31.062001765268189
 20
-22.112070940893311
 30
0.0
 11
0.0
 21
0.0
 31
0.0
  0
LINE
  5
437
  8
NOTE
  6
CONTINUOUS
 62
     4
 10
0.0
 20
0.0
 30
0.0
 11
16.609850297747499
 21
-37.424118322796851
 31
0.0
  0
LINE
  5
438
  8
NOTE
  6
CONTINUOUS
 62
     4
 10
-259.58202599999998
 20
-38.835355
 30
0.0
 11
-250.0
 21
0.0
 31
0.0
  0
LINE
  5
439
  8
NOTE
  6
CONTINUOUS
 62
     4
 10
-250.0
 20
0.0
 30
0.0
 11
-277.71595499999989
 21
-28.841391000000002
 31
0.0
  0
ARC
  5
43A
  8
DETAIL
  6
CONTINUOUS
 62
     5
 10
-251.24584031774631
 20
13.697401844466031
 30
0.0
 40
7.0354975731370111
 50
302.16911750070329
 51
324.74143072267009
  0
ARC
  5
43B
  8
DETAIL
  6
CONTINUOUS
 62
     5
 10
-253.21479945056839
 20
15.08937699023704
 30
0.0
 40
9.4468032097393628
 50
324.7413772590935
 51
343.67842022974168
  0
ARC
  5
43C
  8
DETAIL
  6
CONTINUOUS
 62
     5
 10
-256.32453270354722
 20
16.00000450936021
 30
0.0
 40
12.68712470354814
 50
343.67839274582582
 51
359.99997963547168
  0
ARC
  5
43D
  8
DETAIL
  6
CONTINUOUS
 62
     5
 10
-256.32453270354722
 20
15.999995490639771
 30
0.0
 40
12.68712470354814
 50
0.0000203645281779
 51
16.3216072541743
  0
ARC
  5
43E
  8
DETAIL
  6
CONTINUOUS
 62
     5
 10
-253.21479945056839
 20
16.910623009762951
 30
0.0
 40
9.4468032097393664
 50
16.321579770258278
 51
35.258622740906347
  0
ARC
  5
43F
  8
DETAIL
  6
CONTINUOUS
 62
     5
 10
-251.2458560763323
 20
18.302581459473181
 30
0.0
 40
7.035520078984657
 50
35.258606220309389
 51
59.63341521473378
  0
ARC
  5
440
  8
DETAIL
  6
CONTINUOUS
 62
     5
 10
-250.00000080793839
 20
20.4289289260281
 30
0.0
 40
4.5710710739719662
 50
59.63342607818791
 51
89.999989872949413
  0
ARC
  5
441
  8
DETAIL
  6
CONTINUOUS
 62
     5
 10
-249.9999991920613
 20
20.4289289260281
 30
0.0
 40
4.5710710739719644
 50
90.000010127050572
 51
120.36657392181201
  0
ARC
  5
442
  8
DETAIL
  6
CONTINUOUS
 62
     5
 10
-248.7541439236675
 20
18.302581459473181
 30
0.0
 40
7.0355200789846624
 50
120.3665847852662
 51
144.7413937796905
  0
ARC
  5
443
  8
DETAIL
  6
CONTINUOUS
 62
     5
 10
-246.78520054943141
 20
16.910623009762951
 30
0.0
 40
9.4468032097393628
 50
144.74137725909361
 51
163.6784202297417
  0
ARC
  5
444
  8
DETAIL
  6
CONTINUOUS
 62
     5
 10
-243.6754672964525
 20
15.999995490639771
 30
0.0
 40
12.687124703548101
 50
163.6783927458257
 51
179.99997963547159
  0
ARC
  5
445
  8
DETAIL
  6
CONTINUOUS
 62
     5
 10
-243.6754672964525
 20
16.00000450936021
 30
0.0
 40
12.687124703548101
 50
180.00002036452801
 51
196.32160725417421
  0
ARC
  5
446
  8
DETAIL
  6
CONTINUOUS
 62
     5
 10
-246.78520054943141
 20
15.08937699023704
 30
0.0
 40
9.4468032097393664
 50
196.3215797702583
 51
215.25862274090619
  0
ARC
  5
447
  8
DETAIL
  6
CONTINUOUS
 62
     5
 10
-248.7541596822536
 20
13.697401844466031
 30
0.0
 40
7.035497573137012
 50
215.2585692773298
 51
237.83088249929659
  0
ARC
  5
448
  8
DETAIL
  6
CONTINUOUS
 62
     5
 10
250.00000080793839
 20
20.4289289260281
 30
0.0
 40
4.5710710739719644
 50
90.000010127050572
 51
120.36657392181201
  0
ARC
  5
449
  8
DETAIL
  6
CONTINUOUS
 62
     5
 10
251.24585607633219
 20
18.302581459473181
 30
0.0
 40
7.0355200789846624
 50
120.3665847852662
 51
144.7413937796905
  0
ARC
  5
44A
  8
DETAIL
  6
CONTINUOUS
 62
     5
 10
253.21479945056839
 20
16.910623009762951
 30
0.0
 40
9.4468032097393628
 50
144.74137725909361
 51
163.6784202297417
  0
ARC
  5
44B
  8
DETAIL
  6
CONTINUOUS
 62
     5
 10
256.32453270354711
 20
15.999995490639771
 30
0.0
 40
12.68712470354814
 50
163.6783927458257
 51
179.99997963547159
  0
ARC
  5
44C
  8
DETAIL
  6
CONTINUOUS
 62
     5
 10
256.32453270354711
 20
16.00000450936021
 30
0.0
 40
12.68712470354814
 50
180.00002036452801
 51
196.32160725417421
  0
ARC
  5
44D
  8
DETAIL
  6
CONTINUOUS
 62
     5
 10
253.21479945056839
 20
15.08937699023704
 30
0.0
 40
9.4468032097393664
 50
196.3215797702583
 51
215.25862274090619
  0
ARC
  5
44E
  8
DETAIL
  6
CONTINUOUS
 62
     5
 10
251.24584031774631
 20
13.697401844466031
 30
0.0
 40
7.035497573137012
 50
215.2585692773298
 51
237.83088249929659
  0
ARC
  5
44F
  8
DETAIL
  6
CONTINUOUS
 62
     5
 10
248.7541596822536
 20
13.697401844466031
 30
0.0
 40
7.0354975731370111
 50
302.16911750070329
 51
324.74143072267009
  0
ARC
  5
450
  8
DETAIL
  6
CONTINUOUS
 62
     5
 10
246.78520054943141
 20
15.08937699023704
 30
0.0
 40
9.4468032097393628
 50
324.7413772590935
 51
343.67842022974168
  0
ARC
  5
451
  8
DETAIL
  6
CONTINUOUS
 62
     5
 10
243.6754672964525
 20
16.00000450936021
 30
0.0
 40
12.687124703548101
 50
343.67839274582559
 51
359.99997963547168
  0
ARC
  5
452
  8
DETAIL
  6
CONTINUOUS
 62
     5
 10
243.6754672964525
 20
15.999995490639771
 30
0.0
 40
12.687124703548101
 50
0.0000203645281779
 51
16.321607254174339
  0
ARC
  5
453
  8
DETAIL
  6
CONTINUOUS
 62
     5
 10
246.78520054943141
 20
16.910623009762951
 30
0.0
 40
9.4468032097393664
 50
16.321579770258278
 51
35.258622740906347
  0
ARC
  5
454
  8
DETAIL
  6
CONTINUOUS
 62
     5
 10
248.75414392366741
 20
18.302581459473181
 30
0.0
 40
7.035520078984657
 50
35.258606220309389
 51
59.63341521473378
  0
ARC
  5
455
  8
DETAIL
  6
CONTINUOUS
 62
     5
 10
249.9999991920613
 20
20.4289289260281
 30
0.0
 40
4.5710710739719662
 50
59.63342607818791
 51
89.999989872949413
  0
LINE
  5
456
  8
DETAIL
  6
CONTINUOUS
 62
     5
 10
-145.5
 20
0.0
 30
0.0
 11
-145.5
 21
46.0
 31
0.0
  0
LINE
  5
457
  8
DETAIL
  6
CONTINUOUS
 62
     5
 10
-145.5
 20
46.0
 30
0.0
 11
145.49999999999989
 21
46.0
 31
0.0
  0
LINE
  5
458
  8
DETAIL
  6
CONTINUOUS
 62
     5
 10
145.49999999999989
 20
46.0
 30
0.0
 11
145.49999999999989
 21
0.0
 31
0.0
  0
LINE
  5
459
  8
SIZE
  6
CONTINUOUS
 10
-145.5
 20
66.0
 30
0.0
 11
-145.5
 21
158.82656342558761
 31
0.0
  0
LINE
  5
45A
  8
SIZE
  6
CONTINUOUS
 10
145.49999999999989
 20
66.0
 30
0.0
 11
145.49999999999989
 21
158.82656342558761
 31
0.0
  0
LINE
  5
45B
  8
SIZE
  6
CONTINUOUS
 10
-145.5
 20
128.82656342558761
 30
0.0
 11
145.49999999999989
 21
128.82656342558761
 31
0.0
  0
LINE
  5
45C
  8
SIZE
  6
CONTINUOUS
 10
216.83297699999989
 20
-91.0
 30
0.0
 11
669.27270997189203
 21
-91.000000000000128
 31
0.0
  0
LINE
  5
45D
  8
SIZE
  6
CONTINUOUS
 10
639.27270997189214
 20
-202.7228131016918
 30
0.0
 11
639.27270997189214
 21
39.999999999999957
 31
0.0
  0
LINE
  5
45E
  8
SIZE
  6
CONTINUOUS
 10
165.49999999999989
 20
46.0
 30
0.0
 11
669.27270997189203
 21
45.999999999999851
 31
0.0
  0
LINE
  5
45F
  8
SIZE
  6
CONTINUOUS
 10
639.27270997189214
 20
169.63264137927931
 30
0.0
 11
639.27270997189214
 21
45.999999999999858
 31
0.0
  0
TEXT
  5
460
  8
SIZE
  6
CONTINUOUS
 10
-61.714285714285687
 20
156.03061705446541
 30
0.0
 40
64.0
  1
291
 41
0.9
  0
TEXT
  5
461
  8
SIZE
  6
CONTINUOUS
 10
613.75262822963816
 20
-187.42053449146351
 30
0.0
 40
64.0
  1
91
 50
90.0
 41
0.9
  0
TEXT
  5
462
  8
SIZE
  6
CONTINUOUS
 10
613.75262822963816
 20
69.317703270088714
 30
0.0
 40
64.0
  1
46
 50
90.0
 41
0.9
  0
CIRCLE
  5
463
  8
SIZE
  6
CONTINUOUS
 62
    30
 10
-145.5
 20
128.82656342558761
 30
0.0
 40
6.0
  0
CIRCLE
  5
464
  8
SIZE
  6
CONTINUOUS
 62
    30
 10
145.49999999999989
 20
128.82656342558761
 30
0.0
 40
6.0
  0
CIRCLE
  5
465
  8
SIZE
  6
CONTINUOUS
 62
    30
 10
639.27270997189214
 20
45.999999999999858
 30
0.0
 40
6.0
  0
CIRCLE
  5
466
  8
SIZE
  6
CONTINUOUS
 62
    30
 10
639.27270997189214
 20
0.0
 30
0.0
 40
6.0
  0
CIRCLE
  5
467
  8
SIZE
  6
CONTINUOUS
 62
    30
 10
639.27270997189214
 20
-91.000000000000128
 30
0.0
 40
6.0
  0
TEXT
  5
46D
  8
NOTE
  6
CONTINUOUS
 10
-865.70536914841352
 20
-513.94701608650121
 30
0.0
 40
64.0
  1
排気口半抜き
 41
0.9
  0
LINE
  5
46E
  8
NOTE
  6
CONTINUOUS
 62
     4
 10
-76.051616136340414
 20
-145.42427708199159
 30
0.0
 11
-450.51129547358499
 21
-551.3586582580773
 31
0.0
1001
ACAD
1000
DSTYLE
1002
{
1070
    41
1040
40.0
1070
    42
1040
20.0
1070
    43
1040
200.0
1070
    44
1040
30.0
1070
    73
1070
     0
1070
    74
1070
     0
1070
    77
1070
     0
1070
    78
1070
     8
1070
   140
1040
64.0
1070
   147
1040
20.0
1070
   172
1070
     1
1070
   174
1070
     1
1070
   176
1070
   256
1070
   177
1070
   256
1070
   178
1070
   256
1070
   275
1070
     0
1070
   279
1070
     0
1070
   284
1070
     0
1070
   285
1070
     0
1070
   286
1070
     0
1070
   341
1005
3BE
1070
   342
1005
3BB
1002
}
  0
LINE
  5
46F
  8
NOTE
  6
CONTINUOUS
 62
     4
 10
-450.51129547358499
 20
-551.3586582580773
 30
0.0
 11
-896.33444370342011
 21
-551.3586582580773
 31
0.0
1001
ACAD
1000
DSTYLE
1002
{
1070
    41
1040
40.0
1070
    42
1040
20.0
1070
    43
1040
200.0
1070
    44
1040
30.0
1070
    73
1070
     0
1070
    74
1070
     0
1070
    77
1070
     0
1070
    78
1070
     8
1070
   140
1040
64.0
1070
   147
1040
20.0
1070
   172
1070
     1
1070
   174
1070
     1
1070
   176
1070
   256
1070
   177
1070
   256
1070
   178
1070
   256
1070
   275
1070
     0
1070
   279
1070
     0
1070
   284
1070
     0
1070
   285
1070
     0
1070
   286
1070
     0
1070
   341
1005
3BE
1070
   342
1005
3BB
1002
}
  0
LINE
  5
470
  8
NOTE
  6
CONTINUOUS
 62
     4
 10
-83.929623488637503
 20
-138.15710227799781
 30
0.0
 11
-48.930150294276302
 21
-116.0231531140589
 31
0.0
  0
LINE
  5
471
  8
NOTE
  6
CONTINUOUS
 62
     4
 10
-48.930150294276302
 20
-116.0231531140589
 30
0.0
 11
-68.173608784043211
 21
-152.69145188598529
 31
0.0
  0
LINE
  5
472
  8
NOTE
  6
CONTINUOUS
 62
     4
 10
-48.930150294276302
 20
-116.0231531140589
 30
0.0
 11
-76.051616136340414
 21
-145.42427708199159
 31
0.0
  0
ENDSEC
  0
EOF
