  0
SECTION
  2
HEADER
  9
$ACADVER
  1
AC1009
  9
$INSBASE
 10
0.0
 20
0.0
 30
0.0
  9
$EXTMIN
 10
-1148.4374768897389
 20
-380.67625268674061
 30
-0.0015258207003583
  9
$EXTMAX
 10
791.47340426159997
 20
939.90784838086256
 30
0.0000000349246037
  9
$LIMMIN
 10
-4200.0
 20
-2970.0
  9
$LIMMAX
 10
4200.0
 20
2970.0
  9
$ORTHOMODE
 70
     0
  9
$REGENMODE
 70
     0
  9
$FILLMODE
 70
     1
  9
$QTEXTMODE
 70
     0
  9
$MIRRTEXT
 70
     0
  9
$DRAGMODE
 70
     2
  9
$LTSCALE
 40
20.0
  9
$OSMODE
 70
    36
  9
$ATTMODE
 70
     1
  9
$TEXTSIZE
 40
64.0
  9
$TRACEWID
 40
0.05
  9
$TEXTSTYLE
  7
STANDARD
  9
$CLAYER
  8
SIZE
  9
$CELTYPE
  6
CONTINUOUS
  9
$CECOLOR
 62
    30
  9
$DIMSCALE
 40
1.0
  9
$DIMASZ
 40
40.0
  9
$DIMEXO
 40
20.0
  9
$DIMDLI
 40
200.0
  9
$DIMRND
 40
0.0
  9
$DIMDLE
 40
0.0
  9
$DIMEXE
 40
30.0
  9
$DIMTP
 40
0.0
  9
$DIMTM
 40
0.0
  9
$DIMTXT
 40
64.0
  9
$DIMCEN
 40
0.09
  9
$DIMTSZ
 40
0.0
  9
$DIMTOL
 70
     0
  9
$DIMLIM
 70
     0
  9
$DIMTIH
 70
     0
  9
$DIMTOH
 70
     0
  9
$DIMSE1
 70
     0
  9
$DIMSE2
 70
     0
  9
$DIMTAD
 70
     1
  9
$DIMZIN
 70
     8
  9
$DIMBLK
  1
NONE
  9
$DIMASO
 70
     1
  9
$DIMSHO
 70
     0
  9
$DIMPOST
  1

  9
$DIMAPOST
  1

  9
$DIMALT
 70
     0
  9
$DIMALTD
 70
     2
  9
$DIMALTF
 40
25.399999999999999
  9
$DIMLFAC
 40
1.0
  9
$DIMTOFL
 70
     1
  9
$DIMTVP
 40
0.0
  9
$DIMTIX
 70
     1
  9
$DIMSOXD
 70
     0
  9
$DIMSAH
 70
     0
  9
$DIMBLK1
  1

  9
$DIMBLK2
  1

  9
$DIMSTYLE
  2
STANDARD
  9
$DIMCLRD
 70
   256
  9
$DIMCLRE
 70
   256
  9
$DIMCLRT
 70
   256
  9
$DIMTFAC
 40
1.0
  9
$DIMGAP
 40
20.0
  9
$LUNITS
 70
     2
  9
$LUPREC
 70
     4
  9
$SKETCHINC
 40
0.1
  9
$FILLETRAD
 40
0.0
  9
$AUNITS
 70
     1
  9
$AUPREC
 70
     3
  9
$MENU
  1
ACAD
  9
$ELEVATION
 40
0.0
  9
$PELEVATION
 40
0.0
  9
$THICKNESS
 40
0.0
  9
$LIMCHECK
 70
     1
  9
$BLIPMODE
 70
     0
  9
$CHAMFERA
 40
0.0
  9
$CHAMFERB
 40
0.0
  9
$SKPOLY
 70
     0
  9
$TDCREATE
 40
2452040.400173611
  9
$TDUPDATE
 40
2455051.4947860772
  9
$TDINDWG
 40
0.1521108333
  9
$TDUSRTIMER
 40
0.1521108333
  9
$USRTIMER
 70
     1
  9
$ANGBASE
 50
0.0
  9
$ANGDIR
 70
     0
  9
$PDMODE
 70
     3
  9
$PDSIZE
 40
-2.0
  9
$PLINEWID
 40
0.0
  9
$COORDS
 70
     0
  9
$SPLFRAME
 70
     0
  9
$SPLINETYPE
 70
     6
  9
$SPLINESEGS
 70
     8
  9
$ATTDIA
 70
     0
  9
$ATTREQ
 70
     1
  9
$HANDLING
 70
     1
  9
$HANDSEED
  5
449
  9
$SURFTAB1
 70
     6
  9
$SURFTAB2
 70
     6
  9
$SURFTYPE
 70
     6
  9
$SURFU
 70
     6
  9
$SURFV
 70
     6
  9
$UCSNAME
  2

  9
$UCSORG
 10
0.0
 20
0.0
 30
0.0
  9
$UCSXDIR
 10
1.0
 20
0.0
 30
0.0
  9
$UCSYDIR
 10
0.0
 20
1.0
 30
0.0
  9
$PUCSNAME
  2

  9
$PUCSORG
 10
0.0
 20
0.0
 30
0.0
  9
$PUCSXDIR
 10
1.0
 20
0.0
 30
0.0
  9
$PUCSYDIR
 10
0.0
 20
1.0
 30
0.0
  9
$USERI1
 70
     0
  9
$USERI2
 70
     0
  9
$USERI3
 70
     0
  9
$USERI4
 70
     0
  9
$USERI5
 70
     0
  9
$USERR1
 40
20.0
  9
$USERR2
 40
0.0
  9
$USERR3
 40
0.0
  9
$USERR4
 40
0.0
  9
$USERR5
 40
0.0
  9
$WORLDVIEW
 70
     1
  9
$SHADEDGE
 70
     3
  9
$SHADEDIF
 70
    70
  9
$TILEMODE
 70
     1
  9
$MAXACTVP
 70
    64
  9
$PLIMCHECK
 70
     0
  9
$PEXTMIN
 10
1.0000000000000000E+020
 20
1.0000000000000000E+020
 30
1.0000000000000000E+020
  9
$PEXTMAX
 10
-1.0000000000000000E+020
 20
-1.0000000000000000E+020
 30
-1.0000000000000000E+020
  9
$PLIMMIN
 10
0.0
 20
0.0
  9
$PLIMMAX
 10
12.0
 20
9.0
  9
$UNITMODE
 70
     0
  9
$VISRETAIN
 70
     1
  9
$PLINEGEN
 70
     0
  9
$PSLTSCALE
 70
     1
  0
ENDSEC
  0
SECTION
  2
TABLES
  0
TABLE
  2
VPORT
 70
     1
  0
VPORT
  2
*ACTIVE
 70
     0
 10
0.0
 20
0.0
 11
1.0
 21
1.0
 12
-195.09588549679191
 22
249.76292863923891
 13
0.0
 23
0.0
 14
400.0
 24
400.0
 15
400.0
 25
400.0
 16
0.0
 26
0.0
 36
1.0
 17
0.0
 27
0.0
 37
0.0
 40
1776.9611084488811
 41
1.2318059299191371
 42
50.0
 43
0.0
 44
0.0
 50
0.0
 51
0.0
 71
     0
 72
   500
 73
     1
 74
     0
 75
     0
 76
     0
 77
     0
 78
     1
  0
ENDTAB
  0
TABLE
  2
LTYPE
 70
     7
  0
LTYPE
  2
CONTINUOUS
 70
     0
  3
実線
 72
    65
 73
     0
 40
0.0
  0
LTYPE
  2
DOT
 70
     0
  3
...............................................
 72
    65
 73
     2
 40
0.8
 49
0.5
 49
-0.3
  0
LTYPE
  2
DASHED
 70
     0
  3
_ _ _ _ _ _ _ _ _ _ _ _ _ _ _ _ _ _ _ _ _ _ _
 72
    65
 73
     2
 40
2.0
 49
1.1999999999999991
 49
-0.8
  0
LTYPE
  2
DASHDOT
 70
     0
  3
____ _ ____ _ ____ _ ____ _ ____ _ ____ _ ____
 72
    65
 73
     4
 40
5.5
 49
4.0
 49
-0.6
 49
0.3
 49
-0.6
  0
LTYPE
  2
DASHDOT1
 70
     0
  3
____ _ ____ _ ____ _ ____ _ ____ _ ____ _ ____
 72
    65
 73
     4
 40
2.0
 49
1.5
 49
-0.2
 49
0.1
 49
-0.2
  0
LTYPE
  2
DIVIDE
 70
     0
  3
_____ _ _ _____ _ _ _____ _ _ _____ _ _ ____
 72
    65
 73
     6
 40
6.4000000000000004
 49
4.0
 49
-0.6
 49
0.3
 49
-0.6
 49
0.3
 49
-0.6
  0
LTYPE
  2
DIVIDE1
 70
     0
  3
_____ _ _ _____ _ _ _____ _ _ _____ _ _ ____
 72
    65
 73
     6
 40
3.2000000000000002
 49
2.0
 49
-0.3
 49
0.15
 49
-0.3
 49
0.15
 49
-0.3
  0
ENDTAB
  0
TABLE
  2
LAYER
 70
    12
  0
LAYER
  2
0
 70
     0
 62
     7
  6
CONTINUOUS
  0
LAYER
  2
SIZE
 70
     0
 62
    30
  6
CONTINUOUS
  0
LAYER
  2
OUTLINE
 70
     0
 62
     3
  6
CONTINUOUS
  0
LAYER
  2
DETAIL
 70
     0
 62
     5
  6
CONTINUOUS
  0
LAYER
  2
BASIS
 70
     0
 62
     6
  6
DASHDOT
  0
LAYER
  2
NOTE
 70
     0
 62
     4
  6
CONTINUOUS
  0
LAYER
  2
ARRANGE
 70
     0
 62
     1
  6
CONTINUOUS
  0
LAYER
  2
FIX
 70
     0
 62
    11
  6
CONTINUOUS
  0
LAYER
  2
ETC
 70
     0
 62
    61
  6
CONTINUOUS
  0
LAYER
  2
DEFPOINTS
 70
     0
 62
     7
  6
CONTINUOUS
  0
LAYER
  2
SERVICESPACE
 70
     0
 62
     2
  6
DASHDOT
  0
LAYER
  2
SYMBOLLINE
 70
     0
 62
    15
  6
CONTINUOUS
  0
ENDTAB
  0
TABLE
  2
STYLE
 70
     2
  0
STYLE
  2
STANDARD
 70
     0
 40
0.0
 41
0.9
 50
0.0
 71
     0
 42
64.0
  3
SIMPLEX
  4
BIGFONT
  0
STYLE
  2
ANNOTATIVE
 70
     0
 40
0.0
 41
1.0
 50
0.0
 71
     0
 42
0.2
  3
txt
  4

  0
ENDTAB
  0
TABLE
  2
VIEW
 70
     1
  0
VIEW
  2
ALL
 70
     0
 40
6374.9789810000002
 10
0.0
 20
58.11501599999999
 41
8842.1052629999976
 11
0.0
 21
0.0
 31
1.0
 12
0.0
 22
0.0
 32
0.0
 42
50.0
 43
0.0
 44
0.0
 50
0.0
 71
     0
  0
ENDTAB
  0
TABLE
  2
UCS
 70
     0
  0
ENDTAB
  0
TABLE
  2
APPID
 70
     3
  0
APPID
  2
ACAD
 70
     0
  0
APPID
  2
ACADANNOTATIVE
 70
     0
  0
APPID
  2
ACAD_MLEADERVER
 70
     0
  0
ENDTAB
  0
TABLE
  2
DIMSTYLE
 70
     2
  0
DIMSTYLE
  2
STANDARD
 70
     0
  3

  4

  5

  6

  7

 40
1.0
 41
0.18
 42
0.0625
 43
0.38
 44
0.18
 45
0.0
 46
0.0
 47
0.0
 48
0.0
140
0.18
141
0.09
142
0.0
143
25.399999999999999
144
1.0
145
0.0
146
1.0
147
0.09
 71
     0
 72
     0
 73
     1
 74
     1
 75
     0
 76
     0
 77
     0
 78
     0
170
     0
171
     2
172
     0
173
     0
174
     0
175
     0
176
     0
177
     0
178
     0
  0
DIMSTYLE
  2
ANNOTATIVE
 70
     0
  3

  4

  5

  6

  7

 40
1.0
 41
0.18
 42
0.0625
 43
0.38
 44
0.18
 45
0.0
 46
0.0
 47
0.0
 48
0.0
140
0.18
141
0.09
142
0.0
143
25.399999999999999
144
1.0
145
0.0
146
1.0
147
0.09
 71
     0
 72
     0
 73
     1
 74
     1
 75
     0
 76
     0
 77
     0
 78
     0
170
     0
171
     2
172
     0
173
     0
174
     0
175
     0
176
     0
177
     0
178
     0
  0
ENDTAB
  0
ENDSEC
  0
SECTION
  2
BLOCKS
  0
BLOCK
  8
0
  2
$MODEL_SPACE
 70
     0
 10
0.0
 20
0.0
 30
0.0
  3
$MODEL_SPACE
  1

  0
ENDBLK
  5
3E7
  8
0
  0
BLOCK
 67
     1
  8
0
  2
$PAPER_SPACE
 70
     0
 10
0.0
 20
0.0
 30
0.0
  3
$PAPER_SPACE
  1

  0
ENDBLK
  5
3E3
 67
     1
  8
0
  0
BLOCK
  8
0
 62
    30
  2
_NONE
 70
     0
 10
0.0
 20
0.0
 30
0.0
  3
_NONE
  1

  0
ENDBLK
  5
176
  8
0
 62
    30
  0
BLOCK
  8
0
 62
    30
  2
_OPEN30
 70
     0
 10
0.0
 20
0.0
 30
0.0
  3
_OPEN30
  1

  0
LINE
  5
179
  8
0
  6
BYBLOCK
 62
     0
 10
-1.0
 20
0.26794919
 30
0.0
 11
0.0
 21
0.0
 31
0.0
  0
LINE
  5
17A
  8
0
  6
BYBLOCK
 62
     0
 10
0.0
 20
0.0
 30
0.0
 11
-1.0
 21
-0.26794919
 31
0.0
  0
LINE
  5
17B
  8
0
  6
BYBLOCK
 62
     0
 10
0.0
 20
0.0
 30
0.0
 11
-1.0
 21
0.0
 31
0.0
  0
ENDBLK
  5
17C
  8
0
 62
    30
  0
BLOCK
  8
0
 62
    30
  2
*D4
 70
     1
 10
0.0
 20
0.0
 30
0.0
  3
*D4
  1

  0
LINE
  5
233
  8
SIZE
  6
CONTINUOUS
 10
-131.0
 20
66.0
 30
0.0
 11
-130.9999999999998
 21
359.23000087064418
 31
0.0
  0
LINE
  5
234
  8
SIZE
  6
CONTINUOUS
 10
-29.0
 20
66.0
 30
0.0
 11
-28.999999999999979
 21
359.23000087064418
 31
0.0
  0
LINE
  5
235
  8
SIZE
  6
CONTINUOUS
 10
-130.9999999999998
 20
329.23000087064429
 30
0.0
 11
-28.999999999999979
 21
329.23000087064429
 31
0.0
  0
LINE
  5
236
  8
SIZE
  6
CONTINUOUS
 10
198.11996052444471
 20
329.23000087064429
 30
0.0
 11
-28.999999999999979
 21
329.23000087064429
 31
0.0
  0
TEXT
  5
237
  8
SIZE
  6
CONTINUOUS
 10
40.977103381587639
 20
349.23000087064418
 30
0.0
 40
64.0
  1
102
 41
0.9
  0
POINT
  5
238
  8
DEFPOINTS
  6
CONTINUOUS
 62
     0
 10
-131.0
 20
46.0
 30
0.0
  0
POINT
  5
239
  8
DEFPOINTS
  6
CONTINUOUS
 62
     0
 10
-29.0
 20
46.0
 30
0.0
  0
POINT
  5
23A
  8
DEFPOINTS
  6
CONTINUOUS
 62
     0
 10
-28.999999999999979
 20
329.23000087064429
 30
0.0
  0
ENDBLK
  5
232
  8
0
 62
    30
  0
BLOCK
  8
0
 62
    30
  2
*D5
 70
     1
 10
0.0
 20
0.0
 30
0.0
  3
*D5
  1

  0
LINE
  5
249
  8
SIZE
  6
CONTINUOUS
 10
-80.0
 20
80.312850999999981
 30
0.0
 11
-79.999999999999986
 21
260.8313208202116
 31
0.0
  0
LINE
  5
24A
  8
SIZE
  6
CONTINUOUS
 10
0.0000000000000012
 20
241.6667179999998
 30
0.0
 11
0.0000000000000024
 21
260.8313208202116
 31
0.0
  0
LINE
  5
24B
  8
SIZE
  6
CONTINUOUS
 10
-79.999999999999986
 20
230.8313208202116
 30
0.0
 11
0.0000000000000006
 21
230.8313208202116
 31
0.0
  0
LINE
  5
24C
  8
SIZE
  6
CONTINUOUS
 10
179.63189352284829
 20
230.8313208202116
 30
0.0
 11
0.0000000000000006
 21
230.8313208202116
 31
0.0
  0
TEXT
  5
24D
  8
SIZE
  6
CONTINUOUS
 10
66.374750665705434
 20
250.8313208202116
 30
0.0
 40
64.0
  1
80
 41
0.9
  0
POINT
  5
24E
  8
DEFPOINTS
  6
CONTINUOUS
 62
     0
 10
-80.0
 20
60.312851000000002
 30
0.0
  0
POINT
  5
24F
  8
DEFPOINTS
  6
CONTINUOUS
 62
     0
 10
0.0
 20
221.66671799999989
 30
0.0
  0
POINT
  5
250
  8
DEFPOINTS
  6
CONTINUOUS
 62
     0
 10
0.0000000000000006
 20
230.8313208202116
 30
0.0
  0
ENDBLK
  5
247
  8
0
 62
    30
  0
BLOCK
  8
0
 62
    30
  2
*D6
 70
     1
 10
0.0
 20
0.0
 30
0.0
  3
*D6
  1

  0
LINE
  5
25E
  8
SIZE
  6
CONTINUOUS
 10
-131.0
 20
66.0
 30
0.0
 11
-130.9999999999998
 21
362.68258445053112
 31
0.0
  0
LINE
  5
25F
  8
SIZE
  6
CONTINUOUS
 10
-29.0
 20
66.0
 30
0.0
 11
-28.999999999999979
 21
362.68258445053112
 31
0.0
  0
LINE
  5
260
  8
SIZE
  6
CONTINUOUS
 10
-130.9999999999998
 20
332.68258445053101
 30
0.0
 11
-28.999999999999979
 21
332.68258445053101
 31
0.0
  0
LINE
  5
261
  8
SIZE
  6
CONTINUOUS
 10
192.9377753125564
 20
332.68258445053101
 30
0.0
 11
-28.999999999999979
 21
332.68258445053101
 31
0.0
  0
TEXT
  5
262
  8
SIZE
  6
CONTINUOUS
 10
35.794918169699358
 20
352.68258445053101
 30
0.0
 40
64.0
  1
102
 41
0.9
  0
POINT
  5
263
  8
DEFPOINTS
  6
CONTINUOUS
 62
     0
 10
-131.0
 20
46.0
 30
0.0
  0
POINT
  5
264
  8
DEFPOINTS
  6
CONTINUOUS
 62
     0
 10
-29.0
 20
46.0
 30
0.0
  0
POINT
  5
265
  8
DEFPOINTS
  6
CONTINUOUS
 62
     0
 10
-28.999999999999979
 20
332.68258445053101
 30
0.0
  0
ENDBLK
  5
25D
  8
0
 62
    30
  0
BLOCK
  8
0
 62
    30
  2
*D7
 70
     1
 10
0.0
 20
0.0
 30
0.0
  3
*D7
  1

  0
LINE
  5
27F
  8
SIZE
  6
CONTINUOUS
 10
-9.0
 20
45.999999999999993
 30
0.0
 11
620.19616180282151
 21
45.999999999999801
 31
0.0
  0
LINE
  5
280
  8
SIZE
  6
CONTINUOUS
 10
575.73657599999979
 20
-0.0000000000000057
 30
0.0
 11
620.19616180282151
 21
-0.0000000000000183
 31
0.0
  0
LINE
  5
281
  8
SIZE
  6
CONTINUOUS
 10
590.19616180282162
 20
45.999999999999808
 30
0.0
 11
590.19616180282162
 21
-0.0000000000000098
 31
0.0
  0
LINE
  5
282
  8
SIZE
  6
CONTINUOUS
 10
590.19616180282162
 20
218.83687132342391
 30
0.0
 11
590.19616180282162
 21
45.999999999999808
 31
0.0
  0
TEXT
  5
283
  8
SIZE
  6
CONTINUOUS
 10
570.19616180282151
 20
108.3225856091384
 30
0.0
 40
64.0
  1
46
 50
90.0
 41
0.9
  0
POINT
  5
284
  8
DEFPOINTS
  6
CONTINUOUS
 62
     0
 10
-29.0
 20
46.0
 30
0.0
  0
POINT
  5
285
  8
DEFPOINTS
  6
CONTINUOUS
 62
     0
 10
555.73657600000001
 20
0.0
 30
0.0
  0
POINT
  5
286
  8
DEFPOINTS
  6
CONTINUOUS
 62
     0
 10
590.19616180282162
 20
-0.0000000000000098
 30
0.0
  0
ENDBLK
  5
27E
  8
0
 62
    30
  0
BLOCK
  8
0
 62
    30
  2
*D8
 70
     1
 10
0.0
 20
0.0
 30
0.0
  3
*D8
  1

  0
LINE
  5
322
  8
SIZE
  6
CONTINUOUS
 10
-179.0
 20
-40.0
 30
0.0
 11
-179.0
 21
-380.28914750582311
 31
0.0
  0
LINE
  5
323
  8
SIZE
  6
CONTINUOUS
 10
-0.0000000000000012
 20
-210.0
 30
0.0
 11
-0.0000000000000117
 21
-380.28914750582311
 31
0.0
  0
LINE
  5
324
  8
SIZE
  6
CONTINUOUS
 10
-179.0
 20
-350.28914750582311
 30
0.0
 11
-0.0000000000000098
 21
-350.28914750582311
 31
0.0
  0
TEXT
  5
325
  8
SIZE
  6
CONTINUOUS
 10
-156.69999999999999
 20
-330.28914750582311
 30
0.0
 40
64.0
  1
179
 41
0.9
  0
POINT
  5
326
  8
DEFPOINTS
  6
CONTINUOUS
 62
     0
 10
-179.0
 20
-20.0
 30
0.0
  0
POINT
  5
327
  8
DEFPOINTS
  6
CONTINUOUS
 62
     0
 10
0.0
 20
-190.0
 30
0.0
  0
POINT
  5
328
  8
DEFPOINTS
  6
CONTINUOUS
 62
     0
 10
-0.0000000000000098
 20
-350.28914750582311
 30
0.0
  0
ENDBLK
  5
32A
  8
0
 62
    30
  0
ENDSEC
  0
SECTION
  2
ENTITIES
  0
LINE
  5
17E
  8
SIZE
  6
CONTINUOUS
 62
    30
 10
-886.78675599999985
 20
-153.0
 30
0.0
 11
-886.78675599999985
 21
-311.148146
 31
0.0
  0
LINE
  5
17F
  8
SIZE
  6
CONTINUOUS
 62
    30
 10
-886.78675599999985
 20
-2.0
 30
0.0
 11
-886.78675599999985
 21
172.55669
 31
0.0
  0
LINE
  5
180
  8
SIZE
  6
CONTINUOUS
 62
    30
 10
7.0
 20
132.54084140370369
 30
0.0
 11
116.7034029999998
 21
132.54084140370369
 31
0.0
  0
LINE
  5
182
  8
SIZE
  6
CONTINUOUS
 62
    30
 10
382.90877865921158
 20
0.0
 30
0.0
 11
382.90877865921158
 21
178.389554
 31
0.0
  0
POINT
  5
183
  8
ARRANGE
  6
CONTINUOUS
 62
     1
 10
0.0
 20
0.0
 30
0.0
  0
LINE
  5
185
  8
DETAIL
  6
CONTINUOUS
 62
     5
 10
0.0
 20
0.0
 30
0.0
 11
-485.0
 21
0.0
 31
0.0
  0
LINE
  5
186
  8
DETAIL
  6
CONTINUOUS
 62
     5
 10
0.0
 20
-190.0
 30
0.0
 11
-485.0
 21
-190.0
 31
0.0
  0
LINE
  5
187
  8
DETAIL
  6
CONTINUOUS
 62
     5
 10
0.0
 20
30.0
 30
0.0
 11
0.0
 21
0.0
 31
0.0
  0
LINE
  5
188
  8
DETAIL
  6
CONTINUOUS
 62
     5
 10
6.0
 20
30.0
 30
0.0
 11
0.0
 21
30.0
 31
0.0
  0
LINE
  5
18C
  8
DETAIL
  6
CONTINUOUS
 62
     5
 10
-580.0
 20
-110.0
 30
0.0
 11
-580.0
 21
-168.0
 31
0.0
  0
CIRCLE
  5
18D
  8
ARRANGE
  6
CONTINUOUS
 62
     1
 10
0.0
 20
0.0
 30
0.0
 40
40.0
  0
LINE
  5
18E
  8
DETAIL
  6
CONTINUOUS
 62
     5
 10
0.0
 20
0.0
 30
0.0
 11
0.0
 21
-190.0
 31
0.0
  0
LINE
  5
18F
  8
DETAIL
  6
CONTINUOUS
 62
     5
 10
-580.0
 20
-110.0
 30
0.0
 11
-580.0
 21
-181.0
 31
0.0
  0
LINE
  5
190
  8
DETAIL
  6
CONTINUOUS
 62
     5
 10
-485.0
 20
0.0
 30
0.0
 11
-580.0
 21
-110.0
 31
0.0
  0
LINE
  5
191
  8
DETAIL
  6
CONTINUOUS
 62
     5
 10
-580.0
 20
-181.0
 30
0.0
 11
-485.0
 21
-190.0
 31
0.0
  0
LINE
  5
192
  8
DETAIL
  6
CONTINUOUS
 62
     5
 10
6.0
 20
30.0
 30
0.0
 11
6.0
 21
-175.0
 31
0.0
  0
LINE
  5
193
  8
DETAIL
  6
CONTINUOUS
 62
     5
 10
6.0
 20
-175.0
 30
0.0
 11
0.0
 21
-175.0
 31
0.0
  0
LINE
  5
194
  8
OUTLINE
  6
CONTINUOUS
 62
     3
 10
0.0
 20
0.0
 30
0.0
 11
-485.0
 21
0.0
 31
0.0
  0
LINE
  5
195
  8
OUTLINE
  6
CONTINUOUS
 62
     3
 10
-485.0
 20
0.0
 30
0.0
 11
-580.0
 21
-110.0
 31
0.0
  0
LINE
  5
196
  8
OUTLINE
  6
CONTINUOUS
 62
     3
 10
-580.0
 20
-110.0
 30
0.0
 11
-580.0
 21
-181.0
 31
0.0
  0
LINE
  5
197
  8
OUTLINE
  6
CONTINUOUS
 62
     3
 10
-580.0
 20
-181.0
 30
0.0
 11
-485.0
 21
-190.0
 31
0.0
  0
LINE
  5
198
  8
OUTLINE
  6
CONTINUOUS
 62
     3
 10
0.0
 20
-190.0
 30
0.0
 11
-485.0
 21
-190.0
 31
0.0
  0
LINE
  5
199
  8
OUTLINE
  6
CONTINUOUS
 62
     3
 10
0.0
 20
0.0
 30
0.0
 11
0.0
 21
-190.0
 31
0.0
  0
LINE
  5
19A
  8
SIZE
  6
CONTINUOUS
 62
    30
 10
-578.0
 20
723.38090055969315
 30
0.0
 11
-742.57775599999979
 21
723.38090055969315
 31
0.0
  0
LINE
  5
19B
  8
NOTE
  6
CONTINUOUS
 62
     4
 10
-351.0
 20
0.0
 30
0.0
 11
-696.25623399999995
 21
218.88136299999991
 31
0.0
  0
LINE
  5
19C
  8
NOTE
  6
CONTINUOUS
 62
     4
 10
-696.25623399999995
 20
218.88136299999991
 30
0.0
 11
-1148.0489999999991
 21
218.88136299999991
 31
0.0
  0
LINE
  5
19D
  8
NOTE
  6
CONTINUOUS
 62
     4
 10
-179.0
 20
0.0
 30
0.0
 11
-348.60858650342379
 21
-326.8425246061297
 31
0.0
  0
LINE
  5
19E
  8
NOTE
  6
CONTINUOUS
 62
     4
 10
-350.33680064089089
 20
-326.14623190613202
 30
0.0
 11
-461.6898003317545
 21
-326.14623190613202
 31
0.0
  0
TEXT
  5
19F
  8
NOTE
  6
CONTINUOUS
 62
     4
 10
-437.03381633175451
 20
-294.960045906132
 30
0.0
 40
64.0
  1
EL
 41
0.9
  0
TEXT
  5
1A0
  8
NOTE
  6
CONTINUOUS
 62
     4
 10
-1128.24
 20
249.5958549999998
 30
0.0
 40
64.0
  1
AH 6-φ10
 41
0.9
  0
CIRCLE
  5
1A2
  8
FIX
  6
CONTINUOUS
 62
    11
 10
-15.0
 20
0.0
 30
0.0
 40
5.0
  0
CIRCLE
  5
1A3
  8
FIX
  6
CONTINUOUS
 62
    11
 10
-351.0
 20
0.0
 30
0.0
 40
5.0
  0
CIRCLE
  5
1A4
  8
FIX
  6
CONTINUOUS
 62
    11
 10
-325.0
 20
0.0
 30
0.0
 40
5.0
  0
LINE
  5
1A6
  8
SIZE
  6
BYBLOCK
 62
    30
 10
-15.0
 20
40.0
 30
0.0
 11
-15.0
 21
221.66671799999989
 31
0.0
  0
LINE
  5
1A7
  8
SIZE
  6
BYBLOCK
 62
    30
 10
0.0
 20
50.0
 30
0.0
 11
0.0
 21
221.66671799999989
 31
0.0
  0
LINE
  5
1A9
  8
SIZE
  6
BYBLOCK
 62
    30
 10
-17.0
 20
454.06320655969319
 30
0.0
 11
-19.0
 21
454.06320655969319
 31
0.0
  0
TEXT
  5
1AB
  8
SIZE
  6
BYBLOCK
 62
    30
 10
38.53309999999999
 20
614.99502289793679
 30
0.0
 40
64.0
  1
15
 41
0.9
  0
LINE
  5
1AC
  8
SIZE
  6
BYBLOCK
 62
    30
 10
-15.0
 20
40.0
 30
0.0
 11
-15.0
 21
606.65165078990583
 31
0.0
  0
LINE
  5
1AD
  8
SIZE
  6
BYBLOCK
 62
    30
 10
-325.0
 20
40.0
 30
0.0
 11
-325.0
 21
482.35858125251713
 31
0.0
  0
LINE
  5
1AE
  8
SIZE
  6
BYBLOCK
 62
    30
 10
-15.0
 20
454.06320655969319
 30
0.0
 11
-170.0
 21
454.06320655969319
 31
0.0
  0
LINE
  5
1AF
  8
SIZE
  6
BYBLOCK
 62
    30
 10
-325.0
 20
454.06320655969319
 30
0.0
 11
-170.0
 21
454.06320655969319
 31
0.0
  0
TEXT
  5
1B0
  8
SIZE
  6
BYBLOCK
 62
    30
 10
-238.57142899999999
 20
486.06320655969319
 30
0.0
 40
64.0
  1
310
 41
0.9
  0
LINE
  5
1B7
  8
SIZE
  6
BYBLOCK
 62
    30
 10
0.0
 20
50.0
 30
0.0
 11
0.0
 21
352.32944199999991
 31
0.0
  0
LINE
  5
1B8
  8
SIZE
  6
BYBLOCK
 62
    30
 10
-351.0
 20
40.0
 30
0.0
 11
-351.0
 21
610.10423942491525
 31
0.0
  0
LINE
  5
1B9
  8
SIZE
  6
BYBLOCK
 62
    30
 10
133.73206294183359
 20
584.7259305596931
 30
0.0
 11
-351.0
 21
584.7259305596931
 31
0.0
  0
TEXT
  5
1BB
  8
SIZE
  6
BYBLOCK
 62
    30
 10
-240.68571399999999
 20
616.72593055969321
 30
0.0
 40
64.0
  1
336
 41
0.9
  0
LINE
  5
1BC
  8
SIZE
  6
BYBLOCK
 62
    30
 10
-485.0
 20
20.0
 30
0.0
 11
-485.0
 21
490.98441200000002
 31
0.0
  0
LINE
  5
1BD
  8
SIZE
  6
BYBLOCK
 62
    30
 10
0.0
 20
50.0
 30
0.0
 11
0.0
 21
490.98441200000002
 31
0.0
  0
LINE
  5
1BE
  8
SIZE
  6
BYBLOCK
 62
    30
 10
-487.0
 20
723.38090055969315
 30
0.0
 11
-242.5
 21
723.38090055969315
 31
0.0
  0
LINE
  5
1BF
  8
SIZE
  6
BYBLOCK
 62
    30
 10
0.0
 20
723.38090055969315
 30
0.0
 11
-242.5
 21
723.38090055969315
 31
0.0
  0
TEXT
  5
1C0
  8
SIZE
  6
BYBLOCK
 62
    30
 10
-316.55714299999988
 20
755.38090055969315
 30
0.0
 40
64.0
  1
485
 41
0.9
  0
LINE
  5
1C1
  8
SIZE
  6
BYBLOCK
 62
    30
 10
-600.0
 20
-110.0
 30
0.0
 11
-916.78675599999985
 21
-110.0
 31
0.0
  0
LINE
  5
1C2
  8
SIZE
  6
BYBLOCK
 62
    30
 10
-600.0
 20
-181.0
 30
0.0
 11
-916.78675599999985
 21
-181.0
 31
0.0
  0
LINE
  5
1C3
  8
SIZE
  6
BYBLOCK
 62
    30
 10
-886.78675599999985
 20
-112.0
 30
0.0
 11
-886.78675599999985
 21
-145.5
 31
0.0
  0
LINE
  5
1C4
  8
SIZE
  6
BYBLOCK
 62
    30
 10
-886.78675599999985
 20
-179.0
 30
0.0
 11
-886.78675599999985
 21
-145.5
 31
0.0
  0
TEXT
  5
1C5
  8
SIZE
  6
BYBLOCK
 62
    30
 10
-918.78675599999985
 20
-277.43733300000002
 30
0.0
 40
64.0
  1
71
 50
90.0
 41
0.9
  0
LINE
  5
1C6
  8
SIZE
  6
BYBLOCK
 62
    30
 10
-580.0
 20
-90.0
 30
0.0
 11
-580.0
 21
490.98441200000002
 31
0.0
  0
LINE
  5
1C7
  8
SIZE
  6
BYBLOCK
 62
    30
 10
-485.0
 20
20.0
 30
0.0
 11
-485.0
 21
752.48752814031093
 31
0.0
  0
LINE
  5
1C8
  8
SIZE
  6
BYBLOCK
 62
    30
 10
-578.0
 20
723.38090055969315
 30
0.0
 11
-532.5
 21
723.38090055969315
 31
0.0
  0
LINE
  5
1C9
  8
SIZE
  6
BYBLOCK
 62
    30
 10
-487.0
 20
723.38090055969315
 30
0.0
 11
-532.5
 21
723.38090055969315
 31
0.0
  0
TEXT
  5
1CA
  8
SIZE
  6
BYBLOCK
 62
    30
 10
-705.44921999999985
 20
757.9074505596933
 30
0.0
 40
64.0
  1
95
 41
0.9
  0
LINE
  5
1CB
  8
SIZE
  6
BYBLOCK
 62
    30
 10
6.0
 20
50.0
 30
0.0
 11
6.0
 21
156.08926360662369
 31
0.0
  0
LINE
  5
1CC
  8
SIZE
  6
BYBLOCK
 62
    30
 10
0.0
 20
50.0
 30
0.0
 11
0.0
 21
96.941716999999997
 31
0.0
  0
LINE
  5
1CE
  8
SIZE
  6
BYBLOCK
 62
    30
 10
8.0
 20
132.5408404037037
 30
0.0
 11
10.0
 21
132.5408404037037
 31
0.0
  0
LINE
  5
1CF
  8
SIZE
  6
BYBLOCK
 62
    30
 10
0.0
 20
132.5408404037037
 30
0.0
 11
6.0
 21
132.5408404037037
 31
0.0
  0
TEXT
  5
1D0
  8
SIZE
  6
BYBLOCK
 62
    30
 10
45.299971000000014
 20
151.42185804183819
 30
0.0
 40
64.0
  1
6
 41
0.9
  0
LINE
  5
1D1
  8
SIZE
  6
BYBLOCK
 62
    30
 10
27.0
 20
30.0
 30
0.0
 11
412.27448641593043
 21
30.0
 31
0.0
  0
LINE
  5
1D2
  8
SIZE
  6
BYBLOCK
 62
    30
 10
20.0
 20
0.0
 30
0.0
 11
555.73657600000001
 21
0.0
 31
0.0
  0
LINE
  5
1D3
  8
SIZE
  6
BYBLOCK
 62
    30
 10
525.73657599999979
 20
-2.0
 30
0.0
 11
525.73657599999979
 21
-4.0
 31
0.0
  0
LINE
  5
1D4
  8
SIZE
  6
BYBLOCK
 62
    30
 10
382.90877865921158
 20
32.0
 30
0.0
 11
382.90877865921158
 21
34.0
 31
0.0
  0
TEXT
  5
1D6
  8
SIZE
  6
BYBLOCK
 62
    30
 10
350.90877865921158
 20
66.454542000000004
 30
0.0
 40
64.0
  1
30
 50
90.0
 41
0.9
  0
LINE
  5
1D7
  8
SIZE
  6
BYBLOCK
 62
    30
 10
20.0
 20
0.0
 30
0.0
 11
555.73657600000001
 21
0.0
 31
0.0
  0
LINE
  5
1D8
  8
SIZE
  6
BYBLOCK
 62
    30
 10
20.0
 20
-190.0
 30
0.0
 11
555.73657600000001
 21
-190.0
 31
0.0
  0
LINE
  5
1D9
  8
SIZE
  6
BYBLOCK
 62
    30
 10
525.73657599999979
 20
167.39007289607341
 30
0.0
 11
525.73657599999979
 21
-95.0
 31
0.0
  0
LINE
  5
1DA
  8
SIZE
  6
BYBLOCK
 62
    30
 10
525.73657599999979
 20
-190.0
 30
0.0
 11
525.73657599999979
 21
-95.0
 31
0.0
  0
TEXT
  5
1DB
  8
SIZE
  6
BYBLOCK
 62
    30
 10
493.73657599999967
 20
-165.88270399999999
 30
0.0
 40
64.0
  1
190
 50
90.0
 41
0.9
  0
LINE
  5
1E1
  8
SIZE
  6
BYBLOCK
 62
    30
 10
-490.0
 20
0.0
 30
0.0
 11
-916.78675599999985
 21
0.0
 31
0.0
  0
LINE
  5
1E2
  8
SIZE
  6
BYBLOCK
 62
    30
 10
-600.0
 20
-110.0
 30
0.0
 11
-916.78675599999985
 21
-110.0
 31
0.0
  0
LINE
  5
1E3
  8
SIZE
  6
BYBLOCK
 62
    30
 10
-886.78675599999985
 20
-2.0
 30
0.0
 11
-886.78675599999985
 21
-55.0
 31
0.0
  0
LINE
  5
1E4
  8
SIZE
  6
BYBLOCK
 62
    30
 10
-886.78675599999985
 20
-112.0
 30
0.0
 11
-886.78675599999985
 21
-55.0
 31
0.0
  0
TEXT
  5
1E5
  8
SIZE
  6
BYBLOCK
 62
    30
 10
-918.78675599999985
 20
24.620743000000001
 30
0.0
 40
64.0
  1
110
 50
90.0
 41
0.9
  0
LINE
  5
1E6
  8
SIZE
  6
BYBLOCK
 62
    30
 10
0.0
 20
50.0
 30
0.0
 11
0.0
 21
873.32801409781314
 31
0.0
  0
LINE
  5
1E7
  8
SIZE
  6
BYBLOCK
 62
    30
 10
-580.0
 20
-90.0
 30
0.0
 11
-580.0
 21
869.87543051792727
 31
0.0
  0
LINE
  5
1E8
  8
SIZE
  6
BYBLOCK
 62
    30
 10
0.0
 20
843.47446355969305
 30
0.0
 11
-290.0
 21
843.47446355969305
 31
0.0
  0
LINE
  5
1E9
  8
SIZE
  6
BYBLOCK
 62
    30
 10
-580.0
 20
843.47446355969305
 30
0.0
 11
-290.0
 21
843.47446355969305
 31
0.0
  0
TEXT
  5
1EA
  8
SIZE
  6
BYBLOCK
 62
    30
 10
-364.057143
 20
875.47446355969316
 30
0.0
 40
64.0
  1
580
 41
0.9
  0
LINE
  5
1EB
  8
SIZE
  6
BYBLOCK
 62
    30
 10
20.0
 20
0.0
 30
0.0
 11
419.94042000000002
 21
0.0
 31
0.0
  0
CIRCLE
  5
1F2
  8
SIZE
  6
CONTINUOUS
 62
    30
 10
-580.0
 20
843.47446355969305
 30
0.0
 40
6.0
  0
CIRCLE
  5
1F3
  8
SIZE
  6
CONTINUOUS
 62
    30
 10
0.0
 20
843.47446355969305
 30
0.0
 40
6.0
  0
CIRCLE
  5
1F4
  8
SIZE
  6
CONTINUOUS
 62
    30
 10
-886.78675599999985
 20
-110.0
 30
0.0
 40
6.0
  0
CIRCLE
  5
1F5
  8
SIZE
  6
CONTINUOUS
 62
    30
 10
-886.78675599999985
 20
0.0
 30
0.0
 40
6.0
  0
CIRCLE
  5
1F8
  8
SIZE
  6
CONTINUOUS
 62
    30
 10
525.73657599999979
 20
-190.0
 30
0.0
 40
6.0
  0
CIRCLE
  5
1F9
  8
SIZE
  6
CONTINUOUS
 62
    30
 10
525.73657599999979
 20
0.0
 30
0.0
 40
6.0
  0
CIRCLE
  5
1FA
  8
SIZE
  6
CONTINUOUS
 62
    30
 10
382.90877865921158
 20
30.0
 30
0.0
 40
6.0
  0
CIRCLE
  5
1FB
  8
SIZE
  6
CONTINUOUS
 62
    30
 10
525.73657599999979
 20
0.0
 30
0.0
 40
6.0
  0
CIRCLE
  5
1FC
  8
SIZE
  6
CONTINUOUS
 62
    30
 10
6.0
 20
132.5408404037037
 30
0.0
 40
6.0
  0
CIRCLE
  5
1FD
  8
SIZE
  6
CONTINUOUS
 62
    30
 10
0.0
 20
132.5408404037037
 30
0.0
 40
6.0
  0
CIRCLE
  5
1FE
  8
SIZE
  6
CONTINUOUS
 62
    30
 10
-485.0
 20
723.38090055969315
 30
0.0
 40
6.0
  0
CIRCLE
  5
1FF
  8
SIZE
  6
CONTINUOUS
 62
    30
 10
-580.0
 20
723.38090055969315
 30
0.0
 40
6.0
  0
CIRCLE
  5
200
  8
SIZE
  6
CONTINUOUS
 62
    30
 10
-886.78675599999985
 20
-181.0
 30
0.0
 40
6.0
  0
CIRCLE
  5
201
  8
SIZE
  6
CONTINUOUS
 62
    30
 10
-886.78675599999985
 20
-110.0
 30
0.0
 40
6.0
  0
CIRCLE
  5
202
  8
SIZE
  6
CONTINUOUS
 62
    30
 10
0.0
 20
723.38090055969315
 30
0.0
 40
6.0
  0
CIRCLE
  5
203
  8
SIZE
  6
CONTINUOUS
 62
    30
 10
-485.0
 20
723.38090055969315
 30
0.0
 40
6.0
  0
CIRCLE
  5
208
  8
SIZE
  6
CONTINUOUS
 62
    30
 10
-325.0
 20
454.06320655969319
 30
0.0
 40
6.0
  0
CIRCLE
  5
209
  8
SIZE
  6
CONTINUOUS
 62
    30
 10
-15.0
 20
454.06320655969319
 30
0.0
 40
6.0
  0
CIRCLE
  5
20A
  8
SIZE
  6
CONTINUOUS
 62
    30
 10
-15.0
 20
454.06320655969319
 30
0.0
 40
6.0
  0
LINE
  5
20C
  8
NOTE
  6
CONTINUOUS
 62
     4
 10
-325.0
 20
-20.0
 30
0.0
 11
-325.0
 21
20.0
 31
0.0
  0
LINE
  5
20D
  8
NOTE
  6
CONTINUOUS
 62
     4
 10
-345.0
 20
0.0
 30
0.0
 11
-305.0
 21
0.0
 31
0.0
  0
LINE
  5
20E
  8
NOTE
  6
CONTINUOUS
 62
     4
 10
-15.0
 20
-20.0
 30
0.0
 11
-15.0
 21
20.0
 31
0.0
  0
LINE
  5
20F
  8
NOTE
  6
CONTINUOUS
 62
     4
 10
-35.0
 20
0.0
 30
0.0
 11
5.0
 21
0.0
 31
0.0
  0
LINE
  5
210
  8
NOTE
  6
CONTINUOUS
 62
     4
 10
-179.0
 20
-20.0
 30
0.0
 11
-179.0
 21
20.0
 31
0.0
  0
LINE
  5
211
  8
NOTE
  6
CONTINUOUS
 62
     4
 10
-199.0
 20
0.0
 30
0.0
 11
-159.0
 21
0.0
 31
0.0
  0
LINE
  5
212
  8
NOTE
  6
CONTINUOUS
 62
     4
 10
-351.0
 20
-20.0
 30
0.0
 11
-351.0
 21
20.0
 31
0.0
  0
LINE
  5
213
  8
NOTE
  6
CONTINUOUS
 62
     4
 10
-371.0
 20
0.0
 30
0.0
 11
-331.0
 21
0.0
 31
0.0
  0
TEXT
  5
214
  8
ETC
  6
CONTINUOUS
 62
    61
 10
369.4916698733947
 20
628.86843094469361
 30
0.0
 40
50.0
  1
V-316KY5
 41
0.9
  0
TEXT
  5
215
  8
ETC
  6
CONTINUOUS
 62
    61
 10
236.86780017203881
 20
811.06229289838041
 30
0.0
 40
64.0
  1
V-316KY5_4
 41
0.9
  0
TEXT
  5
216
  8
ETC
  6
CONTINUOUS
 62
    61
 10
234.84542917203879
 20
705.71003589838017
 30
0.0
 40
64.0
  1
換気扇
 41
0.9
  0
LINE
  5
217
  8
NOTE
  6
CONTINUOUS
 62
     4
 10
-206.28006762920441
 20
-29.20675259297786
 30
0.0
 11
-179.0
 21
0.0
 31
0.0
  0
LINE
  5
218
  8
NOTE
  6
CONTINUOUS
 62
     4
 10
-179.0
 20
0.0
 30
0.0
 11
-185.55132678164759
 21
-40.427655546513037
 31
0.0
  0
LINE
  5
219
  8
NOTE
  6
CONTINUOUS
 62
     4
 10
-388.75551899999999
 20
13.210632
 30
0.0
 11
-351.0
 21
0.0
 31
0.0
  0
LINE
  5
21A
  8
NOTE
  6
CONTINUOUS
 62
     4
 10
-351.0
 20
0.0
 30
0.0
 11
-377.09192200000001
 21
30.318501999999992
 31
0.0
  0
LINE
  5
21F
  8
BASIS
  6
DASHDOT1
 62
     6
 10
-80.0
 20
60.312851000000002
 30
0.0
 11
-80.0
 21
-28.624051437077451
 31
0.0
  0
LINE
  5
223
  8
DETAIL
  6
CONTINUOUS
 62
     5
 10
-131.0
 20
0.0
 30
0.0
 11
-131.0
 21
46.0
 31
0.0
  0
LINE
  5
224
  8
DETAIL
  6
CONTINUOUS
 62
     5
 10
-131.0
 20
46.0
 30
0.0
 11
-29.0
 21
46.0
 31
0.0
  0
LINE
  5
225
  8
DETAIL
  6
CONTINUOUS
 62
     5
 10
-29.0
 20
46.0
 30
0.0
 11
-29.0
 21
0.0
 31
0.0
  0
LINE
  5
287
  8
SIZE
  6
CONTINUOUS
 10
-9.0
 20
45.999999999999993
 30
0.0
 11
548.73868010770798
 21
45.999999999999801
 31
0.0
  0
LINE
  5
28C
  8
SIZE
  6
CONTINUOUS
 10
-131.0
 20
66.0
 30
0.0
 11
-130.9999999999998
 21
362.68258445053112
 31
0.0
  0
LINE
  5
28D
  8
SIZE
  6
CONTINUOUS
 10
-29.0
 20
66.0
 30
0.0
 11
-28.999999999999979
 21
362.68258445053112
 31
0.0
  0
LINE
  5
28E
  8
SIZE
  6
CONTINUOUS
 10
-130.9999999999998
 20
332.68258445053101
 30
0.0
 11
-28.999999999999979
 21
332.68258445053101
 31
0.0
  0
LINE
  5
28F
  8
SIZE
  6
CONTINUOUS
 10
192.9377753125564
 20
332.68258445053101
 30
0.0
 11
-28.999999999999979
 21
332.68258445053101
 31
0.0
  0
LINE
  5
291
  8
SIZE
  6
CONTINUOUS
 10
-80.0
 20
80.312850999999981
 30
0.0
 11
-79.999999999999986
 21
260.8313208202116
 31
0.0
  0
LINE
  5
292
  8
SIZE
  6
CONTINUOUS
 10
0.0000000000000012
 20
241.6667179999998
 30
0.0
 11
0.0000000000000024
 21
260.8313208202116
 31
0.0
  0
LINE
  5
293
  8
SIZE
  6
CONTINUOUS
 10
-79.999999999999986
 20
230.8313208202116
 30
0.0
 11
0.0000000000000006
 21
230.8313208202116
 31
0.0
  0
LINE
  5
294
  8
SIZE
  6
CONTINUOUS
 10
149.71046945615669
 20
230.8313208202116
 30
0.0
 11
0.0000000000000006
 21
230.8313208202116
 31
0.0
  0
TEXT
  5
296
  8
SIZE
  6
CONTINUOUS
 10
35.794918169699358
 20
352.68258445053101
 30
0.0
 40
64.0
  1
102
 41
0.9
  0
TEXT
  5
297
  8
SIZE
  6
CONTINUOUS
 10
40.884588450468058
 20
250.8313208202116
 30
0.0
 40
64.0
  1
80
 41
0.9
  0
TEXT
  5
298
  8
SIZE
  6
CONTINUOUS
 10
504.5551575628777
 20
68.991387790517365
 30
0.0
 40
64.0
  1
46
 50
90.0
 41
0.9
  0
CIRCLE
  5
299
  8
SIZE
  6
CONTINUOUS
 62
    30
 10
525.73657599999979
 20
45.999999999999808
 30
0.0
 40
6.0
  0
CIRCLE
  5
29A
  8
SIZE
  6
CONTINUOUS
 62
    30
 10
382.90877865921158
 20
0.0
 30
0.0
 40
6.0
  0
CIRCLE
  5
29B
  8
SIZE
  6
CONTINUOUS
 62
    30
 10
-79.999999999999986
 20
230.8313208202116
 30
0.0
 40
6.0
  0
CIRCLE
  5
29C
  8
SIZE
  6
CONTINUOUS
 62
    30
 10
0.0
 20
230.8313208202116
 30
0.0
 40
6.0
  0
CIRCLE
  5
29D
  8
SIZE
  6
CONTINUOUS
 62
    30
 10
-130.9999999999998
 20
332.68258445053101
 30
0.0
 40
6.0
  0
CIRCLE
  5
29E
  8
SIZE
  6
CONTINUOUS
 62
    30
 10
-28.999999999999979
 20
332.68258445053101
 30
0.0
 40
6.0
  0
CIRCLE
  5
29F
  8
SIZE
  6
CONTINUOUS
 62
    30
 10
-351.0
 20
584.7259305596931
 30
0.0
 40
6.0
  0
CIRCLE
  5
2A0
  8
SIZE
  6
CONTINUOUS
 62
    30
 10
-15.0
 20
584.7259305596931
 30
0.0
 40
6.0
  0
CIRCLE
  5
2A1
  8
SIZE
  6
CONTINUOUS
 62
    30
 10
0.0
 20
584.7259305596931
 30
0.0
 40
6.0
  0
CIRCLE
  5
32B
  8
SIZE
  6
CONTINUOUS
 62
    30
 10
-179.0
 20
-350.28914750582311
 30
0.0
 40
6.0
  0
CIRCLE
  5
32C
  8
SIZE
  6
CONTINUOUS
 62
    30
 10
-0.0000000000000098
 20
-350.28914750582311
 30
0.0
 40
6.0
  0
LINE
  5
32E
  8
SIZE
  6
CONTINUOUS
 10
-179.0
 20
-40.0
 30
0.0
 11
-179.0
 21
-380.28914750582311
 31
0.0
  0
LINE
  5
32F
  8
SIZE
  6
CONTINUOUS
 10
-0.0000000000000012
 20
-210.0
 30
0.0
 11
-0.0000000000000117
 21
-380.28914750582311
 31
0.0
  0
LINE
  5
330
  8
SIZE
  6
CONTINUOUS
 10
-179.0
 20
-350.28914750582311
 30
0.0
 11
-0.0000000000000098
 21
-350.28914750582311
 31
0.0
  0
TEXT
  5
332
  8
SIZE
  6
CONTINUOUS
 10
-156.69999999999999
 20
-330.28914750582311
 30
0.0
 40
64.0
  1
179
 41
0.9
  0
ENDSEC
  0
EOF
