  0
SECTION
  2
HEADER
  9
$ACADVER
  1
AC1009
  9
$DWGCODEPAGE
  3
dos932
  9
$INSBASE
 10
0.0
 20
0.0
 30
0.0
  9
$EXTMIN
 10
-896.40196129493779
 20
-551.46788392619783
 30
-0.0000002793804338
  9
$EXTMAX
 10
1072.238170800541
 20
529.67835267735427
 30
0.0000000116489898
  9
$LIMMIN
 10
-2970.0
 20
-2100.0
  9
$LIMMAX
 10
2970.0
 20
2100.0
  9
$ORTHOMODE
 70
     1
  9
$REGENMODE
 70
     1
  9
$FILLMODE
 70
     1
  9
$QTEXTMODE
 70
     0
  9
$MIRRTEXT
 70
     0
  9
$LTSCALE
 40
20.0
  9
$ATTMODE
 70
     1
  9
$TEXTSIZE
 40
64.0
  9
$TRACEWID
 40
0.05
  9
$TEXTSTYLE
  7
STANDARD
  9
$CLAYER
  8
NOTE
  9
$CELTYPE
  6
CONTINUOUS
  9
$CECOLOR
 62
     7
  9
$DIMSCALE
 40
1.0
  9
$DIMASZ
 40
12.0
  9
$DIMEXO
 40
20.0
  9
$DIMDLI
 40
200.0
  9
$DIMRND
 40
0.0
  9
$DIMDLE
 40
0.0
  9
$DIMEXE
 40
20.0
  9
$DIMTP
 40
0.0
  9
$DIMTM
 40
0.0
  9
$DIMTXT
 40
64.0
  9
$DIMCEN
 40
0.09
  9
$DIMTSZ
 40
0.0
  9
$DIMTOL
 70
     0
  9
$DIMLIM
 70
     0
  9
$DIMTIH
 70
     0
  9
$DIMTOH
 70
     0
  9
$DIMSE1
 70
     0
  9
$DIMSE2
 70
     0
  9
$DIMTAD
 70
     1
  9
$DIMZIN
 70
     8
  9
$DIMBLK
  1

  9
$DIMASO
 70
     1
  9
$DIMSHO
 70
     0
  9
$DIMPOST
  1

  9
$DIMAPOST
  1

  9
$DIMALT
 70
     0
  9
$DIMALTD
 70
     2
  9
$DIMALTF
 40
25.399999999999999
  9
$DIMLFAC
 40
1.0
  9
$DIMTOFL
 70
     1
  9
$DIMTVP
 40
0.0
  9
$DIMTIX
 70
     1
  9
$DIMSOXD
 70
     0
  9
$DIMSAH
 70
     0
  9
$DIMBLK1
  1

  9
$DIMBLK2
  1

  9
$DIMSTYLE
  2
STANDARD
  9
$DIMCLRD
 70
     7
  9
$DIMCLRE
 70
     7
  9
$DIMCLRT
 70
     7
  9
$DIMTFAC
 40
1.0
  9
$DIMGAP
 40
25.0
  9
$LUNITS
 70
     2
  9
$LUPREC
 70
     4
  9
$SKETCHINC
 40
0.1
  9
$FILLETRAD
 40
3.0
  9
$AUNITS
 70
     1
  9
$AUPREC
 70
     3
  9
$MENU
  1
ACAD
  9
$ELEVATION
 40
0.0
  9
$PELEVATION
 40
0.0
  9
$THICKNESS
 40
50.0
  9
$LIMCHECK
 70
     0
  9
$CHAMFERA
 40
0.0
  9
$CHAMFERB
 40
0.0
  9
$SKPOLY
 70
     0
  9
$TDCREATE
 40
2453019.62301037
  9
$TDUPDATE
 40
2458887.738679479
  9
$TDINDWG
 40
1.7105874421
  9
$TDUSRTIMER
 40
1.7105874421
  9
$USRTIMER
 70
     1
  9
$ANGBASE
 50
0.0
  9
$ANGDIR
 70
     0
  9
$PDMODE
 70
     3
  9
$PDSIZE
 40
-2.0
  9
$PLINEWID
 40
0.0
  9
$SPLFRAME
 70
     0
  9
$SPLINETYPE
 70
     6
  9
$SPLINESEGS
 70
     8
  9
$SURFTAB1
 70
     6
  9
$SURFTAB2
 70
     6
  9
$SURFTYPE
 70
     6
  9
$SURFU
 70
     6
  9
$SURFV
 70
     6
  9
$UCSNAME
  2

  9
$UCSORG
 10
0.0
 20
0.0
 30
0.0
  9
$UCSXDIR
 10
1.0
 20
0.0
 30
0.0
  9
$UCSYDIR
 10
0.0
 20
1.0
 30
0.0
  9
$PUCSNAME
  2

  9
$PUCSORG
 10
0.0
 20
0.0
 30
0.0
  9
$PUCSXDIR
 10
1.0
 20
0.0
 30
0.0
  9
$PUCSYDIR
 10
0.0
 20
1.0
 30
0.0
  9
$USERI1
 70
     0
  9
$USERI2
 70
     0
  9
$USERI3
 70
     0
  9
$USERI4
 70
     0
  9
$USERI5
 70
     0
  9
$USERR1
 40
20.0
  9
$USERR2
 40
0.0
  9
$USERR3
 40
0.0
  9
$USERR4
 40
0.0
  9
$USERR5
 40
0.0
  9
$WORLDVIEW
 70
     1
  9
$SHADEDGE
 70
     3
  9
$SHADEDIF
 70
    70
  9
$TILEMODE
 70
     1
  9
$MAXACTVP
 70
    48
  9
$PINSBASE
 10
0.0
 20
0.0
 30
0.0
  9
$PLIMCHECK
 70
     0
  9
$PEXTMIN
 10
-100000000000000000000.0
 20
-100000000000000000000.0
 30
-100000000000000000000.0
  9
$PEXTMAX
 10
100000000000000000000.0
 20
100000000000000000000.0
 30
100000000000000000000.0
  9
$PLIMMIN
 10
0.0
 20
0.0
  9
$PLIMMAX
 10
12.0
 20
9.0
  9
$UNITMODE
 70
     0
  9
$VISRETAIN
 70
     0
  9
$PLINEGEN
 70
     0
  9
$PSLTSCALE
 70
     0
  9
$TREEDEPTH
 70
  3020
  9
$ATTDIA
 70
     0
  9
$ATTREQ
 70
     1
  9
$BLIPMODE
 70
     1
  9
$COORDS
 70
     1
  9
$DRAGMODE
 70
     2
  9
$OSMODE
 70
     0
  9
$HANDLING
 70
     0
  9
$HANDSEED
  5
E8B3
  0
ENDSEC
  0
SECTION
  2
TABLES
  0
TABLE
  2
LTYPE
 70
     3
  0
LTYPE
  2
CONTINUOUS
 70
     0
  3
実線
 72
    65
 73
     0
 40
0.0
  0
LTYPE
  2
DASHDOT
 70
     0
  3
____ _ ____ _ ____ _ ____ _ ____ _ ____ _ ____
 72
    65
 73
     4
 40
5.5
 49
4.0
 49
-0.6
 49
0.3
 49
-0.6
  0
LTYPE
  2
DIVIDE
 70
     0
  3
Divide ____ . . ____ . . ____ . . ____ . . ____
 72
    65
 73
     6
 40
1.25
 49
0.5
 49
-0.25
 49
0.0
 49
-0.25
 49
0.0
 49
-0.25
  0
ENDTAB
  0
TABLE
  2
LAYER
 70
    12
  0
LAYER
  2
0
 70
     0
 62
     7
  6
CONTINUOUS
  0
LAYER
  2
BASIS
 70
     0
 62
     6
  6
DASHDOT
  0
LAYER
  2
OUTLINE
 70
     0
 62
     3
  6
CONTINUOUS
  0
LAYER
  2
DETAIL
 70
     0
 62
     5
  6
CONTINUOUS
  0
LAYER
  2
SIZE
 70
     0
 62
    30
  6
CONTINUOUS
  0
LAYER
  2
ARRANGE
 70
     0
 62
     1
  6
CONTINUOUS
  0
LAYER
  2
ETC
 70
     0
 62
    61
  6
CONTINUOUS
  0
LAYER
  2
FIX
 70
     0
 62
    11
  6
CONTINUOUS
  0
LAYER
  2
NOTE
 70
     0
 62
     4
  6
CONTINUOUS
  0
LAYER
  2
DEFPOINTS
 70
    64
 62
     7
  6
CONTINUOUS
  0
LAYER
  2
SERVICESPACE
 70
    64
 62
     2
  6
DASHDOT
  0
LAYER
  2
SYMBOLLINE
 70
    64
 62
    15
  6
CONTINUOUS
  0
ENDTAB
  0
TABLE
  2
STYLE
 70
     1
  0
STYLE
  2
STANDARD
 70
     0
 40
64.0
 41
0.9
 50
0.0
 71
     0
 42
64.0
  3
SIMPLEX.shx
  4
BIGFONT.shx
  0
ENDTAB
  0
TABLE
  2
APPID
 70
    17
  0
APPID
  2
ACAD
 70
     0
  0
APPID
  2
AUTOCAD_POSTSCRIPT_FIGURE
 70
     0
  0
APPID
  2
ACAD_EXEMPT_FROM_CAD_STANDARDS
 70
     0
  0
APPID
  2
ACAD_PSEXT
 70
     0
  0
APPID
  2
ACAUTHENVIRON
 70
     0
  0
APPID
  2
GENIUS_GENOENT_13
 70
     0
  0
APPID
  2
GENIUS_GENCFG_13
 70
     0
  0
APPID
  2
GENIUS_GENCFG0_13
 70
     0
  0
APPID
  2
GENIUS_GENCFG1_13
 70
     0
  0
APPID
  2
GENIUS_GENCFG2_13
 70
     0
  0
APPID
  2
GENIUS_GENCFG3_13
 70
     0
  0
APPID
  2
GENIUS_GENCFG4_13
 70
     0
  0
APPID
  2
GENIUS_GEVCFG0_13
 70
     0
  0
APPID
  2
CONTENTBLOCKICON
 70
     0
  0
APPID
  2
CONTENTBLOCKDESCRIPTION
 70
     0
  0
APPID
  2
ACAD_NAV_VCDISPLAY
 70
     0
  0
APPID
  2
ACAD_MLEADERVER
 70
     0
  0
ENDTAB
  0
TABLE
  2
DIMSTYLE
 70
     1
  0
DIMSTYLE
  2
STANDARD
 70
     0
  3

  4

  5
_ORIGIN
  6

  7

 40
1.0
 41
12.0
 42
20.0
 43
200.0
 44
20.0
 45
0.0
 46
0.0
 47
0.0
 48
0.0
140
64.0
141
0.09
142
0.0
143
25.399999999999999
144
1.0
145
0.0
146
1.0
147
25.0
 71
     0
 72
     0
 73
     0
 74
     0
 75
     0
 76
     0
 77
     1
 78
     8
170
     0
171
     2
172
     1
173
     0
174
     1
175
     0
176
     7
177
     7
178
     7
  0
ENDTAB
  0
TABLE
  2
VIEW
 70
     1
  0
VIEW
  2
ALL
 70
     0
 40
4282.6198079999986
 10
0.0
 20
41.309904000000003
 41
5940.0
 11
0.0
 21
0.0
 31
1.0
 12
0.0
 22
0.0
 32
0.0
 42
50.0
 43
0.0
 44
0.0
 50
0.0
 71
     0
  0
ENDTAB
  0
TABLE
  2
UCS
 70
     0
  0
ENDTAB
  0
TABLE
  2
VPORT
 70
     1
  0
VPORT
  2
*ACTIVE
 70
     0
 10
0.0
 20
0.0
 11
1.0
 21
1.0
 12
87.918104752802037
 22
-10.89476562442178
 13
0.0
 23
0.0
 14
1.0
 24
1.0
 15
0.0
 25
0.0
 16
0.0
 26
0.0
 36
1.0
 17
0.0
 27
0.0
 37
0.0
 40
1209.4282817782971
 41
1.6339193381592549
 42
50.0
 43
0.0
 44
0.0
 50
0.0
 51
0.0
 71
     0
 72
  1000
 73
     1
 74
     3
 75
     0
 76
     0
 77
     0
 78
     0
  0
ENDTAB
  0
ENDSEC
  0
SECTION
  2
BLOCKS
  0
BLOCK
  8
0
  2
_ORIGIN
 70
     0
 10
0.0
 20
0.0
 30
0.0
  3
_ORIGIN
  1
_ORIGIN
  0
CIRCLE
  8
0
  6
CONTINUOUS
 62
     7
 10
0.0
 20
0.0
 30
0.0
 40
0.5
  0
LINE
  8
0
  6
CONTINUOUS
 62
     7
 10
0.0
 20
0.0
 30
0.0
 11
-1.0
 21
0.0
 31
0.0
  0
ENDBLK
  8
0
  0
ENDSEC
  0
SECTION
  2
ENTITIES
  0
LINE
  8
NOTE
  6
CONTINUOUS
 62
     4
 10
-250.0
 20
-7.0
 30
0.0
 11
-250.0
 21
53.0
 31
0.0
  0
LINE
  8
NOTE
  6
CONTINUOUS
 62
     4
 10
-220.0
 20
23.0
 30
0.0
 11
-280.0
 21
23.0
 31
0.0
  0
LINE
  8
NOTE
  6
CONTINUOUS
 62
     4
 10
279.99999999999989
 20
23.0
 30
0.0
 11
219.99999999999989
 21
23.0
 31
0.0
  0
LINE
  8
NOTE
  6
CONTINUOUS
 62
     4
 10
249.99999999999989
 20
-7.0
 30
0.0
 11
249.99999999999989
 21
53.0
 31
0.0
  0
LINE
  8
BASIS
  6
DASHDOT
 62
     6
 10
0.0
 20
-272.39686599999999
 30
0.0
 11
0.0
 21
117.584557
 31
0.0
  0
POINT
  8
ARRANGE
  6
CONTINUOUS
 62
     1
 10
0.0
 20
0.0
 30
0.0
  0
LINE
  8
DETAIL
  6
CONTINUOUS
 62
     5
 10
-300.0
 20
0.0
 30
0.0
 11
-260.0
 21
0.0
 31
0.0
  0
LINE
  8
DETAIL
  6
CONTINUOUS
 62
     5
 10
-300.0
 20
-190.0
 30
0.0
 11
299.99999999999989
 21
-190.0
 31
0.0
  0
LINE
  8
DETAIL
  6
CONTINUOUS
 62
     5
 10
299.99999999999989
 20
0.0
 30
0.0
 11
299.99999999999989
 21
-190.0
 31
0.0
  0
LINE
  8
DETAIL
  6
CONTINUOUS
 62
     5
 10
-300.0
 20
0.0
 30
0.0
 11
-300.0
 21
-190.0
 31
0.0
  0
LINE
  8
DETAIL
  6
CONTINUOUS
 62
     5
 10
239.99999999999989
 20
-175.0
 30
0.0
 11
239.99999999999989
 21
30.0
 31
0.0
  0
LINE
  8
DETAIL
  6
CONTINUOUS
 62
     5
 10
259.99999999999989
 20
-175.0
 30
0.0
 11
259.99999999999989
 21
30.0
 31
0.0
  0
LINE
  8
DETAIL
  6
CONTINUOUS
 62
     5
 10
239.99999999999989
 20
30.0
 30
0.0
 11
259.99999999999989
 21
30.0
 31
0.0
  0
LINE
  8
DETAIL
  6
CONTINUOUS
 62
     5
 10
-260.0
 20
-175.0
 30
0.0
 11
-260.0
 21
30.0
 31
0.0
  0
LINE
  8
DETAIL
  6
CONTINUOUS
 62
     5
 10
-240.0
 20
-175.0
 30
0.0
 11
-240.0
 21
30.0
 31
0.0
  0
LINE
  8
DETAIL
  6
CONTINUOUS
 62
     5
 10
-240.0
 20
30.0
 30
0.0
 11
-260.0
 21
30.0
 31
0.0
  0
LINE
  8
SIZE
  6
CONTINUOUS
 62
    30
 10
505.66474499999981
 20
30.0
 30
0.0
 11
505.66474499999981
 21
161.39597299999991
 31
0.0
  0
CIRCLE
  8
ARRANGE
  6
CONTINUOUS
 62
     1
 10
0.0
 20
0.0
 30
0.0
 40
40.0
  0
LINE
  8
OUTLINE
  6
CONTINUOUS
 62
     3
 10
-300.0
 20
0.0
 30
0.0
 11
-300.0
 21
-190.0
 31
0.0
  0
LINE
  8
OUTLINE
  6
CONTINUOUS
 62
     3
 10
-300.0
 20
-190.0
 30
0.0
 11
299.99999999999989
 21
-190.0
 31
0.0
  0
LINE
  8
OUTLINE
  6
CONTINUOUS
 62
     3
 10
299.99999999999989
 20
0.0
 30
0.0
 11
299.99999999999989
 21
-190.0
 31
0.0
  0
LINE
  8
SIZE
  6
CONTINUOUS
 62
    30
 10
-435.97339300568251
 20
32.0
 30
0.0
 11
-435.97339300568251
 21
155.32307199999991
 31
0.0
  0
LINE
  8
SIZE
  6
CONTINUOUS
 62
    30
 10
-435.97339300568251
 20
-2.0
 30
0.0
 11
-435.97339300568251
 21
-152.66336699999999
 31
0.0
  0
LINE
  8
NOTE
  6
CONTINUOUS
 62
     4
 10
-256.36259200000001
 20
16.0
 30
0.0
 11
-243.63740799999999
 21
16.0
 31
0.0
  0
LINE
  8
DETAIL
  6
CONTINUOUS
 62
     5
 10
-252.49999999999989
 20
-23.0
 30
0.0
 11
-252.49999999999989
 21
7.741991999999982
 31
0.0
  0
LINE
  8
DETAIL
  6
CONTINUOUS
 62
     5
 10
-247.5
 20
-23.0
 30
0.0
 11
-247.5
 21
7.741991999999982
 31
0.0
  0
ARC
  8
DETAIL
  6
CONTINUOUS
 62
     5
 10
-250.0
 20
-23.0
 30
0.0
 40
2.5
 50
180.0
 51
0.0
  0
ARC
  8
DETAIL
  6
CONTINUOUS
 62
     5
 10
249.99999999999989
 20
-23.0
 30
0.0
 40
2.5
 50
180.0
 51
0.0
  0
LINE
  8
DETAIL
  6
CONTINUOUS
 62
     5
 10
252.4999999999998
 20
-23.0
 30
0.0
 11
252.4999999999998
 21
7.741991999999982
 31
0.0
  0
LINE
  8
DETAIL
  6
CONTINUOUS
 62
     5
 10
247.49999999999989
 20
-23.0
 30
0.0
 11
247.49999999999989
 21
7.741991999999982
 31
0.0
  0
LINE
  8
NOTE
  6
CONTINUOUS
 62
     4
 10
243.63740799999991
 20
16.0
 30
0.0
 11
256.36259199999989
 21
16.0
 31
0.0
  0
LINE
  8
DETAIL
  6
DIVIDE
 62
     5
 10
145.49999999999989
 20
-142.0
 30
0.0
 11
-145.5
 21
-142.0
 31
0.0
  0
LINE
  8
DETAIL
  6
DIVIDE
 62
     5
 10
-145.50643052071291
 20
-40.0
 30
0.0
 11
145.49999999999989
 21
-40.0
 31
0.0
  0
LINE
  8
BASIS
  6
DASHDOT
 62
     6
 10
-193.02308600000001
 20
-91.0
 30
0.0
 11
196.83297699999989
 21
-91.0
 31
0.0
  0
LINE
  8
DETAIL
  6
CONTINUOUS
 62
     5
 10
-240.0
 20
0.0
 30
0.0
 11
239.99999999999989
 21
0.0
 31
0.0
  0
LINE
  8
DETAIL
  6
CONTINUOUS
 62
     5
 10
259.99999999999989
 20
0.0
 30
0.0
 11
299.99999999999989
 21
0.0
 31
0.0
  0
LINE
  8
DETAIL
  6
CONTINUOUS
 62
     5
 10
247.49999999999989
 20
0.0
 30
0.0
 11
252.4999999999998
 21
0.0
 31
0.0
  0
LINE
  8
DETAIL
  6
CONTINUOUS
 62
     5
 10
-252.49999999999989
 20
0.0
 30
0.0
 11
-247.5
 21
0.0
 31
0.0
  0
LINE
  8
DETAIL
  6
CONTINUOUS
 62
     5
 10
-260.0
 20
-175.0
 30
0.0
 11
-240.0
 21
-175.0
 31
0.0
  0
LINE
  8
DETAIL
  6
CONTINUOUS
 62
     5
 10
239.99999999999989
 20
-175.0
 30
0.0
 11
259.99999999999989
 21
-175.0
 31
0.0
  0
LINE
  8
NOTE
  6
CONTINUOUS
 62
     4
 10
-250.0
 20
0.0
 30
0.0
 11
-440.048092
 21
-358.25215400000002
 31
0.0
  0
LINE
  8
NOTE
  6
CONTINUOUS
 62
     4
 10
-440.048092
 20
-358.25215400000002
 30
0.0
 11
-883.90371899999889
 21
-358.25215400000002
 31
0.0
  0
LINE
  8
NOTE
  6
CONTINUOUS
 62
     4
 10
0.0
 20
0.0
 30
0.0
 11
312.45391172757701
 21
-355.14913268697092
 31
0.0
  0
LINE
  8
NOTE
  6
CONTINUOUS
 62
     4
 10
312.45391172757701
 20
-355.14913268697092
 30
0.0
 11
441.57232572757681
 21
-355.14913268697092
 31
0.0
  0
TEXT
  8
NOTE
  6
CONTINUOUS
 62
     4
 10
335.25854672757708
 20
-323.38483368697081
 30
0.0
 40
64.0
  1
EL
 41
0.9
  0
TEXT
  8
NOTE
  6
CONTINUOUS
 62
     4
 10
-868.89145399999893
 20
-325.81385799999993
 30
0.0
 40
64.0
  1
AH 6-φ10
 41
0.9
  0
LINE
  8
OUTLINE
  6
CONTINUOUS
 62
     3
 10
-300.0
 20
0.0
 30
0.0
 11
-259.99999709695658
 21
0.0
 31
0.0
  0
LINE
  8
OUTLINE
  6
CONTINUOUS
 62
     3
 10
-239.9999970969566
 20
0.0
 30
0.0
 11
-145.4999970969566
 21
0.0
 31
0.0
  0
LINE
  8
OUTLINE
  6
CONTINUOUS
 62
     3
 10
145.5000029030434
 20
0.0
 30
0.0
 11
240.0000029030434
 21
0.0
 31
0.0
  0
LINE
  8
OUTLINE
  6
CONTINUOUS
 62
     3
 10
260.00000290304342
 20
0.0
 30
0.0
 11
299.99999999999989
 21
0.0
 31
0.0
  0
CIRCLE
  8
FIX
  6
CONTINUOUS
 62
    11
 10
-250.0
 20
0.0
 30
0.0
 40
5.0
  0
CIRCLE
  8
FIX
  6
CONTINUOUS
 62
    11
 10
249.99999999999989
 20
0.0
 30
0.0
 40
5.0
  0
LINE
  8
SIZE
  6
CONTINUOUS
 62
    30
 10
249.99999999999989
 20
-40.0
 30
0.0
 11
249.99999999999989
 21
-449.25953362008659
 31
0.0
  0
LINE
  8
SIZE
  6
CONTINUOUS
 62
    30
 10
-250.0
 20
-40.0
 30
0.0
 11
-250.0
 21
-445.85902563260521
 31
0.0
  0
LINE
  8
SIZE
  6
CONTINUOUS
 62
    30
 10
247.99999999999989
 20
-415.25446868544878
 30
0.0
 11
-248.0
 21
-415.25446868544878
 31
0.0
  0
TEXT
  8
SIZE
  6
CONTINUOUS
 62
    30
 10
-74.057142999999996
 20
-383.25446868544878
 30
0.0
 40
64.0
  1
500
 41
0.9
  0
LINE
  8
SIZE
  6
CONTINUOUS
 62
    30
 10
-276.36259199999989
 20
16.0
 30
0.0
 11
-397.24557499999997
 21
16.0
 31
0.0
  0
LINE
  8
SIZE
  6
CONTINUOUS
 62
    30
 10
-300.0
 20
23.0
 30
0.0
 11
-464.89615286805372
 21
23.0
 31
0.0
  0
LINE
  8
SIZE
  6
CONTINUOUS
 62
    30
 10
-435.97339300568251
 20
25.0
 30
0.0
 11
-435.97339300568251
 21
27.0
 31
0.0
  0
LINE
  8
SIZE
  6
CONTINUOUS
 62
    30
 10
-435.97339300568251
 20
14.0
 30
0.0
 11
-435.97339300568251
 21
12.0
 31
0.0
  0
LINE
  8
SIZE
  6
CONTINUOUS
 62
    30
 10
-435.97339300568251
 20
23.0
 30
0.0
 11
-435.97339300568251
 21
16.0
 31
0.0
  0
TEXT
  8
SIZE
  6
CONTINUOUS
 62
    30
 10
-467.97339300568251
 20
74.862281999999936
 30
0.0
 40
64.0
  1
7
 50
90.0
 41
0.9
  0
LINE
  8
SIZE
  6
CONTINUOUS
 62
    30
 10
-276.36259199999989
 20
16.0
 30
0.0
 11
-466.597487769488
 21
16.0
 31
0.0
  0
LINE
  8
SIZE
  6
CONTINUOUS
 62
    30
 10
-320.0
 20
0.0
 30
0.0
 11
-397.24557499999997
 21
0.0
 31
0.0
  0
LINE
  8
SIZE
  6
CONTINUOUS
 62
    30
 10
-435.97339300568251
 20
-2.0
 30
0.0
 11
-435.97339300568251
 21
-4.0
 31
0.0
  0
LINE
  8
SIZE
  6
CONTINUOUS
 62
    30
 10
-435.97339300568251
 20
18.0
 30
0.0
 11
-435.97339300568251
 21
20.0
 31
0.0
  0
LINE
  8
SIZE
  6
CONTINUOUS
 62
    30
 10
-435.97339300568251
 20
0.0
 30
0.0
 11
-435.97339300568251
 21
16.0
 31
0.0
  0
TEXT
  8
SIZE
  6
CONTINUOUS
 62
    30
 10
-467.97339300568251
 20
-102.4093799999999
 30
0.0
 40
64.0
  1
16
 50
90.0
 41
0.9
  0
LINE
  8
SIZE
  6
CONTINUOUS
 62
    30
 10
-320.0
 20
0.0
 30
0.0
 11
-649.10265199999981
 21
0.0
 31
0.0
  0
LINE
  8
SIZE
  6
CONTINUOUS
 62
    30
 10
-320.0
 20
-190.0
 30
0.0
 11
-649.10265199999981
 21
-190.0
 31
0.0
  0
LINE
  8
SIZE
  6
CONTINUOUS
 62
    30
 10
-619.10265199999981
 20
-2.0
 30
0.0
 11
-619.10265199999981
 21
-95.0
 31
0.0
  0
LINE
  8
SIZE
  6
CONTINUOUS
 62
    30
 10
-619.10265199999981
 20
-188.0
 30
0.0
 11
-619.10265199999981
 21
-95.0
 31
0.0
  0
TEXT
  8
SIZE
  6
CONTINUOUS
 62
    30
 10
-651.10265199999958
 20
-163.57142899999991
 30
0.0
 40
64.0
  1
190
 50
90.0
 41
0.9
  0
LINE
  8
SIZE
  6
CONTINUOUS
 62
    30
 10
320.0
 20
0.0
 30
0.0
 11
535.66474499999958
 21
0.0
 31
0.0
  0
LINE
  8
SIZE
  6
CONTINUOUS
 62
    30
 10
505.66474499999981
 20
2.0
 30
0.0
 11
505.66474499999981
 21
4.0
 31
0.0
  0
LINE
  8
SIZE
  6
CONTINUOUS
 62
    30
 10
320.0
 20
0.0
 30
0.0
 11
666.49412661558176
 21
0.0
 31
0.0
  0
LINE
  8
SIZE
  6
CONTINUOUS
 62
    30
 10
279.99999999999989
 20
30.0
 30
0.0
 11
535.66474499999958
 21
30.0
 31
0.0
  0
LINE
  8
SIZE
  6
CONTINUOUS
 62
    30
 10
505.66474499999981
 20
32.0
 30
0.0
 11
505.66474499999981
 21
34.0
 31
0.0
  0
LINE
  8
SIZE
  6
CONTINUOUS
 62
    30
 10
505.66474499999981
 20
-2.0
 30
0.0
 11
505.66474499999981
 21
-4.0
 31
0.0
  0
LINE
  8
SIZE
  6
CONTINUOUS
 62
    30
 10
505.66474499999981
 20
30.0
 30
0.0
 11
505.66474499999981
 21
0.0
 31
0.0
  0
TEXT
  8
SIZE
  6
CONTINUOUS
 62
    30
 10
473.66474499999958
 20
60.66078600000003
 30
0.0
 40
64.0
  1
30
 50
90.0
 41
0.9
  0
LINE
  8
SIZE
  6
CONTINUOUS
 62
    30
 10
299.99999999999989
 20
20.0
 30
0.0
 11
299.99999999999989
 21
416.238112
 31
0.0
  0
LINE
  8
SIZE
  6
CONTINUOUS
 62
    30
 10
-300.0
 20
20.0
 30
0.0
 11
-300.0
 21
416.238112
 31
0.0
  0
LINE
  8
SIZE
  6
CONTINUOUS
 62
    30
 10
297.99999999999989
 20
386.238112
 30
0.0
 11
0.0
 21
386.238112
 31
0.0
  0
LINE
  8
SIZE
  6
CONTINUOUS
 62
    30
 10
-298.0
 20
386.238112
 30
0.0
 11
0.0
 21
386.238112
 31
0.0
  0
TEXT
  8
SIZE
  6
CONTINUOUS
 62
    30
 10
-74.057142999999996
 20
418.238112
 30
0.0
 40
64.0
  1
600
 41
0.9
  0
LINE
  8
SIZE
  6
CONTINUOUS
 62
    30
 10
249.99999999999989
 20
73.0
 30
0.0
 11
249.99999999999989
 21
277.79201599999988
 31
0.0
  0
LINE
  8
SIZE
  6
CONTINUOUS
 62
    30
 10
-250.0
 20
73.0
 30
0.0
 11
-250.0
 21
277.79201599999988
 31
0.0
  0
LINE
  8
SIZE
  6
CONTINUOUS
 62
    30
 10
247.99999999999989
 20
247.79201599999999
 30
0.0
 11
0.0
 21
247.79201599999999
 31
0.0
  0
LINE
  8
SIZE
  6
CONTINUOUS
 62
    30
 10
-248.0
 20
247.79201599999999
 30
0.0
 11
0.0
 21
247.79201599999999
 31
0.0
  0
TEXT
  8
SIZE
  6
CONTINUOUS
 62
    30
 10
-74.057142999999996
 20
279.79201599999988
 30
0.0
 40
64.0
  1
500
 41
0.9
  0
CIRCLE
  8
SIZE
  6
CONTINUOUS
 62
    30
 10
-250.0
 20
247.79201599999999
 30
0.0
 40
6.0
  0
CIRCLE
  8
SIZE
  6
CONTINUOUS
 62
    30
 10
249.99999999999989
 20
247.79201599999999
 30
0.0
 40
6.0
  0
CIRCLE
  8
SIZE
  6
CONTINUOUS
 62
    30
 10
-300.0
 20
386.238112
 30
0.0
 40
6.0
  0
CIRCLE
  8
SIZE
  6
CONTINUOUS
 62
    30
 10
299.99999999999989
 20
386.238112
 30
0.0
 40
6.0
  0
CIRCLE
  8
SIZE
  6
CONTINUOUS
 62
    30
 10
505.66474499999981
 20
0.0
 30
0.0
 40
6.0
  0
CIRCLE
  8
SIZE
  6
CONTINUOUS
 62
    30
 10
505.66474499999981
 20
30.0
 30
0.0
 40
6.0
  0
CIRCLE
  8
SIZE
  6
CONTINUOUS
 62
    30
 10
505.66474499999981
 20
0.0
 30
0.0
 40
6.0
  0
CIRCLE
  8
SIZE
  6
CONTINUOUS
 62
    30
 10
-619.10265199999981
 20
-190.0
 30
0.0
 40
6.0
  0
CIRCLE
  8
SIZE
  6
CONTINUOUS
 62
    30
 10
-619.10265199999981
 20
0.0
 30
0.0
 40
6.0
  0
CIRCLE
  8
SIZE
  6
CONTINUOUS
 62
    30
 10
-435.97339300568251
 20
16.0
 30
0.0
 40
6.0
  0
CIRCLE
  8
SIZE
  6
CONTINUOUS
 62
    30
 10
-435.97339300568251
 20
0.0
 30
0.0
 40
6.0
  0
CIRCLE
  8
SIZE
  6
CONTINUOUS
 62
    30
 10
-435.97339300568251
 20
16.0
 30
0.0
 40
6.0
  0
CIRCLE
  8
SIZE
  6
CONTINUOUS
 62
    30
 10
-435.97339300568251
 20
23.0
 30
0.0
 40
6.0
  0
CIRCLE
  8
SIZE
  6
CONTINUOUS
 62
    30
 10
-250.0
 20
-415.25446868544878
 30
0.0
 40
6.0
  0
CIRCLE
  8
SIZE
  6
CONTINUOUS
 62
    30
 10
249.99999999999989
 20
-415.25446868544878
 30
0.0
 40
6.0
  0
LINE
  8
NOTE
  6
CONTINUOUS
 62
     4
 10
249.99999999999989
 20
-20.0
 30
0.0
 11
249.99999999999989
 21
20.0
 31
0.0
  0
LINE
  8
NOTE
  6
CONTINUOUS
 62
     4
 10
269.99999999999989
 20
0.0
 30
0.0
 11
229.99999999999989
 21
0.0
 31
0.0
  0
LINE
  8
NOTE
  6
CONTINUOUS
 62
     4
 10
-250.0
 20
-20.0
 30
0.0
 11
-250.0
 21
20.0
 31
0.0
  0
LINE
  8
NOTE
  6
CONTINUOUS
 62
     4
 10
-270.0
 20
0.0
 30
0.0
 11
-230.0
 21
0.0
 31
0.0
  0
LINE
  8
NOTE
  6
CONTINUOUS
 62
     4
 10
0.0
 20
-20.0
 30
0.0
 11
0.0
 21
20.0
 31
0.0
  0
LINE
  8
NOTE
  6
CONTINUOUS
 62
     4
 10
-20.0
 20
0.0
 30
0.0
 11
20.0
 21
0.0
 31
0.0
  0
TEXT
  8
ETC
  6
CONTINUOUS
 62
    61
 10
653.45197859104928
 20
283.36440005086888
 30
0.0
 40
50.0
  1
V-316KY7
 41
0.9
  0
TEXT
  8
ETC
  6
CONTINUOUS
 62
    61
 10
520.82810888969357
 20
465.55826200455539
 30
0.0
 40
64.0
  1
V-316KY7_3
 41
0.9
  0
TEXT
  8
ETC
  6
CONTINUOUS
 62
    61
 10
518.80573788969377
 20
360.20600500455521
 30
0.0
 40
64.0
  1
換気扇
 41
0.9
  0
LINE
  8
DETAIL
  6
DIVIDE
 62
     5
 10
-145.5
 20
-40.0
 30
0.0
 11
-145.5
 21
-142.0
 31
0.0
  0
LINE
  8
DETAIL
  6
DIVIDE
 62
     5
 10
145.49999999999989
 20
-40.0
 30
0.0
 11
145.49999999999989
 21
-142.0
 31
0.0
  0
LINE
  8
NOTE
  6
CONTINUOUS
 62
     4
 10
31.062001765268182
 20
-22.112070940893322
 30
0.0
 11
0.0
 21
0.0
 31
0.0
  0
LINE
  8
NOTE
  6
CONTINUOUS
 62
     4
 10
0.0
 20
0.0
 30
0.0
 11
16.609850297747471
 21
-37.424118322796858
 31
0.0
  0
LINE
  8
NOTE
  6
CONTINUOUS
 62
     4
 10
-259.58202599999998
 20
-38.835354999999993
 30
0.0
 11
-250.0
 21
0.0
 31
0.0
  0
LINE
  8
NOTE
  6
CONTINUOUS
 62
     4
 10
-250.0
 20
0.0
 30
0.0
 11
-277.71595499999989
 21
-28.841390999999991
 31
0.0
  0
ARC
  8
DETAIL
  6
CONTINUOUS
 62
     5
 10
-251.24584031774631
 20
13.697401844466009
 30
0.0
 40
7.0354975731370111
 50
302.16911750070278
 51
324.74143072266992
  0
ARC
  8
DETAIL
  6
CONTINUOUS
 62
     5
 10
-253.21479945056839
 20
15.08937699023704
 30
0.0
 40
9.4468032097393628
 50
324.74137725909628
 51
343.67842022974338
  0
ARC
  8
DETAIL
  6
CONTINUOUS
 62
     5
 10
-256.32453270354722
 20
16.00000450936022
 30
0.0
 40
12.68712470354814
 50
343.67839274582252
 51
359.99997963546753
  0
ARC
  8
DETAIL
  6
CONTINUOUS
 62
     5
 10
-256.32453270354722
 20
15.99999549063978
 30
0.0
 40
12.68712470354814
 50
0.0000203645324585
 51
16.321607254177561
  0
ARC
  8
DETAIL
  6
CONTINUOUS
 62
     5
 10
-253.21479945056839
 20
16.910623009762961
 30
0.0
 40
9.4468032097393664
 50
16.321579770256641
 51
35.258622740903689
  0
ARC
  8
DETAIL
  6
CONTINUOUS
 62
     5
 10
-251.2458560763323
 20
18.302581459473171
 30
0.0
 40
7.0355200789846579
 50
35.258606220305872
 51
59.633415214737653
  0
ARC
  8
DETAIL
  6
CONTINUOUS
 62
     5
 10
-250.00000080793839
 20
20.42892892602811
 30
0.0
 40
4.5710710739719662
 50
59.6334260781911
 51
89.999989872947793
  0
ARC
  8
DETAIL
  6
CONTINUOUS
 62
     5
 10
-249.9999991920613
 20
20.42892892602811
 30
0.0
 40
4.5710710739719644
 50
90.000010127052221
 51
120.36657392180889
  0
ARC
  8
DETAIL
  6
CONTINUOUS
 62
     5
 10
-248.7541439236675
 20
18.302581459473171
 30
0.0
 40
7.0355200789846624
 50
120.3665847852623
 51
144.74139377969411
  0
ARC
  8
DETAIL
  6
CONTINUOUS
 62
     5
 10
-246.78520054943141
 20
16.910623009762961
 30
0.0
 40
9.4468032097393628
 50
144.74137725909631
 51
163.67842022974341
  0
ARC
  8
DETAIL
  6
CONTINUOUS
 62
     5
 10
-243.6754672964525
 20
15.99999549063978
 30
0.0
 40
12.687124703548101
 50
163.67839274582249
 51
179.9999796354675
  0
ARC
  8
DETAIL
  6
CONTINUOUS
 62
     5
 10
-243.6754672964525
 20
16.00000450936022
 30
0.0
 40
12.687124703548101
 50
180.00002036452591
 51
196.32160725417751
  0
ARC
  8
DETAIL
  6
CONTINUOUS
 62
     5
 10
-246.78520054943141
 20
15.08937699023704
 30
0.0
 40
9.4468032097393664
 50
196.32157977025659
 51
215.25862274090369
  0
ARC
  8
DETAIL
  6
CONTINUOUS
 62
     5
 10
-248.7541596822536
 20
13.697401844466009
 30
0.0
 40
7.0354975731370128
 50
215.2585692773302
 51
237.83088249929719
  0
ARC
  8
DETAIL
  6
CONTINUOUS
 62
     5
 10
250.00000080793851
 20
20.42892892602811
 30
0.0
 40
4.5710710739719644
 50
90.000010127052221
 51
120.36657392180889
  0
ARC
  8
DETAIL
  6
CONTINUOUS
 62
     5
 10
251.24585607633219
 20
18.302581459473171
 30
0.0
 40
7.0355200789846624
 50
120.3665847852623
 51
144.74139377969411
  0
ARC
  8
DETAIL
  6
CONTINUOUS
 62
     5
 10
253.21479945056839
 20
16.910623009762961
 30
0.0
 40
9.4468032097393628
 50
144.74137725909631
 51
163.67842022974341
  0
ARC
  8
DETAIL
  6
CONTINUOUS
 62
     5
 10
256.32453270354711
 20
15.99999549063978
 30
0.0
 40
12.68712470354814
 50
163.67839274582249
 51
179.9999796354675
  0
ARC
  8
DETAIL
  6
CONTINUOUS
 62
     5
 10
256.32453270354711
 20
16.00000450936022
 30
0.0
 40
12.68712470354814
 50
180.00002036452591
 51
196.32160725417751
  0
ARC
  8
DETAIL
  6
CONTINUOUS
 62
     5
 10
253.21479945056839
 20
15.08937699023704
 30
0.0
 40
9.4468032097393664
 50
196.32157977025659
 51
215.25862274090369
  0
ARC
  8
DETAIL
  6
CONTINUOUS
 62
     5
 10
251.24584031774631
 20
13.697401844466009
 30
0.0
 40
7.0354975731370128
 50
215.2585692773302
 51
237.83088249929719
  0
ARC
  8
DETAIL
  6
CONTINUOUS
 62
     5
 10
248.75415968225369
 20
13.697401844466009
 30
0.0
 40
7.0354975731370111
 50
302.16911750070278
 51
324.74143072266992
  0
ARC
  8
DETAIL
  6
CONTINUOUS
 62
     5
 10
246.78520054943149
 20
15.08937699023704
 30
0.0
 40
9.4468032097393628
 50
324.74137725909628
 51
343.67842022974338
  0
ARC
  8
DETAIL
  6
CONTINUOUS
 62
     5
 10
243.67546729645261
 20
16.00000450936022
 30
0.0
 40
12.687124703548101
 50
343.67839274582252
 51
359.99997963546753
  0
ARC
  8
DETAIL
  6
CONTINUOUS
 62
     5
 10
243.67546729645261
 20
15.99999549063978
 30
0.0
 40
12.687124703548101
 50
0.0000203645324585
 51
16.321607254177561
  0
ARC
  8
DETAIL
  6
CONTINUOUS
 62
     5
 10
246.78520054943149
 20
16.910623009762961
 30
0.0
 40
9.4468032097393664
 50
16.321579770256641
 51
35.258622740903689
  0
ARC
  8
DETAIL
  6
CONTINUOUS
 62
     5
 10
248.7541439236675
 20
18.302581459473171
 30
0.0
 40
7.0355200789846579
 50
35.258606220305872
 51
59.633415214737653
  0
ARC
  8
DETAIL
  6
CONTINUOUS
 62
     5
 10
249.9999991920613
 20
20.42892892602811
 30
0.0
 40
4.5710710739719662
 50
59.6334260781911
 51
89.999989872947793
  0
LINE
  8
DETAIL
  6
CONTINUOUS
 62
     5
 10
-145.5
 20
0.0
 30
0.0
 11
-145.5
 21
46.0
 31
0.0
  0
LINE
  8
DETAIL
  6
CONTINUOUS
 62
     5
 10
-145.5
 20
46.0
 30
0.0
 11
145.49999999999989
 21
46.0
 31
0.0
  0
LINE
  8
DETAIL
  6
CONTINUOUS
 62
     5
 10
145.49999999999989
 20
46.0
 30
0.0
 11
145.49999999999989
 21
0.0
 31
0.0
  0
LINE
  8
SIZE
  6
CONTINUOUS
 62
    30
 10
-145.5
 20
66.0
 30
0.0
 11
-145.5
 21
158.82656342558769
 31
0.0
  0
LINE
  8
SIZE
  6
CONTINUOUS
 62
    30
 10
145.49999999999989
 20
66.0
 30
0.0
 11
145.49999999999989
 21
158.82656342558769
 31
0.0
  0
LINE
  8
SIZE
  6
CONTINUOUS
 62
    30
 10
-145.5
 20
128.82656342558769
 30
0.0
 11
145.49999999999989
 21
128.82656342558769
 31
0.0
  0
LINE
  8
SIZE
  6
CONTINUOUS
 62
    30
 10
216.83297699999989
 20
-91.0
 30
0.0
 11
669.27270997189203
 21
-91.000000000000114
 31
0.0
  0
LINE
  8
SIZE
  6
CONTINUOUS
 62
    30
 10
639.27270997189225
 20
-202.7228131016918
 30
0.0
 11
639.27270997189225
 21
39.999999999999943
 31
0.0
  0
LINE
  8
SIZE
  6
CONTINUOUS
 62
    30
 10
165.49999999999989
 20
46.0
 30
0.0
 11
669.27270997189203
 21
45.999999999999829
 31
0.0
  0
LINE
  8
SIZE
  6
CONTINUOUS
 62
    30
 10
639.27270997189225
 20
169.63264137927931
 30
0.0
 11
639.27270997189225
 21
45.999999999999893
 31
0.0
  0
TEXT
  8
SIZE
  6
CONTINUOUS
 62
    30
 10
-61.714285714285673
 20
156.03061705446541
 30
0.0
 40
64.0
  1
291
 41
0.9
  0
TEXT
  8
SIZE
  6
CONTINUOUS
 62
    30
 10
613.75262822963805
 20
-187.42053449146351
 30
0.0
 40
64.0
  1
91
 50
90.0
 41
0.9
  0
TEXT
  8
SIZE
  6
CONTINUOUS
 62
    30
 10
613.75262822963805
 20
69.317703270088714
 30
0.0
 40
64.0
  1
46
 50
90.0
 41
0.9
  0
CIRCLE
  8
SIZE
  6
CONTINUOUS
 62
    30
 10
-145.5
 20
128.82656342558769
 30
0.0
 40
6.0
  0
CIRCLE
  8
SIZE
  6
CONTINUOUS
 62
    30
 10
145.49999999999989
 20
128.82656342558769
 30
0.0
 40
6.0
  0
CIRCLE
  8
SIZE
  6
CONTINUOUS
 62
    30
 10
639.27270997189225
 20
45.999999999999893
 30
0.0
 40
6.0
  0
CIRCLE
  8
SIZE
  6
CONTINUOUS
 62
    30
 10
639.27270997189225
 20
0.0
 30
0.0
 40
6.0
  0
CIRCLE
  8
SIZE
  6
CONTINUOUS
 62
    30
 10
639.27270997189225
 20
-91.000000000000114
 30
0.0
 40
6.0
  0
TEXT
  8
NOTE
  6
CONTINUOUS
 62
     4
 10
-865.70536914841352
 20
-513.94701608650121
 30
0.0
 40
64.0
  1
排気口半抜き
 41
0.9
  0
LINE
  8
NOTE
  6
CONTINUOUS
 62
     4
 10
-76.051616136340385
 20
-145.42427708199159
 30
0.0
 11
-450.51129547358488
 21
-551.3586582580773
 31
0.0
1001
ACAD
1000
DSTYLE
1002
{
1070
    41
1040
40.0
1070
    42
1040
20.0
1070
    43
1040
200.0
1070
    44
1040
30.0
1070
    73
1070
     0
1070
    74
1070
     0
1070
    77
1070
     0
1070
    78
1070
     8
1070
   140
1040
64.0
1070
   147
1040
20.0
1070
   172
1070
     1
1070
   174
1070
     1
1070
   176
1070
   256
1070
   177
1070
   256
1070
   178
1070
   256
1002
}
  0
LINE
  8
NOTE
  6
CONTINUOUS
 62
     4
 10
-450.51129547358488
 20
-551.3586582580773
 30
0.0
 11
-896.33444370342011
 21
-551.3586582580773
 31
0.0
1001
ACAD
1000
DSTYLE
1002
{
1070
    41
1040
40.0
1070
    42
1040
20.0
1070
    43
1040
200.0
1070
    44
1040
30.0
1070
    73
1070
     0
1070
    74
1070
     0
1070
    77
1070
     0
1070
    78
1070
     8
1070
   140
1040
64.0
1070
   147
1040
20.0
1070
   172
1070
     1
1070
   174
1070
     1
1070
   176
1070
   256
1070
   177
1070
   256
1070
   178
1070
   256
1002
}
  0
LINE
  8
NOTE
  6
CONTINUOUS
 62
     4
 10
-83.929623488637503
 20
-138.15710227799781
 30
0.0
 11
-48.930150294276253
 21
-116.0231531140589
 31
0.0
  0
LINE
  8
NOTE
  6
CONTINUOUS
 62
     4
 10
-48.930150294276253
 20
-116.0231531140589
 30
0.0
 11
-68.173608784043154
 21
-152.69145188598529
 31
0.0
  0
LINE
  8
NOTE
  6
CONTINUOUS
 62
     4
 10
-48.930150294276253
 20
-116.0231531140589
 30
0.0
 11
-76.051616136340385
 21
-145.42427708199159
 31
0.0
  0
LINE
  8
OUTLINE
  6
CONTINUOUS
 62
     3
 10
240.0000029030434
 20
0.0
 30
0.0
 11
240.0000029030434
 21
30.00000176532831
 31
0.0
  0
LINE
  8
OUTLINE
  6
CONTINUOUS
 62
     3
 10
260.00000290304342
 20
0.0
 30
0.0
 11
260.00000290304342
 21
30.00000176532831
 31
0.0
  0
LINE
  8
OUTLINE
  6
CONTINUOUS
 62
     3
 10
240.0000029030434
 20
30.00000176532831
 30
0.0
 11
260.00000290304342
 21
30.00000176532831
 31
0.0
  0
LINE
  8
OUTLINE
  6
CONTINUOUS
 62
     3
 10
-259.99999709695658
 20
0.0
 30
0.0
 11
-259.99999709695658
 21
30.00000176532831
 31
0.0
  0
LINE
  8
OUTLINE
  6
CONTINUOUS
 62
     3
 10
-239.9999970969566
 20
0.0
 30
0.0
 11
-239.9999970969566
 21
30.00000176532831
 31
0.0
  0
LINE
  8
OUTLINE
  6
CONTINUOUS
 62
     3
 10
-239.9999970969566
 20
30.00000176532831
 30
0.0
 11
-259.99999709695658
 21
30.00000176532831
 31
0.0
  0
LINE
  8
OUTLINE
  6
CONTINUOUS
 62
     3
 10
-145.4999970969566
 20
0.0
 30
0.0
 11
-145.4999970969566
 21
46.000001765328307
 31
0.0
  0
LINE
  8
OUTLINE
  6
CONTINUOUS
 62
     3
 10
-145.4999970969566
 20
46.000001765328307
 30
0.0
 11
145.5000029030434
 21
46.000001765328307
 31
0.0
  0
LINE
  8
OUTLINE
  6
CONTINUOUS
 62
     3
 10
145.5000029030434
 20
46.000001765328307
 30
0.0
 11
145.5000029030434
 21
0.0
 31
0.0
  0
ENDSEC
  0
EOF
