  0
SECTION
  2
HEADER
  9
$ACADVER
  1
AC1009
  9
$INSBASE
 10
0.0
 20
0.0
 30
0.0
  9
$EXTMIN
 10
-699.18820878861879
 20
-503.94285439274239
 30
-0.0015258207003583
  9
$EXTMAX
 10
1411.8347331087971
 20
1003.353893376599
 30
0.0000000349246037
  9
$LIMMIN
 10
-4200.0
 20
-2970.0
  9
$LIMMAX
 10
4200.0
 20
2970.0
  9
$ORTHOMODE
 70
     1
  9
$REGENMODE
 70
     0
  9
$FILLMODE
 70
     1
  9
$QTEXTMODE
 70
     0
  9
$MIRRTEXT
 70
     0
  9
$DRAGMODE
 70
     2
  9
$LTSCALE
 40
20.0
  9
$OSMODE
 70
    36
  9
$ATTMODE
 70
     1
  9
$TEXTSIZE
 40
64.0
  9
$TRACEWID
 40
0.05
  9
$TEXTSTYLE
  7
STANDARD
  9
$CLAYER
  8
0
  9
$CELTYPE
  6
CONTINUOUS
  9
$CECOLOR
 62
     8
  9
$DIMSCALE
 40
1.0
  9
$DIMASZ
 40
2.0
  9
$DIMEXO
 40
20.0
  9
$DIMDLI
 40
200.0
  9
$DIMRND
 40
0.0
  9
$DIMDLE
 40
0.0
  9
$DIMEXE
 40
30.0
  9
$DIMTP
 40
0.0
  9
$DIMTM
 40
0.0
  9
$DIMTXT
 40
64.0
  9
$DIMCEN
 40
0.09
  9
$DIMTSZ
 40
0.0
  9
$DIMTOL
 70
     0
  9
$DIMLIM
 70
     0
  9
$DIMTIH
 70
     0
  9
$DIMTOH
 70
     0
  9
$DIMSE1
 70
     0
  9
$DIMSE2
 70
     0
  9
$DIMTAD
 70
     1
  9
$DIMZIN
 70
     8
  9
$DIMBLK
  1

  9
$DIMASO
 70
     1
  9
$DIMSHO
 70
     0
  9
$DIMPOST
  1

  9
$DIMAPOST
  1

  9
$DIMALT
 70
     0
  9
$DIMALTD
 70
     2
  9
$DIMALTF
 40
25.399999999999999
  9
$DIMLFAC
 40
1.0
  9
$DIMTOFL
 70
     1
  9
$DIMTVP
 40
0.0
  9
$DIMTIX
 70
     1
  9
$DIMSOXD
 70
     0
  9
$DIMSAH
 70
     0
  9
$DIMBLK1
  1

  9
$DIMBLK2
  1

  9
$DIMSTYLE
  2
STANDARD
  9
$DIMCLRD
 70
     0
  9
$DIMCLRE
 70
     0
  9
$DIMCLRT
 70
     0
  9
$DIMTFAC
 40
1.0
  9
$DIMGAP
 40
0.09
  9
$LUNITS
 70
     2
  9
$LUPREC
 70
     4
  9
$SKETCHINC
 40
0.1
  9
$FILLETRAD
 40
0.0
  9
$AUNITS
 70
     1
  9
$AUPREC
 70
     3
  9
$MENU
  1
ACAD
  9
$ELEVATION
 40
0.0
  9
$PELEVATION
 40
0.0
  9
$THICKNESS
 40
0.0
  9
$LIMCHECK
 70
     1
  9
$BLIPMODE
 70
     0
  9
$CHAMFERA
 40
0.0
  9
$CHAMFERB
 40
0.0
  9
$SKPOLY
 70
     0
  9
$TDCREATE
 40
2451999.495729167
  9
$TDUPDATE
 40
2455051.653252882
  9
$TDINDWG
 40
0.0092515046
  9
$TDUSRTIMER
 40
0.0092511343
  9
$USRTIMER
 70
     1
  9
$ANGBASE
 50
0.0
  9
$ANGDIR
 70
     0
  9
$PDMODE
 70
     3
  9
$PDSIZE
 40
-2.0
  9
$PLINEWID
 40
0.0
  9
$COORDS
 70
     0
  9
$SPLFRAME
 70
     0
  9
$SPLINETYPE
 70
     6
  9
$SPLINESEGS
 70
     8
  9
$ATTDIA
 70
     0
  9
$ATTREQ
 70
     1
  9
$HANDLING
 70
     1
  9
$HANDSEED
  5
67A
  9
$SURFTAB1
 70
     6
  9
$SURFTAB2
 70
     6
  9
$SURFTYPE
 70
     6
  9
$SURFU
 70
     6
  9
$SURFV
 70
     6
  9
$UCSNAME
  2

  9
$UCSORG
 10
0.0
 20
0.0
 30
0.0
  9
$UCSXDIR
 10
1.0
 20
0.0
 30
0.0
  9
$UCSYDIR
 10
0.0
 20
1.0
 30
0.0
  9
$PUCSNAME
  2

  9
$PUCSORG
 10
0.0
 20
0.0
 30
0.0
  9
$PUCSXDIR
 10
1.0
 20
0.0
 30
0.0
  9
$PUCSYDIR
 10
0.0
 20
1.0
 30
0.0
  9
$USERI1
 70
     0
  9
$USERI2
 70
     0
  9
$USERI3
 70
     0
  9
$USERI4
 70
     0
  9
$USERI5
 70
     0
  9
$USERR1
 40
20.0
  9
$USERR2
 40
0.0
  9
$USERR3
 40
0.0
  9
$USERR4
 40
0.0
  9
$USERR5
 40
0.0
  9
$WORLDVIEW
 70
     1
  9
$SHADEDGE
 70
     3
  9
$SHADEDIF
 70
    70
  9
$TILEMODE
 70
     1
  9
$MAXACTVP
 70
    64
  9
$PLIMCHECK
 70
     0
  9
$PEXTMIN
 10
1.0000000000000000E+020
 20
1.0000000000000000E+020
 30
1.0000000000000000E+020
  9
$PEXTMAX
 10
-1.0000000000000000E+020
 20
-1.0000000000000000E+020
 30
-1.0000000000000000E+020
  9
$PLIMMIN
 10
0.0
 20
0.0
  9
$PLIMMAX
 10
12.0
 20
9.0
  9
$UNITMODE
 70
     0
  9
$VISRETAIN
 70
     1
  9
$PLINEGEN
 70
     0
  9
$PSLTSCALE
 70
     1
  0
ENDSEC
  0
SECTION
  2
TABLES
  0
TABLE
  2
VPORT
 70
     1
  0
VPORT
  2
*ACTIVE
 70
     0
 10
0.0
 20
0.0
 11
1.0
 21
1.0
 12
488.12013581067953
 22
223.43922302078039
 13
0.0
 23
0.0
 14
400.0
 24
400.0
 15
400.0
 25
400.0
 16
0.0
 26
0.0
 36
1.0
 17
0.0
 27
0.0
 37
0.0
 40
2146.4165668908968
 41
1.2435374149659859
 42
50.0
 43
0.0
 44
0.0
 50
0.0
 51
0.0
 71
     0
 72
   500
 73
     1
 74
     0
 75
     0
 76
     0
 77
     0
 78
     1
  0
ENDTAB
  0
TABLE
  2
LTYPE
 70
     7
  0
LTYPE
  2
CONTINUOUS
 70
     0
  3
実線
 72
    65
 73
     0
 40
0.0
  0
LTYPE
  2
DOT
 70
     0
  3
...............................................
 72
    65
 73
     2
 40
0.8
 49
0.5
 49
-0.3
  0
LTYPE
  2
DASHED
 70
     0
  3
_ _ _ _ _ _ _ _ _ _ _ _ _ _ _ _ _ _ _ _ _ _ _
 72
    65
 73
     2
 40
2.0
 49
1.1999999999999991
 49
-0.8
  0
LTYPE
  2
DASHDOT
 70
     0
  3
____ _ ____ _ ____ _ ____ _ ____ _ ____ _ ____
 72
    65
 73
     4
 40
5.5
 49
4.0
 49
-0.6
 49
0.3
 49
-0.6
  0
LTYPE
  2
DASHDOT1
 70
     0
  3
____ _ ____ _ ____ _ ____ _ ____ _ ____ _ ____
 72
    65
 73
     4
 40
2.0
 49
1.5
 49
-0.2
 49
0.1
 49
-0.2
  0
LTYPE
  2
DIVIDE
 70
     0
  3
_____ _ _ _____ _ _ _____ _ _ _____ _ _ ____
 72
    65
 73
     6
 40
6.4000000000000004
 49
4.0
 49
-0.6
 49
0.3
 49
-0.6
 49
0.3
 49
-0.6
  0
LTYPE
  2
DIVIDE1
 70
     0
  3
_____ _ _ _____ _ _ _____ _ _ _____ _ _ ____
 72
    65
 73
     6
 40
3.2000000000000002
 49
2.0
 49
-0.3
 49
0.15
 49
-0.3
 49
0.15
 49
-0.3
  0
ENDTAB
  0
TABLE
  2
LAYER
 70
    12
  0
LAYER
  2
0
 70
     0
 62
     7
  6
CONTINUOUS
  0
LAYER
  2
OUTLINE
 70
     0
 62
     3
  6
CONTINUOUS
  0
LAYER
  2
DETAIL
 70
     0
 62
     5
  6
CONTINUOUS
  0
LAYER
  2
BASIS
 70
     0
 62
     6
  6
DASHDOT
  0
LAYER
  2
SIZE
 70
     0
 62
    30
  6
CONTINUOUS
  0
LAYER
  2
NOTE
 70
     0
 62
     4
  6
CONTINUOUS
  0
LAYER
  2
ARRANGE
 70
     0
 62
     1
  6
CONTINUOUS
  0
LAYER
  2
FIX
 70
     0
 62
    11
  6
CONTINUOUS
  0
LAYER
  2
ETC
 70
     0
 62
    61
  6
CONTINUOUS
  0
LAYER
  2
DEFPOINTS
 70
     0
 62
     7
  6
CONTINUOUS
  0
LAYER
  2
SERVICESPACE
 70
     0
 62
     2
  6
DASHDOT
  0
LAYER
  2
SYMBOLLINE
 70
     0
 62
    15
  6
CONTINUOUS
  0
ENDTAB
  0
TABLE
  2
STYLE
 70
     2
  0
STYLE
  2
STANDARD
 70
     0
 40
0.0
 41
0.9
 50
0.0
 71
     0
 42
64.0
  3
SIMPLEX
  4
BIGFONT
  0
STYLE
  2
ANNOTATIVE
 70
     0
 40
0.0
 41
1.0
 50
0.0
 71
     0
 42
0.2
  3
txt
  4

  0
ENDTAB
  0
TABLE
  2
VIEW
 70
     1
  0
VIEW
  2
ALL
 70
     0
 40
6374.9789810000002
 10
0.0
 20
58.11501599999999
 41
8842.1052629999976
 11
0.0
 21
0.0
 31
1.0
 12
0.0
 22
0.0
 32
0.0
 42
50.0
 43
0.0
 44
0.0
 50
0.0
 71
     0
  0
ENDTAB
  0
TABLE
  2
UCS
 70
     0
  0
ENDTAB
  0
TABLE
  2
APPID
 70
     3
  0
APPID
  2
ACAD
 70
     0
  0
APPID
  2
ACADANNOTATIVE
 70
     0
  0
APPID
  2
ACAD_MLEADERVER
 70
     0
  0
ENDTAB
  0
TABLE
  2
DIMSTYLE
 70
     2
  0
DIMSTYLE
  2
STANDARD
 70
     0
  3

  4

  5

  6

  7

 40
1.0
 41
0.18
 42
0.0625
 43
0.38
 44
0.18
 45
0.0
 46
0.0
 47
0.0
 48
0.0
140
0.18
141
0.09
142
0.0
143
25.399999999999999
144
1.0
145
0.0
146
1.0
147
0.09
 71
     0
 72
     0
 73
     1
 74
     1
 75
     0
 76
     0
 77
     0
 78
     0
170
     0
171
     2
172
     0
173
     0
174
     0
175
     0
176
     0
177
     0
178
     0
  0
DIMSTYLE
  2
ANNOTATIVE
 70
     0
  3

  4

  5

  6

  7

 40
1.0
 41
0.18
 42
0.0625
 43
0.38
 44
0.18
 45
0.0
 46
0.0
 47
0.0
 48
0.0
140
0.18
141
0.09
142
0.0
143
25.399999999999999
144
1.0
145
0.0
146
1.0
147
0.09
 71
     0
 72
     0
 73
     1
 74
     1
 75
     0
 76
     0
 77
     0
 78
     0
170
     0
171
     2
172
     0
173
     0
174
     0
175
     0
176
     0
177
     0
178
     0
  0
ENDTAB
  0
ENDSEC
  0
SECTION
  2
BLOCKS
  0
BLOCK
  8
0
  2
$MODEL_SPACE
 70
     0
 10
0.0
 20
0.0
 30
0.0
  3
$MODEL_SPACE
  1

  0
ENDBLK
  5
626
  8
0
  0
BLOCK
 67
     1
  8
0
  2
$PAPER_SPACE
 70
     0
 10
0.0
 20
0.0
 30
0.0
  3
$PAPER_SPACE
  1

  0
ENDBLK
  5
622
 67
     1
  8
0
  0
ENDSEC
  0
SECTION
  2
ENTITIES
  0
LINE
  5
44C
  8
BASIS
  6
DASHDOT
 62
     6
 10
125.0
 20
93.843056000000004
 30
0.0
 11
125.0
 21
-32.216534000000003
 31
0.0
  0
POINT
  5
44D
  8
ARRANGE
  6
CONTINUOUS
 62
     1
 10
0.0
 20
0.0
 30
0.0
  0
LINE
  5
44E
  8
DETAIL
  6
CONTINUOUS
 62
     5
 10
0.0
 20
0.0
 30
0.0
 11
485.0
 21
0.0
 31
0.0
  0
LINE
  5
44F
  8
DETAIL
  6
CONTINUOUS
 62
     5
 10
0.0
 20
-190.0
 30
0.0
 11
525.0
 21
-190.0
 31
0.0
  0
LINE
  5
450
  8
DETAIL
  6
CONTINUOUS
 62
     5
 10
0.0
 20
30.0
 30
0.0
 11
0.0
 21
0.0
 31
0.0
  0
LINE
  5
451
  8
DETAIL
  6
CONTINUOUS
 62
     5
 10
580.0
 20
-110.0
 30
0.0
 11
580.0
 21
-168.0
 31
0.0
  0
LINE
  5
452
  8
DETAIL
  6
CONTINUOUS
 62
     5
 10
-6.0
 20
30.0
 30
0.0
 11
0.0
 21
30.0
 31
0.0
  0
LINE
  5
453
  8
DETAIL
  6
CONTINUOUS
 62
     5
 10
0.0
 20
-190.0
 30
0.0
 11
546.0
 21
-190.0
 31
0.0
  0
LINE
  5
454
  8
DETAIL
  6
CONTINUOUS
 62
     5
 10
580.0
 20
-110.0
 30
0.0
 11
580.0
 21
-181.0
 31
0.0
  0
CIRCLE
  5
455
  8
ARRANGE
  6
CONTINUOUS
 62
     1
 10
0.0
 20
0.0
 30
0.0
 40
40.0
  0
LINE
  5
456
  8
DETAIL
  6
CONTINUOUS
 62
     5
 10
0.0
 20
0.0
 30
0.0
 11
0.0
 21
-190.0
 31
0.0
  0
LINE
  5
457
  8
DETAIL
  6
CONTINUOUS
 62
     5
 10
546.0
 20
-190.0
 30
0.0
 11
580.0
 21
-181.0
 31
0.0
  0
LINE
  5
458
  8
DETAIL
  6
CONTINUOUS
 62
     5
 10
485.0
 20
0.0
 30
0.0
 11
580.0
 21
-110.0
 31
0.0
  0
LINE
  5
459
  8
DETAIL
  6
CONTINUOUS
 62
     5
 10
-6.0
 20
30.0
 30
0.0
 11
-6.0
 21
-178.0
 31
0.0
  0
LINE
  5
45A
  8
DETAIL
  6
CONTINUOUS
 62
     5
 10
-6.0
 20
-178.0
 30
0.0
 11
0.0
 21
-178.0
 31
0.0
  0
CIRCLE
  5
45B
  8
FIX
  6
CONTINUOUS
 62
    11
 10
300.0
 20
0.0
 30
0.0
 40
6.5
  0
LINE
  5
45C
  8
NOTE
  6
CONTINUOUS
 62
     4
 10
330.0
 20
0.0
 30
0.0
 11
638.28542600000003
 21
356.87308100000001
 31
0.0
  0
LINE
  5
45D
  8
NOTE
  6
CONTINUOUS
 62
     4
 10
300.0
 20
0.0
 30
0.0
 11
637.00468099999978
 21
501.36154299999993
 31
0.0
  0
LINE
  5
45E
  8
NOTE
  6
CONTINUOUS
 62
     4
 10
637.00468099999978
 20
501.36154299999993
 30
0.0
 11
1081.635
 21
501.36154299999993
 31
0.0
  0
LINE
  5
45F
  8
NOTE
  6
CONTINUOUS
 62
     4
 10
110.0
 20
0.0
 30
0.0
 11
-67.61703
 21
-148.91562899999991
 31
0.0
  0
LINE
  5
460
  8
NOTE
  6
CONTINUOUS
 62
     4
 10
-67.61703
 20
-148.91562899999991
 30
0.0
 11
-181.95198999999991
 21
-148.91562899999991
 31
0.0
  0
TEXT
  5
461
  8
NOTE
  6
CONTINUOUS
 62
     4
 10
-171.8504439999999
 20
-125.87963499999969
 30
0.0
 40
64.0
  1
EL
 41
0.9
  0
TEXT
  5
462
  8
NOTE
  6
CONTINUOUS
 62
     4
 10
639.32538699999975
 20
532.86861099999965
 30
0.0
 40
64.0
  1
AH 2-φ13
 41
0.9
  0
LINE
  5
463
  8
OUTLINE
  6
CONTINUOUS
 62
     3
 10
0.0
 20
0.0
 30
0.0
 11
485.0
 21
0.0
 31
0.0
  0
LINE
  5
464
  8
OUTLINE
  6
CONTINUOUS
 62
     3
 10
485.0
 20
0.0
 30
0.0
 11
580.0
 21
-110.0
 31
0.0
  0
LINE
  5
465
  8
OUTLINE
  6
CONTINUOUS
 62
     3
 10
580.0
 20
-110.0
 30
0.0
 11
580.0
 21
-181.0
 31
0.0
  0
LINE
  5
466
  8
OUTLINE
  6
CONTINUOUS
 62
     3
 10
546.0
 20
-190.0
 30
0.0
 11
580.0
 21
-181.0
 31
0.0
  0
LINE
  5
467
  8
OUTLINE
  6
CONTINUOUS
 62
     3
 10
0.0
 20
-190.0
 30
0.0
 11
546.0
 21
-190.0
 31
0.0
  0
LINE
  5
468
  8
OUTLINE
  6
CONTINUOUS
 62
     3
 10
0.0
 20
0.0
 30
0.0
 11
0.0
 21
-190.0
 31
0.0
  0
LINE
  5
469
  8
SIZE
  6
CONTINUOUS
 62
    30
 10
-6.0
 20
-473.87660299999988
 30
0.0
 11
-106.46419299999999
 21
-473.87660299999988
 31
0.0
  0
CIRCLE
  5
46A
  8
FIX
  6
CONTINUOUS
 62
    11
 10
330.0
 20
0.0
 30
0.0
 40
5.0
  0
CIRCLE
  5
46B
  8
FIX
  6
CONTINUOUS
 62
    11
 10
15.0
 20
0.0
 30
0.0
 40
5.0
  0
TEXT
  5
46C
  8
NOTE
  6
CONTINUOUS
 62
     4
 10
-663.434257
 20
279.85366299999998
 30
0.0
 40
64.0
  1
取付金具
 41
0.9
  0
LINE
  5
46D
  8
NOTE
  6
CONTINUOUS
 62
     4
 10
-698.88384500000018
 20
249.653368
 30
0.0
 11
-382.26396699999998
 21
249.653368
 31
0.0
  0
TEXT
  5
46E
  8
NOTE
  6
CONTINUOUS
 62
     4
 10
677.55260299999986
 20
385.49392999999992
 30
0.0
 40
64.0
  1
4-φ10
 41
0.9
  0
LINE
  5
46F
  8
NOTE
  6
CONTINUOUS
 62
     4
 10
638.28542600000003
 20
356.87308100000001
 30
0.0
 11
996.66707699999995
 21
356.87308100000001
 31
0.0
  0
TEXT
  5
470
  8
NOTE
  6
CONTINUOUS
 62
     4
 10
646.37678700000004
 20
264.29329300000001
 30
0.0
 40
64.0
  1
棚直付用穴
 41
0.9
  0
TEXT
  5
471
  8
NOTE
  6
CONTINUOUS
 62
     4
 10
74.645988000000003
 20
70.541341000000003
 30
0.0
 40
64.0
  1
EA
 41
0.9
  0
LINE
  5
472
  8
DETAIL
  6
CONTINUOUS
 62
     5
 10
48.0
 20
14.0
 30
0.0
 11
48.0
 21
4.0
 31
0.0
  0
LINE
  5
473
  8
DETAIL
  6
CONTINUOUS
 62
     5
 10
202.0
 20
14.0
 30
0.0
 11
202.0
 21
4.0
 31
0.0
  0
LINE
  5
474
  8
DETAIL
  6
CONTINUOUS
 62
     5
 10
225.0
 20
4.0
 30
0.0
 11
225.0
 21
0.0
 31
0.0
  0
LINE
  5
475
  8
DETAIL
  6
CONTINUOUS
 62
     5
 10
202.0
 20
14.0
 30
0.0
 11
48.0
 21
14.0
 31
0.0
  0
LINE
  5
476
  8
DETAIL
  6
CONTINUOUS
 62
     5
 10
51.0
 20
54.0
 30
0.0
 11
51.0
 21
14.0
 31
0.0
  0
LINE
  5
477
  8
DETAIL
  6
CONTINUOUS
 62
     5
 10
199.0
 20
14.0
 30
0.0
 11
199.0
 21
54.0
 31
0.0
  0
LINE
  5
478
  8
DETAIL
  6
CONTINUOUS
 62
     5
 10
199.0
 20
54.0
 30
0.0
 11
51.0
 21
54.0
 31
0.0
  0
LINE
  5
479
  8
DETAIL
  6
CONTINUOUS
 62
     5
 10
225.0
 20
4.0
 30
0.0
 11
25.0
 21
4.0
 31
0.0
  0
LINE
  5
47A
  8
DETAIL
  6
CONTINUOUS
 62
     5
 10
25.0
 20
4.0
 30
0.0
 11
25.0
 21
0.0
 31
0.0
  0
LINE
  5
47B
  8
SIZE
  6
CONTINUOUS
 62
    30
 10
48.0
 20
420.40135999999973
 30
0.0
 11
-263.76182999999992
 21
420.40135999999973
 31
0.0
  0
LINE
  5
47C
  8
SIZE
  6
CONTINUOUS
 62
    30
 10
47.0
 20
291.39716600000008
 30
0.0
 11
-263.76182999999992
 21
291.39716600000008
 31
0.0
  0
LINE
  5
47D
  8
SIZE
  6
CONTINUOUS
 62
    30
 10
-2.0
 20
535.91595099999995
 30
0.0
 11
-159.243685
 21
535.91595099999995
 31
0.0
  0
LINE
  5
47E
  8
SIZE
  6
CONTINUOUS
 62
    30
 10
0.0
 20
167.296752
 30
0.0
 11
-196.35083999999981
 21
167.296752
 31
0.0
  0
LINE
  5
47F
  8
SIZE
  6
CONTINUOUS
 62
    30
 10
-4.0
 20
-346.21626099999997
 30
0.0
 11
-198.533613
 21
-346.21626099999997
 31
0.0
  0
CIRCLE
  5
480
  8
FIX
  6
CONTINUOUS
 62
    11
 10
-6.0
 20
14.0
 30
0.0
 40
6.5
  0
LINE
  5
481
  8
NOTE
  6
CONTINUOUS
 62
     4
 10
-6.0
 20
14.0
 30
0.0
 11
-382.26396699999998
 21
249.653368
 31
0.0
  0
LINE
  5
482
  8
SIZE
  6
CONTINUOUS
 62
    30
 10
578.0
 20
98.596830000000026
 30
0.0
 11
739.13243399999988
 21
98.596830000000026
 31
0.0
  0
LINE
  5
483
  8
SIZE
  6
CONTINUOUS
 62
    30
 10
928.03091899999981
 20
0.0
 30
0.0
 11
928.03091899999981
 21
150.9582809999996
 31
0.0
  0
LINE
  5
484
  8
SIZE
  6
CONTINUOUS
 62
    30
 10
928.03091899999981
 20
-179.0
 30
0.0
 11
928.03091899999981
 21
-299.08096999999992
 31
0.0
  0
LINE
  5
485
  8
SIZE
  6
CONTINUOUS
 62
    30
 10
-472.19350100000003
 20
54.0
 30
0.0
 11
-472.19350100000003
 21
191.312478
 31
0.0
  0
LINE
  5
486
  8
SIZE
  6
CONTINUOUS
 62
    30
 10
-601.17454699999996
 20
54.0
 30
0.0
 11
-601.17454699999996
 21
188.84146499999991
 31
0.0
  0
LINE
  5
487
  8
SIZE
  6
CONTINUOUS
 62
    30
 10
-226.65861199999989
 20
14.0
 30
0.0
 11
-226.65861199999989
 21
-121.270633
 31
0.0
  0
LINE
  5
488
  8
SIZE
  6
CONTINUOUS
 62
    30
 10
-357.426557
 20
0.0
 30
0.0
 11
-357.426557
 21
-121.270633
 31
0.0
  0
LINE
  5
489
  8
SIZE
  6
BYBLOCK
 62
    30
 10
-26.0
 20
30.0
 30
0.0
 11
-387.426557
 21
30.0
 31
0.0
  0
LINE
  5
48A
  8
SIZE
  6
BYBLOCK
 62
    30
 10
-25.0
 20
0.0
 30
0.0
 11
-387.426557
 21
0.0
 31
0.0
  0
LINE
  5
48B
  8
SIZE
  6
BYBLOCK
 62
    30
 10
-357.426557
 20
-2.0
 30
0.0
 11
-357.426557
 21
-4.0
 31
0.0
  0
LINE
  5
48C
  8
SIZE
  6
BYBLOCK
 62
    30
 10
-357.426557
 20
32.0
 30
0.0
 11
-357.426557
 21
34.0
 31
0.0
  0
LINE
  5
48D
  8
SIZE
  6
BYBLOCK
 62
    30
 10
-357.426557
 20
0.0
 30
0.0
 11
-357.426557
 21
30.0
 31
0.0
  0
TEXT
  5
48E
  8
SIZE
  6
BYBLOCK
 62
    30
 10
-389.42655699999989
 20
-120.58503
 30
0.0
 40
64.0
  1
30
 50
90.0
 41
0.9
  0
LINE
  5
48F
  8
SIZE
  6
BYBLOCK
 62
    30
 10
-26.0
 20
30.0
 30
0.0
 11
-256.65861200000001
 21
30.0
 31
0.0
  0
LINE
  5
490
  8
SIZE
  6
BYBLOCK
 62
    30
 10
-46.0
 20
14.0
 30
0.0
 11
-256.65861200000001
 21
14.0
 31
0.0
  0
LINE
  5
491
  8
SIZE
  6
BYBLOCK
 62
    30
 10
-226.65861199999989
 20
12.0
 30
0.0
 11
-226.65861199999989
 21
10.0
 31
0.0
  0
LINE
  5
492
  8
SIZE
  6
BYBLOCK
 62
    30
 10
-226.65861199999989
 20
32.0
 30
0.0
 11
-226.65861199999989
 21
34.0
 31
0.0
  0
LINE
  5
493
  8
SIZE
  6
BYBLOCK
 62
    30
 10
-226.65861199999989
 20
14.0
 30
0.0
 11
-226.65861199999989
 21
30.0
 31
0.0
  0
TEXT
  5
494
  8
SIZE
  6
BYBLOCK
 62
    30
 10
-258.65861200000001
 20
-106.727887
 30
0.0
 40
64.0
  1
16
 50
90.0
 41
0.9
  0
LINE
  5
495
  8
SIZE
  6
BYBLOCK
 62
    30
 10
28.0
 20
14.0
 30
0.0
 11
-502.19350099999991
 21
14.0
 31
0.0
  0
LINE
  5
496
  8
SIZE
  6
BYBLOCK
 62
    30
 10
31.0
 20
54.0
 30
0.0
 11
-502.19350099999991
 21
54.0
 31
0.0
  0
LINE
  5
497
  8
SIZE
  6
BYBLOCK
 62
    30
 10
-472.19350100000003
 20
56.0
 30
0.0
 11
-472.19350100000003
 21
58.0
 31
0.0
  0
LINE
  5
498
  8
SIZE
  6
BYBLOCK
 62
    30
 10
-472.19350100000003
 20
12.0
 30
0.0
 11
-472.19350100000003
 21
10.0
 31
0.0
  0
LINE
  5
499
  8
SIZE
  6
BYBLOCK
 62
    30
 10
-472.19350100000003
 20
54.0
 30
0.0
 11
-472.19350100000003
 21
14.0
 31
0.0
  0
TEXT
  5
49A
  8
SIZE
  6
BYBLOCK
 62
    30
 10
-504.19350099999991
 20
87.447445000000016
 30
0.0
 40
64.0
  1
40
 50
90.0
 41
0.9
  0
LINE
  5
49B
  8
SIZE
  6
BYBLOCK
 62
    30
 10
-20.0
 20
0.0
 30
0.0
 11
-631.17454699999985
 21
0.0
 31
0.0
  0
LINE
  5
49C
  8
SIZE
  6
BYBLOCK
 62
    30
 10
31.0
 20
54.0
 30
0.0
 11
-631.17454699999985
 21
54.0
 31
0.0
  0
LINE
  5
49D
  8
SIZE
  6
BYBLOCK
 62
    30
 10
-601.17454699999996
 20
56.0
 30
0.0
 11
-601.17454699999996
 21
58.0
 31
0.0
  0
LINE
  5
49E
  8
SIZE
  6
BYBLOCK
 62
    30
 10
-601.17454699999996
 20
-2.0
 30
0.0
 11
-601.17454699999996
 21
-4.0
 31
0.0
  0
LINE
  5
49F
  8
SIZE
  6
BYBLOCK
 62
    30
 10
-601.17454699999996
 20
54.0
 30
0.0
 11
-601.17454699999996
 21
0.0
 31
0.0
  0
TEXT
  5
4A0
  8
SIZE
  6
BYBLOCK
 62
    30
 10
-633.17454699999985
 20
91.431080000000037
 30
0.0
 40
64.0
  1
54
 50
90.0
 41
0.9
  0
LINE
  5
4A1
  8
SIZE
  6
BYBLOCK
 62
    30
 10
-20.0
 20
-190.0
 30
0.0
 11
-631.17454699999985
 21
-190.0
 31
0.0
  0
LINE
  5
4A2
  8
SIZE
  6
BYBLOCK
 62
    30
 10
-20.0
 20
0.0
 30
0.0
 11
-631.17454699999985
 21
0.0
 31
0.0
  0
LINE
  5
4A3
  8
SIZE
  6
BYBLOCK
 62
    30
 10
-601.17454699999996
 20
-188.0
 30
0.0
 11
-601.17454699999996
 21
-95.0
 31
0.0
  0
LINE
  5
4A4
  8
SIZE
  6
BYBLOCK
 62
    30
 10
-601.17454699999996
 20
-2.0
 30
0.0
 11
-601.17454699999996
 21
-95.0
 31
0.0
  0
TEXT
  5
4A5
  8
SIZE
  6
BYBLOCK
 62
    30
 10
-633.17454699999985
 20
-163.57142899999991
 30
0.0
 40
64.0
  1
190
 50
90.0
 41
0.9
  0
LINE
  5
4A6
  8
SIZE
  6
BYBLOCK
 62
    30
 10
600.0
 20
-110.0
 30
0.0
 11
958.03091900000015
 21
-110.0
 31
0.0
  0
LINE
  5
4A7
  8
SIZE
  6
BYBLOCK
 62
    30
 10
505.0
 20
0.0
 30
0.0
 11
958.03091900000015
 21
0.0
 31
0.0
  0
LINE
  5
4A8
  8
SIZE
  6
BYBLOCK
 62
    30
 10
928.03091899999981
 20
2.0
 30
0.0
 11
928.03091899999981
 21
4.0
 31
0.0
  0
LINE
  5
4A9
  8
SIZE
  6
BYBLOCK
 62
    30
 10
928.03091899999981
 20
-112.0
 30
0.0
 11
928.03091899999981
 21
-114.0
 31
0.0
  0
LINE
  5
4AA
  8
SIZE
  6
BYBLOCK
 62
    30
 10
928.03091899999981
 20
0.0
 30
0.0
 11
928.03091899999981
 21
-110.0
 31
0.0
  0
TEXT
  5
4AB
  8
SIZE
  6
BYBLOCK
 62
    30
 10
896.03091900000004
 20
19.659618999999989
 30
0.0
 40
64.0
  1
110
 50
90.0
 41
0.9
  0
LINE
  5
4AC
  8
SIZE
  6
BYBLOCK
 62
    30
 10
600.0
 20
-181.0
 30
0.0
 11
958.03091900000015
 21
-181.0
 31
0.0
  0
LINE
  5
4AD
  8
SIZE
  6
BYBLOCK
 62
    30
 10
600.0
 20
-110.0
 30
0.0
 11
958.03091900000015
 21
-110.0
 31
0.0
  0
LINE
  5
4AE
  8
SIZE
  6
BYBLOCK
 62
    30
 10
928.03091899999981
 20
-179.0
 30
0.0
 11
928.03091899999981
 21
-145.5
 31
0.0
  0
LINE
  5
4AF
  8
SIZE
  6
BYBLOCK
 62
    30
 10
928.03091899999981
 20
-112.0
 30
0.0
 11
928.03091899999981
 21
-145.5
 31
0.0
  0
TEXT
  5
4B0
  8
SIZE
  6
BYBLOCK
 62
    30
 10
896.03091900000004
 20
-291.81858499999998
 30
0.0
 40
64.0
  1
71
 50
90.0
 41
0.9
  0
LINE
  5
4B1
  8
SIZE
  6
BYBLOCK
 62
    30
 10
0.0
 20
-210.0
 30
0.0
 11
0.0
 21
-376.21626099999992
 31
0.0
  0
LINE
  5
4B2
  8
SIZE
  6
BYBLOCK
 62
    30
 10
110.0
 20
-40.0
 30
0.0
 11
110.0
 21
-376.21626099999992
 31
0.0
  0
LINE
  5
4B3
  8
SIZE
  6
BYBLOCK
 62
    30
 10
112.0
 20
-346.21626099999997
 30
0.0
 11
114.0
 21
-346.21626099999997
 31
0.0
  0
LINE
  5
4B4
  8
SIZE
  6
BYBLOCK
 62
    30
 10
-2.0
 20
-346.21626099999997
 30
0.0
 11
-4.0
 21
-346.21626099999997
 31
0.0
  0
LINE
  5
4B5
  8
SIZE
  6
BYBLOCK
 62
    30
 10
110.0
 20
-346.21626099999997
 30
0.0
 11
0.0
 21
-346.21626099999997
 31
0.0
  0
TEXT
  5
4B6
  8
SIZE
  6
BYBLOCK
 62
    30
 10
-173.97652400000001
 20
-314.21626099999992
 30
0.0
 40
64.0
  1
110
 41
0.9
  0
LINE
  5
4B7
  8
SIZE
  6
BYBLOCK
 62
    30
 10
125.0
 20
113.8430559999999
 30
0.0
 11
125.0
 21
197.296752
 31
0.0
  0
LINE
  5
4B8
  8
SIZE
  6
BYBLOCK
 62
    30
 10
0.0
 20
50.0
 30
0.0
 11
0.0
 21
197.296752
 31
0.0
  0
LINE
  5
4B9
  8
SIZE
  6
BYBLOCK
 62
    30
 10
-2.0
 20
167.296752
 30
0.0
 11
-4.0
 21
167.296752
 31
0.0
  0
LINE
  5
4BA
  8
SIZE
  6
BYBLOCK
 62
    30
 10
127.0
 20
167.296752
 30
0.0
 11
129.0
 21
167.296752
 31
0.0
  0
LINE
  5
4BB
  8
SIZE
  6
BYBLOCK
 62
    30
 10
0.0
 20
167.296752
 30
0.0
 11
125.0
 21
167.296752
 31
0.0
  0
TEXT
  5
4BC
  8
SIZE
  6
BYBLOCK
 62
    30
 10
-185.0588809999999
 20
199.296752
 30
0.0
 40
64.0
  1
125
 41
0.9
  0
LINE
  5
4BD
  8
SIZE
  6
BYBLOCK
 62
    30
 10
202.0
 20
34.0
 30
0.0
 11
202.0
 21
450.4013599999995
 31
0.0
  0
LINE
  5
4BE
  8
SIZE
  6
BYBLOCK
 62
    30
 10
48.0
 20
34.0
 30
0.0
 11
48.0
 21
450.4013599999995
 31
0.0
  0
LINE
  5
4BF
  8
SIZE
  6
BYBLOCK
 62
    30
 10
46.0
 20
420.40135999999973
 30
0.0
 11
44.0
 21
420.40135999999973
 31
0.0
  0
LINE
  5
4C0
  8
SIZE
  6
BYBLOCK
 62
    30
 10
204.0
 20
420.40135999999973
 30
0.0
 11
206.0
 21
420.40135999999973
 31
0.0
  0
LINE
  5
4C1
  8
SIZE
  6
BYBLOCK
 62
    30
 10
48.0
 20
420.40135999999973
 30
0.0
 11
202.0
 21
420.40135999999973
 31
0.0
  0
TEXT
  5
4C2
  8
SIZE
  6
BYBLOCK
 62
    30
 10
-237.6083669999999
 20
452.40135999999978
 30
0.0
 40
64.0
  1
φ154
 41
0.9
  0
LINE
  5
4C3
  8
SIZE
  6
BYBLOCK
 62
    30
 10
51.0
 20
74.0
 30
0.0
 11
51.0
 21
321.39716600000008
 31
0.0
  0
LINE
  5
4C4
  8
SIZE
  6
BYBLOCK
 62
    30
 10
199.0
 20
74.0
 30
0.0
 11
199.0
 21
321.39716600000008
 31
0.0
  0
LINE
  5
4C5
  8
SIZE
  6
BYBLOCK
 62
    30
 10
201.0
 20
291.39716600000008
 30
0.0
 11
203.0
 21
291.39716600000008
 31
0.0
  0
LINE
  5
4C6
  8
SIZE
  6
BYBLOCK
 62
    30
 10
49.0
 20
291.39716600000008
 30
0.0
 11
47.0
 21
291.39716600000008
 31
0.0
  0
LINE
  5
4C7
  8
SIZE
  6
BYBLOCK
 62
    30
 10
199.0
 20
291.39716600000008
 30
0.0
 11
51.0
 21
291.39716600000008
 31
0.0
  0
TEXT
  5
4C8
  8
SIZE
  6
BYBLOCK
 62
    30
 10
-236.23693800000001
 20
323.39716600000008
 30
0.0
 40
64.0
  1
φ148
 41
0.9
  0
LINE
  5
4C9
  8
SIZE
  6
BYBLOCK
 62
    30
 10
-6.0
 20
-198.0
 30
0.0
 11
-6.0
 21
-503.87660299999988
 31
0.0
  0
LINE
  5
4CA
  8
SIZE
  6
BYBLOCK
 62
    30
 10
0.0
 20
-210.0
 30
0.0
 11
0.0
 21
-503.87660299999988
 31
0.0
  0
LINE
  5
4CB
  8
SIZE
  6
BYBLOCK
 62
    30
 10
2.0
 20
-473.87660299999988
 30
0.0
 11
4.0
 21
-473.87660299999988
 31
0.0
  0
LINE
  5
4CC
  8
SIZE
  6
BYBLOCK
 62
    30
 10
-8.0
 20
-473.87660299999988
 30
0.0
 11
-10.0
 21
-473.87660299999988
 31
0.0
  0
LINE
  5
4CD
  8
SIZE
  6
BYBLOCK
 62
    30
 10
0.0
 20
-473.87660299999988
 30
0.0
 11
-6.0
 21
-473.87660299999988
 31
0.0
  0
TEXT
  5
4CE
  8
SIZE
  6
BYBLOCK
 62
    30
 10
-68.159718999999996
 20
-441.000246
 30
0.0
 40
64.0
  1
6
 41
0.9
  0
LINE
  5
4CF
  8
SIZE
  6
BYBLOCK
 62
    30
 10
0.0
 20
-210.0
 30
0.0
 11
0.0
 21
-503.87660299999988
 31
0.0
  0
LINE
  5
4D0
  8
SIZE
  6
BYBLOCK
 62
    30
 10
546.0
 20
-210.0
 30
0.0
 11
546.0
 21
-503.87660299999988
 31
0.0
  0
LINE
  5
4D1
  8
SIZE
  6
BYBLOCK
 62
    30
 10
2.0
 20
-473.87660299999988
 30
0.0
 11
544.0
 21
-473.87660299999988
 31
0.0
  0
TEXT
  5
4D2
  8
SIZE
  6
BYBLOCK
 62
    30
 10
200.31428600000001
 20
-441.87660299999988
 30
0.0
 40
64.0
  1
546
 41
0.9
  0
LINE
  5
4D3
  8
SIZE
  6
BYBLOCK
 62
    30
 10
580.0
 20
-90.0
 30
0.0
 11
580.0
 21
128.59683000000001
 31
0.0
  0
LINE
  5
4D4
  8
SIZE
  6
BYBLOCK
 62
    30
 10
485.0
 20
20.0
 30
0.0
 11
485.0
 21
128.59683000000001
 31
0.0
  0
LINE
  5
4D5
  8
SIZE
  6
BYBLOCK
 62
    30
 10
578.0
 20
98.596830000000026
 30
0.0
 11
532.5
 21
98.596830000000026
 31
0.0
  0
LINE
  5
4D6
  8
SIZE
  6
BYBLOCK
 62
    30
 10
487.0
 20
98.596830000000026
 30
0.0
 11
532.5
 21
98.596830000000026
 31
0.0
  0
TEXT
  5
4D7
  8
SIZE
  6
BYBLOCK
 62
    30
 10
620.28793499999995
 20
130.59683000000001
 30
0.0
 40
64.0
  1
95
 41
0.9
  0
LINE
  5
4D8
  8
SIZE
  6
BYBLOCK
 62
    30
 10
0.0
 20
50.0
 30
0.0
 11
0.0
 21
810.09572900000001
 31
0.0
  0
LINE
  5
4D9
  8
SIZE
  6
BYBLOCK
 62
    30
 10
580.0
 20
-90.0
 30
0.0
 11
580.0
 21
810.09572900000001
 31
0.0
  0
LINE
  5
4DA
  8
SIZE
  6
BYBLOCK
 62
    30
 10
2.0
 20
780.09572900000001
 30
0.0
 11
290.0
 21
780.09572900000001
 31
0.0
  0
LINE
  5
4DB
  8
SIZE
  6
BYBLOCK
 62
    30
 10
578.0
 20
780.09572900000001
 30
0.0
 11
290.0
 21
780.09572900000001
 31
0.0
  0
TEXT
  5
4DC
  8
SIZE
  6
BYBLOCK
 62
    30
 10
215.94285699999969
 20
812.09572899999989
 30
0.0
 40
64.0
  1
580
 41
0.9
  0
LINE
  5
4DD
  8
SIZE
  6
BYBLOCK
 62
    30
 10
15.0
 20
40.0
 30
0.0
 11
15.0
 21
565.91595099999995
 31
0.0
  0
LINE
  5
4DE
  8
SIZE
  6
BYBLOCK
 62
    30
 10
330.0
 20
40.0
 30
0.0
 11
330.0
 21
565.91595099999995
 31
0.0
  0
LINE
  5
4DF
  8
SIZE
  6
BYBLOCK
 62
    30
 10
17.0
 20
535.91595099999995
 30
0.0
 11
172.5
 21
535.91595099999995
 31
0.0
  0
LINE
  5
4E0
  8
SIZE
  6
BYBLOCK
 62
    30
 10
328.0
 20
535.91595099999995
 30
0.0
 11
172.5
 21
535.91595099999995
 31
0.0
  0
TEXT
  5
4E1
  8
SIZE
  6
BYBLOCK
 62
    30
 10
103.92857099999991
 20
567.91595099999995
 30
0.0
 40
64.0
  1
315
 41
0.9
  0
LINE
  5
4E2
  8
SIZE
  6
BYBLOCK
 62
    30
 10
0.0
 20
50.0
 30
0.0
 11
0.0
 21
692.11982
 31
0.0
  0
LINE
  5
4E3
  8
SIZE
  6
BYBLOCK
 62
    30
 10
300.0
 20
40.0
 30
0.0
 11
300.0
 21
692.11982
 31
0.0
  0
LINE
  5
4E4
  8
SIZE
  6
BYBLOCK
 62
    30
 10
2.0
 20
662.11982
 30
0.0
 11
150.0
 21
662.11982
 31
0.0
  0
LINE
  5
4E5
  8
SIZE
  6
BYBLOCK
 62
    30
 10
298.0
 20
662.11982
 30
0.0
 11
150.0
 21
662.11982
 31
0.0
  0
TEXT
  5
4E6
  8
SIZE
  6
BYBLOCK
 62
    30
 10
75.942857000000004
 20
694.11982
 30
0.0
 40
64.0
  1
300
 41
0.9
  0
LINE
  5
4E7
  8
SIZE
  6
BYBLOCK
 62
    30
 10
0.0
 20
50.0
 30
0.0
 11
0.0
 21
565.91595099999995
 31
0.0
  0
LINE
  5
4E8
  8
SIZE
  6
BYBLOCK
 62
    30
 10
15.0
 20
40.0
 30
0.0
 11
15.0
 21
565.91595099999995
 31
0.0
  0
LINE
  5
4E9
  8
SIZE
  6
BYBLOCK
 62
    30
 10
17.0
 20
535.91595099999995
 30
0.0
 11
19.0
 21
535.91595099999995
 31
0.0
  0
LINE
  5
4EA
  8
SIZE
  6
BYBLOCK
 62
    30
 10
-2.0
 20
535.91595099999995
 30
0.0
 11
-4.0
 21
535.91595099999995
 31
0.0
  0
LINE
  5
4EB
  8
SIZE
  6
BYBLOCK
 62
    30
 10
15.0
 20
535.91595099999995
 30
0.0
 11
0.0
 21
535.91595099999995
 31
0.0
  0
TEXT
  5
4EC
  8
SIZE
  6
BYBLOCK
 62
    30
 10
-134.050453
 20
550.45231000000001
 30
0.0
 40
64.0
  1
15
 41
0.9
  0
CIRCLE
  5
4ED
  8
SIZE
  6
CONTINUOUS
 62
    30
 10
0.0
 20
535.91595099999995
 30
0.0
 40
6.0
  0
CIRCLE
  5
4EE
  8
SIZE
  6
CONTINUOUS
 62
    30
 10
15.0
 20
535.91595099999995
 30
0.0
 40
6.0
  0
CIRCLE
  5
4EF
  8
SIZE
  6
CONTINUOUS
 62
    30
 10
300.0
 20
662.11982
 30
0.0
 40
6.0
  0
CIRCLE
  5
4F0
  8
SIZE
  6
CONTINUOUS
 62
    30
 10
0.0
 20
662.11982
 30
0.0
 40
6.0
  0
CIRCLE
  5
4F1
  8
SIZE
  6
CONTINUOUS
 62
    30
 10
330.0
 20
535.91595099999995
 30
0.0
 40
6.0
  0
CIRCLE
  5
4F2
  8
SIZE
  6
CONTINUOUS
 62
    30
 10
15.0
 20
535.91595099999995
 30
0.0
 40
6.0
  0
CIRCLE
  5
4F3
  8
SIZE
  6
CONTINUOUS
 62
    30
 10
580.0
 20
780.09572900000001
 30
0.0
 40
6.0
  0
CIRCLE
  5
4F4
  8
SIZE
  6
CONTINUOUS
 62
    30
 10
0.0
 20
780.09572900000001
 30
0.0
 40
6.0
  0
CIRCLE
  5
4F5
  8
SIZE
  6
CONTINUOUS
 62
    30
 10
485.0
 20
98.596830000000026
 30
0.0
 40
6.0
  0
CIRCLE
  5
4F6
  8
SIZE
  6
CONTINUOUS
 62
    30
 10
580.0
 20
98.596830000000026
 30
0.0
 40
6.0
  0
CIRCLE
  5
4F7
  8
SIZE
  6
CONTINUOUS
 62
    30
 10
546.0
 20
-473.87660299999988
 30
0.0
 40
6.0
  0
CIRCLE
  5
4F8
  8
SIZE
  6
CONTINUOUS
 62
    30
 10
0.0
 20
-473.87660299999988
 30
0.0
 40
6.0
  0
CIRCLE
  5
4F9
  8
SIZE
  6
CONTINUOUS
 62
    30
 10
-6.0
 20
-473.87660299999988
 30
0.0
 40
6.0
  0
CIRCLE
  5
4FA
  8
SIZE
  6
CONTINUOUS
 62
    30
 10
0.0
 20
-473.87660299999988
 30
0.0
 40
6.0
  0
CIRCLE
  5
4FB
  8
SIZE
  6
CONTINUOUS
 62
    30
 10
51.0
 20
291.39716600000008
 30
0.0
 40
6.0
  0
CIRCLE
  5
4FC
  8
SIZE
  6
CONTINUOUS
 62
    30
 10
199.0
 20
291.39716600000008
 30
0.0
 40
6.0
  0
CIRCLE
  5
4FD
  8
SIZE
  6
CONTINUOUS
 62
    30
 10
202.0
 20
420.40135999999973
 30
0.0
 40
6.0
  0
CIRCLE
  5
4FE
  8
SIZE
  6
CONTINUOUS
 62
    30
 10
48.0
 20
420.40135999999973
 30
0.0
 40
6.0
  0
CIRCLE
  5
4FF
  8
SIZE
  6
CONTINUOUS
 62
    30
 10
125.0
 20
167.296752
 30
0.0
 40
6.0
  0
CIRCLE
  5
500
  8
SIZE
  6
CONTINUOUS
 62
    30
 10
0.0
 20
167.296752
 30
0.0
 40
6.0
  0
CIRCLE
  5
501
  8
SIZE
  6
CONTINUOUS
 62
    30
 10
0.0
 20
-346.21626099999997
 30
0.0
 40
6.0
  0
CIRCLE
  5
502
  8
SIZE
  6
CONTINUOUS
 62
    30
 10
110.0
 20
-346.21626099999997
 30
0.0
 40
6.0
  0
CIRCLE
  5
503
  8
SIZE
  6
CONTINUOUS
 62
    30
 10
928.03091899999981
 20
-110.0
 30
0.0
 40
6.0
  0
CIRCLE
  5
504
  8
SIZE
  6
CONTINUOUS
 62
    30
 10
928.03091899999981
 20
-181.0
 30
0.0
 40
6.0
  0
CIRCLE
  5
505
  8
SIZE
  6
CONTINUOUS
 62
    30
 10
928.03091899999981
 20
-110.0
 30
0.0
 40
6.0
  0
CIRCLE
  5
506
  8
SIZE
  6
CONTINUOUS
 62
    30
 10
928.03091899999981
 20
0.0
 30
0.0
 40
6.0
  0
CIRCLE
  5
507
  8
SIZE
  6
CONTINUOUS
 62
    30
 10
-601.17454699999996
 20
0.0
 30
0.0
 40
6.0
  0
CIRCLE
  5
508
  8
SIZE
  6
CONTINUOUS
 62
    30
 10
-601.17454699999996
 20
-190.0
 30
0.0
 40
6.0
  0
CIRCLE
  5
509
  8
SIZE
  6
CONTINUOUS
 62
    30
 10
-601.17454699999996
 20
0.0
 30
0.0
 40
6.0
  0
CIRCLE
  5
50A
  8
SIZE
  6
CONTINUOUS
 62
    30
 10
-601.17454699999996
 20
54.0
 30
0.0
 40
6.0
  0
CIRCLE
  5
50B
  8
SIZE
  6
CONTINUOUS
 62
    30
 10
-472.19350100000003
 20
14.0
 30
0.0
 40
6.0
  0
CIRCLE
  5
50C
  8
SIZE
  6
CONTINUOUS
 62
    30
 10
-472.19350100000003
 20
54.0
 30
0.0
 40
6.0
  0
CIRCLE
  5
50D
  8
SIZE
  6
CONTINUOUS
 62
    30
 10
-226.65861199999989
 20
30.0
 30
0.0
 40
6.0
  0
CIRCLE
  5
50E
  8
SIZE
  6
CONTINUOUS
 62
    30
 10
-226.65861199999989
 20
14.0
 30
0.0
 40
6.0
  0
CIRCLE
  5
50F
  8
SIZE
  6
CONTINUOUS
 62
    30
 10
-357.426557
 20
30.0
 30
0.0
 40
6.0
  0
CIRCLE
  5
510
  8
SIZE
  6
CONTINUOUS
 62
    30
 10
-357.426557
 20
0.0
 30
0.0
 40
6.0
  0
LINE
  5
511
  8
NOTE
  6
CONTINUOUS
 62
     4
 10
-6.0
 20
-6.0
 30
0.0
 11
-6.0
 21
34.0
 31
0.0
  0
LINE
  5
512
  8
NOTE
  6
CONTINUOUS
 62
     4
 10
14.0
 20
14.0
 30
0.0
 11
-26.0
 21
14.0
 31
0.0
  0
LINE
  5
513
  8
NOTE
  6
CONTINUOUS
 62
     4
 10
330.0
 20
-20.0
 30
0.0
 11
330.0
 21
20.0
 31
0.0
  0
LINE
  5
514
  8
NOTE
  6
CONTINUOUS
 62
     4
 10
350.0
 20
0.0
 30
0.0
 11
310.0
 21
0.0
 31
0.0
  0
LINE
  5
515
  8
NOTE
  6
CONTINUOUS
 62
     4
 10
300.0
 20
-20.0
 30
0.0
 11
300.0
 21
20.0
 31
0.0
  0
LINE
  5
516
  8
NOTE
  6
CONTINUOUS
 62
     4
 10
320.0
 20
0.0
 30
0.0
 11
280.0
 21
0.0
 31
0.0
  0
LINE
  5
517
  8
NOTE
  6
CONTINUOUS
 62
     4
 10
110.0
 20
-20.0
 30
0.0
 11
110.0
 21
20.0
 31
0.0
  0
LINE
  5
518
  8
NOTE
  6
CONTINUOUS
 62
     4
 10
130.0
 20
0.0
 30
0.0
 11
90.0
 21
0.0
 31
0.0
  0
LINE
  5
519
  8
NOTE
  6
CONTINUOUS
 62
     4
 10
15.0
 20
-20.0
 30
0.0
 11
15.0
 21
20.0
 31
0.0
  0
LINE
  5
51A
  8
NOTE
  6
CONTINUOUS
 62
     4
 10
35.0
 20
0.0
 30
0.0
 11
-5.0
 21
0.0
 31
0.0
  0
LINE
  5
51B
  8
NOTE
  6
CONTINUOUS
 62
     4
 10
-32.633310999999999
 20
43.844039999999993
 30
0.0
 11
-6.0
 21
14.0
 31
0.0
  0
LINE
  5
51C
  8
NOTE
  6
CONTINUOUS
 62
     4
 10
-6.0
 20
14.0
 30
0.0
 11
-43.987144000000001
 21
26.529040999999989
 31
0.0
  0
LINE
  5
51D
  8
NOTE
  6
CONTINUOUS
 62
     4
 10
330.06766399999992
 20
26.380590999999988
 30
0.0
 11
300.0
 21
0.0
 31
0.0
  0
LINE
  5
51E
  8
NOTE
  6
CONTINUOUS
 62
     4
 10
300.0
 20
0.0
 30
0.0
 11
312.84906499999983
 21
37.880093999999993
 31
0.0
  0
LINE
  5
51F
  8
NOTE
  6
CONTINUOUS
 62
     4
 10
362.81551400000001
 20
22.872298999999991
 30
0.0
 11
330.0
 21
0.0
 31
0.0
  0
LINE
  5
520
  8
NOTE
  6
CONTINUOUS
 62
     4
 10
330.0
 20
0.0
 30
0.0
 11
346.98291899999998
 21
36.21574900000001
 31
0.0
  0
LINE
  5
521
  8
NOTE
  6
CONTINUOUS
 62
     4
 10
74.019874000000002
 20
-17.476571
 30
0.0
 11
110.0
 21
0.0
 31
0.0
  0
LINE
  5
522
  8
NOTE
  6
CONTINUOUS
 62
     4
 10
110.0
 20
0.0
 30
0.0
 11
87.578581999999983
 21
-33.125216999999999
 31
0.0
  0
TEXT
  5
52F
  8
ETC
  6
CONTINUOUS
 62
    61
 10
916.35328022823239
 20
763.62159645235533
 30
0.0
 40
50.0
  1
V-36K5
 41
0.9
  0
TEXT
  5
530
  8
ETC
  6
CONTINUOUS
 62
    61
 10
921.10312996668563
 20
679.75945181881605
 30
0.0
 40
50.0
  1
V-36K5-BL-L
 41
0.9
  0
TEXT
  5
531
  8
ETC
  6
CONTINUOUS
 62
    61
 10
789.95029177106778
 20
939.05108758964809
 30
0.0
 40
64.0
  1
V-36K5_5
 41
0.9
  0
TEXT
  5
532
  8
ETC
  6
CONTINUOUS
 62
    61
 10
787.74188077106794
 20
838.41004158964802
 30
0.0
 40
64.0
  1
換気扇
 41
0.9
  0
ENDSEC
  0
EOF
