  0
SECTION
  2
HEADER
  9
$ACADVER
  1
AC1009
  9
$DWGCODEPAGE
  3
dos932
  9
$INSBASE
 10
0.0
 20
0.0
 30
0.0
  9
$EXTMIN
 10
-1081.755049889623
 20
-504.04356746473792
 30
-0.001525762492705
  9
$EXTMAX
 10
1308.8012814274989
 20
926.69678575673242
 30
0.002288876569693
  9
$LIMMIN
 10
-2970.0
 20
-2100.0
  9
$LIMMAX
 10
2970.0
 20
2100.0
  9
$ORTHOMODE
 70
     1
  9
$REGENMODE
 70
     1
  9
$FILLMODE
 70
     1
  9
$QTEXTMODE
 70
     0
  9
$MIRRTEXT
 70
     0
  9
$LTSCALE
 40
20.0
  9
$ATTMODE
 70
     1
  9
$TEXTSIZE
 40
64.0
  9
$TRACEWID
 40
0.05
  9
$TEXTSTYLE
  7
STANDARD
  9
$CLAYER
  8
NOTE
  9
$CELTYPE
  6
CONTINUOUS
  9
$CECOLOR
 62
     7
  9
$DIMSCALE
 40
1.0
  9
$DIMASZ
 40
12.0
  9
$DIMEXO
 40
20.0
  9
$DIMDLI
 40
200.0
  9
$DIMRND
 40
0.0
  9
$DIMDLE
 40
0.0
  9
$DIMEXE
 40
20.0
  9
$DIMTP
 40
0.0
  9
$DIMTM
 40
0.0
  9
$DIMTXT
 40
64.0
  9
$DIMCEN
 40
0.09
  9
$DIMTSZ
 40
0.0
  9
$DIMTOL
 70
     0
  9
$DIMLIM
 70
     0
  9
$DIMTIH
 70
     0
  9
$DIMTOH
 70
     0
  9
$DIMSE1
 70
     0
  9
$DIMSE2
 70
     0
  9
$DIMTAD
 70
     1
  9
$DIMZIN
 70
     8
  9
$DIMBLK
  1

  9
$DIMASO
 70
     1
  9
$DIMSHO
 70
     0
  9
$DIMPOST
  1

  9
$DIMAPOST
  1

  9
$DIMALT
 70
     0
  9
$DIMALTD
 70
     2
  9
$DIMALTF
 40
25.399999999999999
  9
$DIMLFAC
 40
1.0
  9
$DIMTOFL
 70
     1
  9
$DIMTVP
 40
0.0
  9
$DIMTIX
 70
     1
  9
$DIMSOXD
 70
     0
  9
$DIMSAH
 70
     0
  9
$DIMBLK1
  1

  9
$DIMBLK2
  1

  9
$DIMSTYLE
  2
STANDARD
  9
$DIMCLRD
 70
     7
  9
$DIMCLRE
 70
     7
  9
$DIMCLRT
 70
     7
  9
$DIMTFAC
 40
1.0
  9
$DIMGAP
 40
25.0
  9
$LUNITS
 70
     2
  9
$LUPREC
 70
     4
  9
$SKETCHINC
 40
0.1
  9
$FILLETRAD
 40
3.0
  9
$AUNITS
 70
     1
  9
$AUPREC
 70
     3
  9
$MENU
  1
ACAD
  9
$ELEVATION
 40
0.0
  9
$PELEVATION
 40
0.0
  9
$THICKNESS
 40
50.0
  9
$LIMCHECK
 70
     0
  9
$CHAMFERA
 40
0.0
  9
$CHAMFERB
 40
0.0
  9
$SKPOLY
 70
     0
  9
$TDCREATE
 40
2453019.62301037
  9
$TDUPDATE
 40
2458887.735151181
  9
$TDINDWG
 40
1.7110219444
  9
$TDUSRTIMER
 40
1.7110219444
  9
$USRTIMER
 70
     1
  9
$ANGBASE
 50
0.0
  9
$ANGDIR
 70
     0
  9
$PDMODE
 70
     3
  9
$PDSIZE
 40
-2.0
  9
$PLINEWID
 40
0.0
  9
$SPLFRAME
 70
     0
  9
$SPLINETYPE
 70
     6
  9
$SPLINESEGS
 70
     8
  9
$SURFTAB1
 70
     6
  9
$SURFTAB2
 70
     6
  9
$SURFTYPE
 70
     6
  9
$SURFU
 70
     6
  9
$SURFV
 70
     6
  9
$UCSNAME
  2

  9
$UCSORG
 10
0.0
 20
0.0
 30
0.0
  9
$UCSXDIR
 10
1.0
 20
0.0
 30
0.0
  9
$UCSYDIR
 10
0.0
 20
1.0
 30
0.0
  9
$PUCSNAME
  2

  9
$PUCSORG
 10
0.0
 20
0.0
 30
0.0
  9
$PUCSXDIR
 10
1.0
 20
0.0
 30
0.0
  9
$PUCSYDIR
 10
0.0
 20
1.0
 30
0.0
  9
$USERI1
 70
     0
  9
$USERI2
 70
     0
  9
$USERI3
 70
     0
  9
$USERI4
 70
     0
  9
$USERI5
 70
     0
  9
$USERR1
 40
20.0
  9
$USERR2
 40
0.0
  9
$USERR3
 40
0.0
  9
$USERR4
 40
0.0
  9
$USERR5
 40
0.0
  9
$WORLDVIEW
 70
     1
  9
$SHADEDGE
 70
     3
  9
$SHADEDIF
 70
    70
  9
$TILEMODE
 70
     1
  9
$MAXACTVP
 70
    48
  9
$PINSBASE
 10
0.0
 20
0.0
 30
0.0
  9
$PLIMCHECK
 70
     0
  9
$PEXTMIN
 10
-100000000000000000000.0
 20
-100000000000000000000.0
 30
-100000000000000000000.0
  9
$PEXTMAX
 10
100000000000000000000.0
 20
100000000000000000000.0
 30
100000000000000000000.0
  9
$PLIMMIN
 10
0.0
 20
0.0
  9
$PLIMMAX
 10
12.0
 20
9.0
  9
$UNITMODE
 70
     0
  9
$VISRETAIN
 70
     0
  9
$PLINEGEN
 70
     0
  9
$PSLTSCALE
 70
     0
  9
$TREEDEPTH
 70
  3020
  9
$ATTDIA
 70
     0
  9
$ATTREQ
 70
     1
  9
$BLIPMODE
 70
     1
  9
$COORDS
 70
     1
  9
$DRAGMODE
 70
     2
  9
$OSMODE
 70
     0
  9
$HANDLING
 70
     0
  9
$HANDSEED
  5
EB52
  0
ENDSEC
  0
SECTION
  2
TABLES
  0
TABLE
  2
LTYPE
 70
     2
  0
LTYPE
  2
CONTINUOUS
 70
     0
  3
実線
 72
    65
 73
     0
 40
0.0
  0
LTYPE
  2
DASHDOT
 70
     0
  3
____ _ ____ _ ____ _ ____ _ ____ _ ____ _ ____
 72
    65
 73
     4
 40
5.5
 49
4.0
 49
-0.6
 49
0.3
 49
-0.6
  0
ENDTAB
  0
TABLE
  2
LAYER
 70
    12
  0
LAYER
  2
0
 70
     0
 62
     7
  6
CONTINUOUS
  0
LAYER
  2
BASIS
 70
     0
 62
     6
  6
DASHDOT
  0
LAYER
  2
OUTLINE
 70
     0
 62
     3
  6
CONTINUOUS
  0
LAYER
  2
DETAIL
 70
     0
 62
     5
  6
CONTINUOUS
  0
LAYER
  2
SIZE
 70
     0
 62
    30
  6
CONTINUOUS
  0
LAYER
  2
ARRANGE
 70
     0
 62
     1
  6
CONTINUOUS
  0
LAYER
  2
ETC
 70
     0
 62
    61
  6
CONTINUOUS
  0
LAYER
  2
FIX
 70
     0
 62
    11
  6
CONTINUOUS
  0
LAYER
  2
NOTE
 70
     0
 62
     4
  6
CONTINUOUS
  0
LAYER
  2
DEFPOINTS
 70
    64
 62
     7
  6
CONTINUOUS
  0
LAYER
  2
SERVICESPACE
 70
    64
 62
     2
  6
DASHDOT
  0
LAYER
  2
SYMBOLLINE
 70
    64
 62
    15
  6
CONTINUOUS
  0
ENDTAB
  0
TABLE
  2
STYLE
 70
     1
  0
STYLE
  2
STANDARD
 70
     0
 40
64.0
 41
0.9
 50
0.0
 71
     0
 42
64.0
  3
SIMPLEX.shx
  4
BIGFONT.shx
  0
ENDTAB
  0
TABLE
  2
APPID
 70
    16
  0
APPID
  2
ACAD
 70
     0
  0
APPID
  2
AUTOCAD_POSTSCRIPT_FIGURE
 70
     0
  0
APPID
  2
ACAD_EXEMPT_FROM_CAD_STANDARDS
 70
     0
  0
APPID
  2
ACAD_PSEXT
 70
     0
  0
APPID
  2
ACAUTHENVIRON
 70
     0
  0
APPID
  2
GENIUS_GENOENT_13
 70
     0
  0
APPID
  2
GENIUS_GENCFG_13
 70
     0
  0
APPID
  2
GENIUS_GENCFG0_13
 70
     0
  0
APPID
  2
GENIUS_GENCFG1_13
 70
     0
  0
APPID
  2
GENIUS_GENCFG2_13
 70
     0
  0
APPID
  2
GENIUS_GENCFG3_13
 70
     0
  0
APPID
  2
GENIUS_GENCFG4_13
 70
     0
  0
APPID
  2
GENIUS_GEVCFG0_13
 70
     0
  0
APPID
  2
CONTENTBLOCKICON
 70
     0
  0
APPID
  2
CONTENTBLOCKDESCRIPTION
 70
     0
  0
APPID
  2
ACAD_NAV_VCDISPLAY
 70
     0
  0
ENDTAB
  0
TABLE
  2
DIMSTYLE
 70
     1
  0
DIMSTYLE
  2
STANDARD
 70
     0
  3

  4

  5
_ORIGIN
  6

  7

 40
1.0
 41
12.0
 42
20.0
 43
200.0
 44
20.0
 45
0.0
 46
0.0
 47
0.0
 48
0.0
140
64.0
141
0.09
142
0.0
143
25.399999999999999
144
1.0
145
0.0
146
1.0
147
25.0
 71
     0
 72
     0
 73
     0
 74
     0
 75
     0
 76
     0
 77
     1
 78
     8
170
     0
171
     2
172
     1
173
     0
174
     1
175
     0
176
     7
177
     7
178
     7
  0
ENDTAB
  0
TABLE
  2
VIEW
 70
     1
  0
VIEW
  2
ALL
 70
     0
 40
4282.6198079999986
 10
0.0
 20
41.309904000000003
 41
5940.0
 11
0.0
 21
0.0
 31
1.0
 12
0.0
 22
0.0
 32
0.0
 42
50.0
 43
0.0
 44
0.0
 50
0.0
 71
     0
  0
ENDTAB
  0
TABLE
  2
UCS
 70
     0
  0
ENDTAB
  0
TABLE
  2
VPORT
 70
     1
  0
VPORT
  2
*ACTIVE
 70
     0
 10
0.0
 20
0.0
 11
1.0
 21
1.0
 12
113.5231157689376
 22
211.32660914599731
 13
0.0
 23
0.0
 14
1.0
 24
1.0
 15
0.0
 25
0.0
 16
0.0
 26
0.0
 36
1.0
 17
0.0
 27
0.0
 37
0.0
 40
1440.984317564345
 41
1.798088410991637
 42
50.0
 43
0.0
 44
0.0
 50
0.0
 51
0.0
 71
     0
 72
  1000
 73
     1
 74
     3
 75
     0
 76
     0
 77
     0
 78
     0
  0
ENDTAB
  0
ENDSEC
  0
SECTION
  2
BLOCKS
  0
BLOCK
  8
0
  2
_ORIGIN
 70
     0
 10
0.0
 20
0.0
 30
0.0
  3
_ORIGIN
  1
_ORIGIN
  0
CIRCLE
  8
0
  6
CONTINUOUS
 62
     7
 10
0.0
 20
0.0
 30
0.0
 40
0.5
  0
LINE
  8
0
  6
CONTINUOUS
 62
     7
 10
0.0
 20
0.0
 30
0.0
 11
-1.0
 21
0.0
 31
0.0
  0
ENDBLK
  8
0
  0
ENDSEC
  0
SECTION
  2
ENTITIES
  0
LINE
  8
BASIS
  6
DASHDOT
 62
     6
 10
-125.0
 20
93.843056000000047
 30
0.0
 11
-125.0
 21
-32.216534000000017
 31
0.0
  0
POINT
  8
ARRANGE
  6
CONTINUOUS
 62
     1
 10
0.0
 20
0.0
 30
0.0
  0
LINE
  8
DETAIL
  6
CONTINUOUS
 62
     5
 10
0.0
 20
0.0
 30
0.0
 11
-485.0
 21
0.0
 31
0.0
  0
LINE
  8
DETAIL
  6
CONTINUOUS
 62
     5
 10
0.0
 20
-190.0
 30
0.0
 11
-525.0
 21
-190.0
 31
0.0
  0
LINE
  8
DETAIL
  6
CONTINUOUS
 62
     5
 10
0.0
 20
30.0
 30
0.0
 11
0.0
 21
0.0
 31
0.0
  0
LINE
  8
DETAIL
  6
CONTINUOUS
 62
     5
 10
-580.0
 20
-110.0
 30
0.0
 11
-580.0
 21
-168.0
 31
0.0
  0
LINE
  8
DETAIL
  6
CONTINUOUS
 62
     5
 10
6.0
 20
30.0
 30
0.0
 11
0.0
 21
30.0
 31
0.0
  0
LINE
  8
DETAIL
  6
CONTINUOUS
 62
     5
 10
0.0
 20
-190.0
 30
0.0
 11
-546.0
 21
-190.0
 31
0.0
  0
LINE
  8
DETAIL
  6
CONTINUOUS
 62
     5
 10
-580.0
 20
-110.0
 30
0.0
 11
-580.0
 21
-181.0
 31
0.0
  0
CIRCLE
  8
ARRANGE
  6
CONTINUOUS
 62
     1
 10
0.0
 20
0.0
 30
0.0
 40
40.0
  0
LINE
  8
DETAIL
  6
CONTINUOUS
 62
     5
 10
0.0
 20
0.0
 30
0.0
 11
0.0
 21
-190.0
 31
0.0
  0
LINE
  8
DETAIL
  6
CONTINUOUS
 62
     5
 10
-546.0
 20
-190.0
 30
0.0
 11
-580.0
 21
-181.0
 31
0.0
  0
LINE
  8
DETAIL
  6
CONTINUOUS
 62
     5
 10
-485.0
 20
0.0
 30
0.0
 11
-580.0
 21
-110.0
 31
0.0
  0
LINE
  8
DETAIL
  6
CONTINUOUS
 62
     5
 10
6.0
 20
30.0
 30
0.0
 11
6.0
 21
-178.0
 31
0.0
  0
LINE
  8
DETAIL
  6
CONTINUOUS
 62
     5
 10
6.0
 20
-178.0
 30
0.0
 11
0.0
 21
-178.0
 31
0.0
  0
CIRCLE
  8
FIX
  6
CONTINUOUS
 62
    11
 10
-300.0
 20
0.0
 30
0.0
 40
6.5
  0
LINE
  8
SIZE
  6
CONTINUOUS
 62
    30
 10
-768.452541
 20
-179.0
 30
0.0
 11
-768.452541
 21
-299.15087299999982
 31
0.0
  0
LINE
  8
NOTE
  6
CONTINUOUS
 62
     4
 10
-330.0
 20
0.0
 30
0.0
 11
-638.28542600000003
 21
356.87308100000001
 31
0.0
  0
LINE
  8
NOTE
  6
CONTINUOUS
 62
     4
 10
-300.0
 20
0.0
 30
0.0
 11
-637.00468099999978
 21
501.36154299999998
 31
0.0
  0
LINE
  8
NOTE
  6
CONTINUOUS
 62
     4
 10
-637.00468099999978
 20
501.36154299999998
 30
0.0
 11
-1081.635
 21
501.36154299999998
 31
0.0
  0
LINE
  8
NOTE
  6
CONTINUOUS
 62
     4
 10
-110.0
 20
0.0
 30
0.0
 11
67.617029999999886
 21
-148.91562899999991
 31
0.0
  0
LINE
  8
NOTE
  6
CONTINUOUS
 62
     4
 10
67.617029999999886
 20
-148.91562899999991
 30
0.0
 11
181.95199
 21
-148.91562899999991
 31
0.0
  0
TEXT
  8
NOTE
  6
CONTINUOUS
 62
     4
 10
86.821872999999869
 20
-125.87963499999969
 30
0.0
 40
64.0
  1
EL
 41
0.9
  0
TEXT
  8
NOTE
  6
CONTINUOUS
 62
     4
 10
-1060.6279999999999
 20
532.86861099999965
 30
0.0
 40
64.0
  1
AH 2-φ13
 41
0.9
  0
LINE
  8
OUTLINE
  6
CONTINUOUS
 62
     3
 10
0.0
 20
0.0
 30
0.0
 11
-25.0
 21
0.0
 31
0.0
  0
LINE
  8
OUTLINE
  6
CONTINUOUS
 62
     3
 10
-225.0
 20
0.0
 30
0.0
 11
-485.0
 21
0.0
 31
0.0
  0
LINE
  8
OUTLINE
  6
CONTINUOUS
 62
     3
 10
-485.0
 20
0.0
 30
0.0
 11
-580.0
 21
-110.0
 31
0.0
  0
LINE
  8
OUTLINE
  6
CONTINUOUS
 62
     3
 10
-580.0
 20
-110.0
 30
0.0
 11
-580.0
 21
-181.0
 31
0.0
  0
LINE
  8
OUTLINE
  6
CONTINUOUS
 62
     3
 10
-546.0
 20
-190.0
 30
0.0
 11
-580.0
 21
-181.0
 31
0.0
  0
LINE
  8
OUTLINE
  6
CONTINUOUS
 62
     3
 10
0.0
 20
-190.0
 30
0.0
 11
-546.0
 21
-190.0
 31
0.0
  0
LINE
  8
OUTLINE
  6
CONTINUOUS
 62
     3
 10
0.0
 20
-178.0
 30
0.0
 11
0.0
 21
-190.0
 31
0.0
  0
LINE
  8
SIZE
  6
CONTINUOUS
 62
    30
 10
6.0
 20
-473.87660299999988
 30
0.0
 11
106.46419299999999
 21
-473.87660299999988
 31
0.0
  0
CIRCLE
  8
FIX
  6
CONTINUOUS
 62
    11
 10
-330.0
 20
0.0
 30
0.0
 40
5.0
  0
CIRCLE
  8
FIX
  6
CONTINUOUS
 62
    11
 10
-15.0
 20
0.0
 30
0.0
 40
5.0
  0
TEXT
  8
NOTE
  6
CONTINUOUS
 62
     4
 10
402.314257
 20
279.85366299999998
 30
0.0
 40
64.0
  1
取付金具
 41
0.9
  0
LINE
  8
NOTE
  6
CONTINUOUS
 62
     4
 10
698.88384500000029
 20
249.653368
 30
0.0
 11
382.26396699999992
 21
249.653368
 31
0.0
  0
TEXT
  8
NOTE
  6
CONTINUOUS
 62
     4
 10
-955.12974599999984
 20
385.49392999999992
 30
0.0
 40
64.0
  1
4-φ10
 41
0.9
  0
LINE
  8
NOTE
  6
CONTINUOUS
 62
     4
 10
-638.28542600000003
 20
356.87308100000001
 30
0.0
 11
-996.66707699999995
 21
356.87308100000001
 31
0.0
  0
TEXT
  8
NOTE
  6
CONTINUOUS
 62
     4
 10
-976.61678700000004
 20
264.29329299999989
 30
0.0
 40
64.0
  1
棚直付用穴
 41
0.9
  0
TEXT
  8
NOTE
  6
CONTINUOUS
 62
     4
 10
-170.64598799999979
 20
70.541340999999989
 30
0.0
 40
64.0
  1
EA
 41
0.9
  0
LINE
  8
DETAIL
  6
CONTINUOUS
 62
     5
 10
-48.0
 20
14.0
 30
0.0
 11
-48.0
 21
4.0
 31
0.0
  0
LINE
  8
DETAIL
  6
CONTINUOUS
 62
     5
 10
-202.0
 20
14.0
 30
0.0
 11
-202.0
 21
4.0
 31
0.0
  0
LINE
  8
DETAIL
  6
CONTINUOUS
 62
     5
 10
-225.0
 20
4.0
 30
0.0
 11
-225.0
 21
0.0
 31
0.0
  0
LINE
  8
DETAIL
  6
CONTINUOUS
 62
     5
 10
-202.0
 20
14.0
 30
0.0
 11
-48.0
 21
14.0
 31
0.0
  0
LINE
  8
DETAIL
  6
CONTINUOUS
 62
     5
 10
-51.0
 20
54.0
 30
0.0
 11
-51.0
 21
14.0
 31
0.0
  0
LINE
  8
DETAIL
  6
CONTINUOUS
 62
     5
 10
-199.0
 20
14.0
 30
0.0
 11
-199.0
 21
54.0
 31
0.0
  0
LINE
  8
DETAIL
  6
CONTINUOUS
 62
     5
 10
-199.0
 20
54.0
 30
0.0
 11
-51.0
 21
54.0
 31
0.0
  0
LINE
  8
DETAIL
  6
CONTINUOUS
 62
     5
 10
-225.0
 20
4.0
 30
0.0
 11
-25.0
 21
4.0
 31
0.0
  0
LINE
  8
DETAIL
  6
CONTINUOUS
 62
     5
 10
-25.0
 20
4.0
 30
0.0
 11
-25.0
 21
0.0
 31
0.0
  0
LINE
  8
SIZE
  6
CONTINUOUS
 62
    30
 10
-48.0
 20
420.40135999999961
 30
0.0
 11
263.76182999999992
 21
420.40135999999961
 31
0.0
  0
LINE
  8
SIZE
  6
CONTINUOUS
 62
    30
 10
-47.0
 20
291.39716600000008
 30
0.0
 11
263.76182999999992
 21
291.39716600000008
 31
0.0
  0
LINE
  8
SIZE
  6
CONTINUOUS
 62
    30
 10
2.0
 20
535.91595099999995
 30
0.0
 11
159.24368499999991
 21
535.91595099999995
 31
0.0
  0
LINE
  8
SIZE
  6
CONTINUOUS
 62
    30
 10
0.0
 20
167.296752
 30
0.0
 11
196.35083999999981
 21
167.296752
 31
0.0
  0
LINE
  8
SIZE
  6
CONTINUOUS
 62
    30
 10
706.83031799999981
 20
54.0
 30
0.0
 11
706.83031799999981
 21
183.85571699999991
 31
0.0
  0
LINE
  8
SIZE
  6
CONTINUOUS
 62
    30
 10
576.5379489999998
 20
54.0
 30
0.0
 11
576.5379489999998
 21
184.834205
 31
0.0
  0
LINE
  8
SIZE
  6
CONTINUOUS
 62
    30
 10
4.0
 20
-346.21626099999997
 30
0.0
 11
198.53361300000009
 21
-346.21626099999997
 31
0.0
  0
CIRCLE
  8
FIX
  6
CONTINUOUS
 62
    11
 10
6.0
 20
14.0
 30
0.0
 40
6.5
  0
LINE
  8
SIZE
  6
CONTINUOUS
 62
    30
 10
450.19327299999992
 20
-4.0
 30
0.0
 11
450.19327299999992
 21
-122.0564219999999
 31
0.0
  0
LINE
  8
SIZE
  6
CONTINUOUS
 62
    30
 10
312.54194200000012
 20
12.0
 30
0.0
 11
312.54194200000012
 21
-108.070911
 31
0.0
  0
LINE
  8
NOTE
  6
CONTINUOUS
 62
     4
 10
6.0
 20
14.0
 30
0.0
 11
382.26396699999992
 21
249.653368
 31
0.0
  0
LINE
  8
SIZE
  6
CONTINUOUS
 62
    30
 10
-578.0
 20
98.596830000000068
 30
0.0
 11
-739.13243399999999
 21
98.596830000000068
 31
0.0
  0
LINE
  8
SIZE
  6
CONTINUOUS
 62
    30
 10
26.0
 20
30.0
 30
0.0
 11
342.54194200000012
 21
30.0
 31
0.0
  0
LINE
  8
SIZE
  6
CONTINUOUS
 62
    30
 10
46.0
 20
14.0
 30
0.0
 11
342.54194200000012
 21
14.0
 31
0.0
  0
LINE
  8
SIZE
  6
CONTINUOUS
 62
    30
 10
312.54194200000012
 20
12.0
 30
0.0
 11
312.54194200000012
 21
10.0
 31
0.0
  0
LINE
  8
SIZE
  6
CONTINUOUS
 62
    30
 10
312.54194200000012
 20
32.0
 30
0.0
 11
312.54194200000012
 21
34.0
 31
0.0
  0
LINE
  8
SIZE
  6
CONTINUOUS
 62
    30
 10
312.54194200000012
 20
14.0
 30
0.0
 11
312.54194200000012
 21
30.0
 31
0.0
  0
TEXT
  8
SIZE
  6
CONTINUOUS
 62
    30
 10
280.54194200000012
 20
-103.8361139999999
 30
0.0
 40
64.0
  1
16
 50
90.0
 41
0.9
  0
LINE
  8
SIZE
  6
CONTINUOUS
 62
    30
 10
26.0
 20
30.0
 30
0.0
 11
480.19327299999992
 21
30.0
 31
0.0
  0
LINE
  8
SIZE
  6
CONTINUOUS
 62
    30
 10
25.0
 20
0.0
 30
0.0
 11
480.19327299999992
 21
0.0
 31
0.0
  0
LINE
  8
SIZE
  6
CONTINUOUS
 62
    30
 10
450.19327299999992
 20
-2.0
 30
0.0
 11
450.19327299999992
 21
-4.0
 31
0.0
  0
LINE
  8
SIZE
  6
CONTINUOUS
 62
    30
 10
450.19327299999992
 20
32.0
 30
0.0
 11
450.19327299999992
 21
34.0
 31
0.0
  0
LINE
  8
SIZE
  6
CONTINUOUS
 62
    30
 10
450.19327299999992
 20
0.0
 30
0.0
 11
450.19327299999992
 21
30.0
 31
0.0
  0
TEXT
  8
SIZE
  6
CONTINUOUS
 62
    30
 10
418.19327299999992
 20
-112.31421399999969
 30
0.0
 40
64.0
  1
30
 50
90.0
 41
0.9
  0
LINE
  8
SIZE
  6
CONTINUOUS
 62
    30
 10
-31.0
 20
54.0
 30
0.0
 11
606.53794900000003
 21
54.0
 31
0.0
  0
LINE
  8
SIZE
  6
CONTINUOUS
 62
    30
 10
-28.0
 20
14.0
 30
0.0
 11
606.53794900000003
 21
14.0
 31
0.0
  0
LINE
  8
SIZE
  6
CONTINUOUS
 62
    30
 10
576.5379489999998
 20
12.0
 30
0.0
 11
576.5379489999998
 21
10.0
 31
0.0
  0
LINE
  8
SIZE
  6
CONTINUOUS
 62
    30
 10
576.5379489999998
 20
56.0
 30
0.0
 11
576.5379489999998
 21
58.0
 31
0.0
  0
LINE
  8
SIZE
  6
CONTINUOUS
 62
    30
 10
576.5379489999998
 20
14.0
 30
0.0
 11
576.5379489999998
 21
54.0
 31
0.0
  0
TEXT
  8
SIZE
  6
CONTINUOUS
 62
    30
 10
544.53794900000003
 20
83.263227000000029
 30
0.0
 40
64.0
  1
40
 50
90.0
 41
0.9
  0
LINE
  8
SIZE
  6
CONTINUOUS
 62
    30
 10
20.0
 20
0.0
 30
0.0
 11
736.83031799999981
 21
0.0
 31
0.0
  0
LINE
  8
SIZE
  6
CONTINUOUS
 62
    30
 10
-31.0
 20
54.0
 30
0.0
 11
736.83031799999981
 21
54.0
 31
0.0
  0
LINE
  8
SIZE
  6
CONTINUOUS
 62
    30
 10
706.83031799999981
 20
56.0
 30
0.0
 11
706.83031799999981
 21
58.0
 31
0.0
  0
LINE
  8
SIZE
  6
CONTINUOUS
 62
    30
 10
706.83031799999981
 20
-2.0
 30
0.0
 11
706.83031799999981
 21
-4.0
 31
0.0
  0
LINE
  8
SIZE
  6
CONTINUOUS
 62
    30
 10
706.83031799999981
 20
54.0
 30
0.0
 11
706.83031799999981
 21
0.0
 31
0.0
  0
TEXT
  8
SIZE
  6
CONTINUOUS
 62
    30
 10
674.83031799999958
 20
81.741212000000019
 30
0.0
 40
64.0
  1
54
 50
90.0
 41
0.9
  0
LINE
  8
SIZE
  6
CONTINUOUS
 62
    30
 10
0.0
 20
-210.0
 30
0.0
 11
0.0
 21
-376.21626099999992
 31
0.0
  0
LINE
  8
SIZE
  6
CONTINUOUS
 62
    30
 10
-110.0
 20
-40.0
 30
0.0
 11
-110.0
 21
-376.21626099999992
 31
0.0
  0
LINE
  8
SIZE
  6
CONTINUOUS
 62
    30
 10
-112.0
 20
-346.21626099999997
 30
0.0
 11
-114.0
 21
-346.21626099999997
 31
0.0
  0
LINE
  8
SIZE
  6
CONTINUOUS
 62
    30
 10
2.0
 20
-346.21626099999997
 30
0.0
 11
4.0
 21
-346.21626099999997
 31
0.0
  0
LINE
  8
SIZE
  6
CONTINUOUS
 62
    30
 10
-110.0
 20
-346.21626099999997
 30
0.0
 11
0.0
 21
-346.21626099999997
 31
0.0
  0
TEXT
  8
SIZE
  6
CONTINUOUS
 62
    30
 10
47.805096000000049
 20
-314.21626099999992
 30
0.0
 40
64.0
  1
110
 41
0.9
  0
LINE
  8
SIZE
  6
CONTINUOUS
 62
    30
 10
-125.0
 20
113.8430559999999
 30
0.0
 11
-125.0
 21
197.296752
 31
0.0
  0
LINE
  8
SIZE
  6
CONTINUOUS
 62
    30
 10
0.0
 20
50.0
 30
0.0
 11
0.0
 21
197.296752
 31
0.0
  0
LINE
  8
SIZE
  6
CONTINUOUS
 62
    30
 10
2.0
 20
167.296752
 30
0.0
 11
4.0
 21
167.296752
 31
0.0
  0
LINE
  8
SIZE
  6
CONTINUOUS
 62
    30
 10
-127.0
 20
167.296752
 30
0.0
 11
-129.0
 21
167.296752
 31
0.0
  0
LINE
  8
SIZE
  6
CONTINUOUS
 62
    30
 10
0.0
 20
167.296752
 30
0.0
 11
-125.0
 21
167.296752
 31
0.0
  0
TEXT
  8
SIZE
  6
CONTINUOUS
 62
    30
 10
47.916024000000107
 20
199.296752
 30
0.0
 40
64.0
  1
125
 41
0.9
  0
LINE
  8
SIZE
  6
CONTINUOUS
 62
    30
 10
-202.0
 20
34.0
 30
0.0
 11
-202.0
 21
450.40135999999939
 31
0.0
  0
LINE
  8
SIZE
  6
CONTINUOUS
 62
    30
 10
-48.0
 20
34.0
 30
0.0
 11
-48.0
 21
450.40135999999939
 31
0.0
  0
LINE
  8
SIZE
  6
CONTINUOUS
 62
    30
 10
-46.0
 20
420.40135999999961
 30
0.0
 11
-44.0
 21
420.40135999999961
 31
0.0
  0
LINE
  8
SIZE
  6
CONTINUOUS
 62
    30
 10
-204.0
 20
420.40135999999961
 30
0.0
 11
-206.0
 21
420.40135999999961
 31
0.0
  0
LINE
  8
SIZE
  6
CONTINUOUS
 62
    30
 10
-48.0
 20
420.40135999999961
 30
0.0
 11
-202.0
 21
420.40135999999961
 31
0.0
  0
TEXT
  8
SIZE
  6
CONTINUOUS
 62
    30
 10
40.122652000000024
 20
452.40135999999978
 30
0.0
 40
64.0
  1
φ154
 41
0.9
  0
LINE
  8
SIZE
  6
CONTINUOUS
 62
    30
 10
-51.0
 20
74.0
 30
0.0
 11
-51.0
 21
321.39716600000008
 31
0.0
  0
LINE
  8
SIZE
  6
CONTINUOUS
 62
    30
 10
-199.0
 20
74.0
 30
0.0
 11
-199.0
 21
321.39716600000008
 31
0.0
  0
LINE
  8
SIZE
  6
CONTINUOUS
 62
    30
 10
-201.0
 20
291.39716600000008
 30
0.0
 11
-203.0
 21
291.39716600000008
 31
0.0
  0
LINE
  8
SIZE
  6
CONTINUOUS
 62
    30
 10
-49.0
 20
291.39716600000008
 30
0.0
 11
-47.0
 21
291.39716600000008
 31
0.0
  0
LINE
  8
SIZE
  6
CONTINUOUS
 62
    30
 10
-199.0
 20
291.39716600000008
 30
0.0
 11
-51.0
 21
291.39716600000008
 31
0.0
  0
TEXT
  8
SIZE
  6
CONTINUOUS
 62
    30
 10
41.494081000000051
 20
323.39716600000008
 30
0.0
 40
64.0
  1
φ148
 41
0.9
  0
LINE
  8
SIZE
  6
CONTINUOUS
 62
    30
 10
6.0
 20
-198.0
 30
0.0
 11
6.0
 21
-503.87660299999988
 31
0.0
  0
LINE
  8
SIZE
  6
CONTINUOUS
 62
    30
 10
0.0
 20
-210.0
 30
0.0
 11
0.0
 21
-503.87660299999988
 31
0.0
  0
LINE
  8
SIZE
  6
CONTINUOUS
 62
    30
 10
-2.0
 20
-473.87660299999988
 30
0.0
 11
-4.0
 21
-473.87660299999988
 31
0.0
  0
LINE
  8
SIZE
  6
CONTINUOUS
 62
    30
 10
8.0
 20
-473.87660299999988
 30
0.0
 11
10.0
 21
-473.87660299999988
 31
0.0
  0
LINE
  8
SIZE
  6
CONTINUOUS
 62
    30
 10
0.0
 20
-473.87660299999988
 30
0.0
 11
6.0
 21
-473.87660299999988
 31
0.0
  0
TEXT
  8
SIZE
  6
CONTINUOUS
 62
    30
 10
32.502576999999967
 20
-441.00024600000012
 30
0.0
 40
64.0
  1
6
 41
0.9
  0
LINE
  8
SIZE
  6
CONTINUOUS
 62
    30
 10
0.0
 20
-210.0
 30
0.0
 11
0.0
 21
-503.87660299999988
 31
0.0
  0
LINE
  8
SIZE
  6
CONTINUOUS
 62
    30
 10
-546.0
 20
-210.0
 30
0.0
 11
-546.0
 21
-503.87660299999988
 31
0.0
  0
LINE
  8
SIZE
  6
CONTINUOUS
 62
    30
 10
-2.0
 20
-473.87660299999988
 30
0.0
 11
-544.0
 21
-473.87660299999988
 31
0.0
  0
TEXT
  8
SIZE
  6
CONTINUOUS
 62
    30
 10
-345.68571400000002
 20
-441.87660299999988
 30
0.0
 40
64.0
  1
546
 41
0.9
  0
LINE
  8
SIZE
  6
CONTINUOUS
 62
    30
 10
-600.0
 20
-110.0
 30
0.0
 11
-798.452541
 21
-110.0
 31
0.0
  0
LINE
  8
SIZE
  6
CONTINUOUS
 62
    30
 10
-600.0
 20
-181.0
 30
0.0
 11
-798.452541
 21
-181.0
 31
0.0
  0
LINE
  8
SIZE
  6
CONTINUOUS
 62
    30
 10
-768.452541
 20
-112.0
 30
0.0
 11
-768.452541
 21
-145.5
 31
0.0
  0
LINE
  8
SIZE
  6
CONTINUOUS
 62
    30
 10
-768.452541
 20
-179.0
 30
0.0
 11
-768.452541
 21
-145.5
 31
0.0
  0
TEXT
  8
SIZE
  6
CONTINUOUS
 62
    30
 10
-800.452541
 20
-285.53626700000001
 30
0.0
 40
64.0
  1
71
 50
90.0
 41
0.9
  0
LINE
  8
SIZE
  6
CONTINUOUS
 62
    30
 10
-505.0
 20
0.0
 30
0.0
 11
-798.452541
 21
0.0
 31
0.0
  0
LINE
  8
SIZE
  6
CONTINUOUS
 62
    30
 10
-600.0
 20
-110.0
 30
0.0
 11
-798.452541
 21
-110.0
 31
0.0
  0
LINE
  8
SIZE
  6
CONTINUOUS
 62
    30
 10
-768.452541
 20
-112.0
 30
0.0
 11
-768.452541
 21
-114.0
 31
0.0
  0
LINE
  8
SIZE
  6
CONTINUOUS
 62
    30
 10
-768.452541
 20
2.0
 30
0.0
 11
-768.452541
 21
4.0
 31
0.0
  0
LINE
  8
SIZE
  6
CONTINUOUS
 62
    30
 10
-768.452541
 20
-110.0
 30
0.0
 11
-768.452541
 21
0.0
 31
0.0
  0
TEXT
  8
SIZE
  6
CONTINUOUS
 62
    30
 10
-800.452541
 20
-118.085714
 30
0.0
 40
64.0
  1
110
 50
90.0
 41
0.9
  0
LINE
  8
SIZE
  6
CONTINUOUS
 62
    30
 10
-580.0
 20
-90.0
 30
0.0
 11
-580.0
 21
128.59683000000001
 31
0.0
  0
LINE
  8
SIZE
  6
CONTINUOUS
 62
    30
 10
-485.0
 20
20.0
 30
0.0
 11
-485.0
 21
128.59683000000001
 31
0.0
  0
LINE
  8
SIZE
  6
CONTINUOUS
 62
    30
 10
-578.0
 20
98.596830000000068
 30
0.0
 11
-532.5
 21
98.596830000000068
 31
0.0
  0
LINE
  8
SIZE
  6
CONTINUOUS
 62
    30
 10
-487.0
 20
98.596830000000068
 30
0.0
 11
-532.5
 21
98.596830000000068
 31
0.0
  0
TEXT
  8
SIZE
  6
CONTINUOUS
 62
    30
 10
-713.54507799999999
 20
130.59683000000001
 30
0.0
 40
64.0
  1
95
 41
0.9
  0
LINE
  8
SIZE
  6
CONTINUOUS
 62
    30
 10
0.0
 20
50.0
 30
0.0
 11
0.0
 21
810.09572900000012
 31
0.0
  0
LINE
  8
SIZE
  6
CONTINUOUS
 62
    30
 10
-580.0
 20
-90.0
 30
0.0
 11
-580.0
 21
810.09572900000012
 31
0.0
  0
LINE
  8
SIZE
  6
CONTINUOUS
 62
    30
 10
-2.0
 20
780.09572900000012
 30
0.0
 11
-290.0
 21
780.09572900000012
 31
0.0
  0
LINE
  8
SIZE
  6
CONTINUOUS
 62
    30
 10
-578.0
 20
780.09572900000012
 30
0.0
 11
-290.0
 21
780.09572900000012
 31
0.0
  0
TEXT
  8
SIZE
  6
CONTINUOUS
 62
    30
 10
-364.057143
 20
812.09572900000012
 30
0.0
 40
64.0
  1
580
 41
0.9
  0
LINE
  8
SIZE
  6
CONTINUOUS
 62
    30
 10
-15.0
 20
40.0
 30
0.0
 11
-15.0
 21
565.91595099999995
 31
0.0
  0
LINE
  8
SIZE
  6
CONTINUOUS
 62
    30
 10
-330.0
 20
40.0
 30
0.0
 11
-330.0
 21
565.91595099999995
 31
0.0
  0
LINE
  8
SIZE
  6
CONTINUOUS
 62
    30
 10
-17.0
 20
535.91595099999995
 30
0.0
 11
-172.5
 21
535.91595099999995
 31
0.0
  0
LINE
  8
SIZE
  6
CONTINUOUS
 62
    30
 10
-328.0
 20
535.91595099999995
 30
0.0
 11
-172.5
 21
535.91595099999995
 31
0.0
  0
TEXT
  8
SIZE
  6
CONTINUOUS
 62
    30
 10
-241.07142899999999
 20
567.91595099999995
 30
0.0
 40
64.0
  1
315
 41
0.9
  0
LINE
  8
SIZE
  6
CONTINUOUS
 62
    30
 10
0.0
 20
50.0
 30
0.0
 11
0.0
 21
692.11981999999989
 31
0.0
  0
LINE
  8
SIZE
  6
CONTINUOUS
 62
    30
 10
-300.0
 20
40.0
 30
0.0
 11
-300.0
 21
692.11981999999989
 31
0.0
  0
LINE
  8
SIZE
  6
CONTINUOUS
 62
    30
 10
-2.0
 20
662.11981999999989
 30
0.0
 11
-150.0
 21
662.11981999999989
 31
0.0
  0
LINE
  8
SIZE
  6
CONTINUOUS
 62
    30
 10
-298.0
 20
662.11981999999989
 30
0.0
 11
-150.0
 21
662.11981999999989
 31
0.0
  0
TEXT
  8
SIZE
  6
CONTINUOUS
 62
    30
 10
-224.057143
 20
694.11981999999989
 30
0.0
 40
64.0
  1
300
 41
0.9
  0
LINE
  8
SIZE
  6
CONTINUOUS
 62
    30
 10
0.0
 20
50.0
 30
0.0
 11
0.0
 21
565.91595099999995
 31
0.0
  0
LINE
  8
SIZE
  6
CONTINUOUS
 62
    30
 10
-15.0
 20
40.0
 30
0.0
 11
-15.0
 21
565.91595099999995
 31
0.0
  0
LINE
  8
SIZE
  6
CONTINUOUS
 62
    30
 10
-17.0
 20
535.91595099999995
 30
0.0
 11
-19.0
 21
535.91595099999995
 31
0.0
  0
LINE
  8
SIZE
  6
CONTINUOUS
 62
    30
 10
2.0
 20
535.91595099999995
 30
0.0
 11
4.0
 21
535.91595099999995
 31
0.0
  0
LINE
  8
SIZE
  6
CONTINUOUS
 62
    30
 10
-15.0
 20
535.91595099999995
 30
0.0
 11
0.0
 21
535.91595099999995
 31
0.0
  0
TEXT
  8
SIZE
  6
CONTINUOUS
 62
    30
 10
51.764738000000079
 20
550.45231000000013
 30
0.0
 40
64.0
  1
15
 41
0.9
  0
LINE
  8
SIZE
  6
CONTINUOUS
 62
    30
 10
20.0
 20
0.0
 30
0.0
 11
736.83031799999981
 21
0.0
 31
0.0
  0
LINE
  8
SIZE
  6
CONTINUOUS
 62
    30
 10
20.0
 20
-190.0
 30
0.0
 11
736.83031799999981
 21
-190.0
 31
0.0
  0
LINE
  8
SIZE
  6
CONTINUOUS
 62
    30
 10
706.83031799999981
 20
-2.0
 30
0.0
 11
706.83031799999981
 21
-95.0
 31
0.0
  0
LINE
  8
SIZE
  6
CONTINUOUS
 62
    30
 10
706.83031799999981
 20
-188.0
 30
0.0
 11
706.83031799999981
 21
-95.0
 31
0.0
  0
TEXT
  8
SIZE
  6
CONTINUOUS
 62
    30
 10
674.83031799999958
 20
-163.57142899999991
 30
0.0
 40
64.0
  1
190
 50
90.0
 41
0.9
  0
CIRCLE
  8
SIZE
  6
CONTINUOUS
 62
    30
 10
706.83031799999981
 20
-190.0
 30
0.0
 40
6.0
  0
CIRCLE
  8
SIZE
  6
CONTINUOUS
 62
    30
 10
706.83031799999981
 20
0.0
 30
0.0
 40
6.0
  0
CIRCLE
  8
SIZE
  6
CONTINUOUS
 62
    30
 10
0.0
 20
535.91595099999995
 30
0.0
 40
6.0
  0
CIRCLE
  8
SIZE
  6
CONTINUOUS
 62
    30
 10
-15.0
 20
535.91595099999995
 30
0.0
 40
6.0
  0
CIRCLE
  8
SIZE
  6
CONTINUOUS
 62
    30
 10
-300.0
 20
662.11981999999989
 30
0.0
 40
6.0
  0
CIRCLE
  8
SIZE
  6
CONTINUOUS
 62
    30
 10
0.0
 20
662.11981999999989
 30
0.0
 40
6.0
  0
CIRCLE
  8
SIZE
  6
CONTINUOUS
 62
    30
 10
-330.0
 20
535.91595099999995
 30
0.0
 40
6.0
  0
CIRCLE
  8
SIZE
  6
CONTINUOUS
 62
    30
 10
-15.0
 20
535.91595099999995
 30
0.0
 40
6.0
  0
CIRCLE
  8
SIZE
  6
CONTINUOUS
 62
    30
 10
-580.0
 20
780.09572900000012
 30
0.0
 40
6.0
  0
CIRCLE
  8
SIZE
  6
CONTINUOUS
 62
    30
 10
0.0
 20
780.09572900000012
 30
0.0
 40
6.0
  0
CIRCLE
  8
SIZE
  6
CONTINUOUS
 62
    30
 10
-485.0
 20
98.596830000000068
 30
0.0
 40
6.0
  0
CIRCLE
  8
SIZE
  6
CONTINUOUS
 62
    30
 10
-580.0
 20
98.596830000000068
 30
0.0
 40
6.0
  0
CIRCLE
  8
SIZE
  6
CONTINUOUS
 62
    30
 10
-768.452541
 20
0.0
 30
0.0
 40
6.0
  0
CIRCLE
  8
SIZE
  6
CONTINUOUS
 62
    30
 10
-768.452541
 20
-110.0
 30
0.0
 40
6.0
  0
CIRCLE
  8
SIZE
  6
CONTINUOUS
 62
    30
 10
-768.452541
 20
-181.0
 30
0.0
 40
6.0
  0
CIRCLE
  8
SIZE
  6
CONTINUOUS
 62
    30
 10
-768.452541
 20
-110.0
 30
0.0
 40
6.0
  0
CIRCLE
  8
SIZE
  6
CONTINUOUS
 62
    30
 10
-546.0
 20
-473.87660299999988
 30
0.0
 40
6.0
  0
CIRCLE
  8
SIZE
  6
CONTINUOUS
 62
    30
 10
0.0
 20
-473.87660299999988
 30
0.0
 40
6.0
  0
CIRCLE
  8
SIZE
  6
CONTINUOUS
 62
    30
 10
6.0
 20
-473.87660299999988
 30
0.0
 40
6.0
  0
CIRCLE
  8
SIZE
  6
CONTINUOUS
 62
    30
 10
0.0
 20
-473.87660299999988
 30
0.0
 40
6.0
  0
CIRCLE
  8
SIZE
  6
CONTINUOUS
 62
    30
 10
-51.0
 20
291.39716600000008
 30
0.0
 40
6.0
  0
CIRCLE
  8
SIZE
  6
CONTINUOUS
 62
    30
 10
-199.0
 20
291.39716600000008
 30
0.0
 40
6.0
  0
CIRCLE
  8
SIZE
  6
CONTINUOUS
 62
    30
 10
-202.0
 20
420.40135999999961
 30
0.0
 40
6.0
  0
CIRCLE
  8
SIZE
  6
CONTINUOUS
 62
    30
 10
-48.0
 20
420.40135999999961
 30
0.0
 40
6.0
  0
CIRCLE
  8
SIZE
  6
CONTINUOUS
 62
    30
 10
-125.0
 20
167.296752
 30
0.0
 40
6.0
  0
CIRCLE
  8
SIZE
  6
CONTINUOUS
 62
    30
 10
0.0
 20
167.296752
 30
0.0
 40
6.0
  0
CIRCLE
  8
SIZE
  6
CONTINUOUS
 62
    30
 10
0.0
 20
-346.21626099999997
 30
0.0
 40
6.0
  0
CIRCLE
  8
SIZE
  6
CONTINUOUS
 62
    30
 10
-110.0
 20
-346.21626099999997
 30
0.0
 40
6.0
  0
CIRCLE
  8
SIZE
  6
CONTINUOUS
 62
    30
 10
706.83031799999981
 20
0.0
 30
0.0
 40
6.0
  0
CIRCLE
  8
SIZE
  6
CONTINUOUS
 62
    30
 10
706.83031799999981
 20
54.0
 30
0.0
 40
6.0
  0
CIRCLE
  8
SIZE
  6
CONTINUOUS
 62
    30
 10
576.5379489999998
 20
54.0
 30
0.0
 40
6.0
  0
CIRCLE
  8
SIZE
  6
CONTINUOUS
 62
    30
 10
576.5379489999998
 20
14.0
 30
0.0
 40
6.0
  0
CIRCLE
  8
SIZE
  6
CONTINUOUS
 62
    30
 10
450.19327299999992
 20
30.0
 30
0.0
 40
6.0
  0
CIRCLE
  8
SIZE
  6
CONTINUOUS
 62
    30
 10
450.19327299999992
 20
0.0
 30
0.0
 40
6.0
  0
CIRCLE
  8
SIZE
  6
CONTINUOUS
 62
    30
 10
312.54194200000012
 20
30.0
 30
0.0
 40
6.0
  0
CIRCLE
  8
SIZE
  6
CONTINUOUS
 62
    30
 10
312.54194200000012
 20
14.0
 30
0.0
 40
6.0
  0
LINE
  8
NOTE
  6
CONTINUOUS
 62
     4
 10
6.0
 20
-6.0
 30
0.0
 11
6.0
 21
34.0
 31
0.0
  0
LINE
  8
NOTE
  6
CONTINUOUS
 62
     4
 10
-14.0
 20
14.0
 30
0.0
 11
26.0
 21
14.0
 31
0.0
  0
LINE
  8
NOTE
  6
CONTINUOUS
 62
     4
 10
-330.0
 20
-20.0
 30
0.0
 11
-330.0
 21
20.0
 31
0.0
  0
LINE
  8
NOTE
  6
CONTINUOUS
 62
     4
 10
-350.0
 20
0.0
 30
0.0
 11
-310.0
 21
0.0
 31
0.0
  0
LINE
  8
NOTE
  6
CONTINUOUS
 62
     4
 10
-300.0
 20
-20.0
 30
0.0
 11
-300.0
 21
20.0
 31
0.0
  0
LINE
  8
NOTE
  6
CONTINUOUS
 62
     4
 10
-320.0
 20
0.0
 30
0.0
 11
-280.0
 21
0.0
 31
0.0
  0
LINE
  8
NOTE
  6
CONTINUOUS
 62
     4
 10
-110.0
 20
-20.0
 30
0.0
 11
-110.0
 21
20.0
 31
0.0
  0
LINE
  8
NOTE
  6
CONTINUOUS
 62
     4
 10
-130.0
 20
0.0
 30
0.0
 11
-90.0
 21
0.0
 31
0.0
  0
LINE
  8
NOTE
  6
CONTINUOUS
 62
     4
 10
-15.0
 20
-20.0
 30
0.0
 11
-15.0
 21
20.0
 31
0.0
  0
LINE
  8
NOTE
  6
CONTINUOUS
 62
     4
 10
-35.0
 20
0.0
 30
0.0
 11
5.0
 21
0.0
 31
0.0
  0
LINE
  8
NOTE
  6
CONTINUOUS
 62
     4
 10
-330.06766399999992
 20
26.380590999999981
 30
0.0
 11
-300.0
 21
0.0
 31
0.0
  0
LINE
  8
NOTE
  6
CONTINUOUS
 62
     4
 10
-300.0
 20
0.0
 30
0.0
 11
-312.84906499999988
 21
37.880093999999993
 31
0.0
  0
LINE
  8
NOTE
  6
CONTINUOUS
 62
     4
 10
-362.81551400000001
 20
22.872299000000002
 30
0.0
 11
-330.0
 21
0.0
 31
0.0
  0
LINE
  8
NOTE
  6
CONTINUOUS
 62
     4
 10
-330.0
 20
0.0
 30
0.0
 11
-346.98291899999998
 21
36.21574899999996
 31
0.0
  0
LINE
  8
NOTE
  6
CONTINUOUS
 62
     4
 10
-74.019873999999959
 20
-17.476570999999979
 30
0.0
 11
-110.0
 21
0.0
 31
0.0
  0
LINE
  8
NOTE
  6
CONTINUOUS
 62
     4
 10
-110.0
 20
0.0
 30
0.0
 11
-87.578581999999983
 21
-33.125217000000021
 31
0.0
  0
LINE
  8
NOTE
  6
CONTINUOUS
 62
     4
 10
32.633311000000049
 20
43.84403999999995
 30
0.0
 11
6.0
 21
14.0
 31
0.0
  0
LINE
  8
NOTE
  6
CONTINUOUS
 62
     4
 10
6.0
 20
14.0
 30
0.0
 11
43.987143999999937
 21
26.52904100000001
 31
0.0
  0
TEXT
  8
ETC
  6
CONTINUOUS
 62
    61
 10
499.84050239074168
 20
687.19709728496127
 30
0.0
 40
50.0
  1
V-36K6-BL-L-BK
 41
0.9
  0
TEXT
  8
ETC
  6
CONTINUOUS
 62
    61
 10
373.43751393357712
 20
862.62658842225414
 30
0.0
 40
64.0
  1
V-36K6-BL-L-BK_4
 41
0.9
  0
TEXT
  8
ETC
  6
CONTINUOUS
 62
    61
 10
371.229102933577
 20
761.98554242225373
 30
0.0
 40
64.0
  1
換気扇
 41
0.9
  0
LINE
  8
OUTLINE
  6
CONTINUOUS
 62
     3
 10
0.0
 20
30.0
 30
0.0
 11
0.0
 21
0.0
 31
0.0
  0
LINE
  8
OUTLINE
  6
CONTINUOUS
 62
     3
 10
6.0
 20
30.0
 30
0.0
 11
0.0
 21
30.0
 31
0.0
  0
LINE
  8
OUTLINE
  6
CONTINUOUS
 62
     3
 10
6.0
 20
30.0
 30
0.0
 11
6.0
 21
-178.0
 31
0.0
  0
LINE
  8
OUTLINE
  6
CONTINUOUS
 62
     3
 10
6.0
 20
-178.0
 30
0.0
 11
0.0
 21
-178.0
 31
0.0
  0
LINE
  8
OUTLINE
  6
CONTINUOUS
 62
     3
 10
-48.0
 20
14.0
 30
0.0
 11
-48.0
 21
4.0
 31
0.0
  0
LINE
  8
OUTLINE
  6
CONTINUOUS
 62
     3
 10
-202.0
 20
14.0
 30
0.0
 11
-202.0
 21
4.0
 31
0.0
  0
LINE
  8
OUTLINE
  6
CONTINUOUS
 62
     3
 10
-225.0
 20
4.0
 30
0.0
 11
-225.0
 21
0.0
 31
0.0
  0
LINE
  8
OUTLINE
  6
CONTINUOUS
 62
     3
 10
-202.0
 20
14.0
 30
0.0
 11
-199.0
 21
14.0
 31
0.0
  0
LINE
  8
OUTLINE
  6
CONTINUOUS
 62
     3
 10
-51.0
 20
14.0
 30
0.0
 11
-48.0
 21
14.0
 31
0.0
  0
LINE
  8
OUTLINE
  6
CONTINUOUS
 62
     3
 10
-51.0
 20
54.0
 30
0.0
 11
-51.0
 21
14.0
 31
0.0
  0
LINE
  8
OUTLINE
  6
CONTINUOUS
 62
     3
 10
-199.0
 20
14.0
 30
0.0
 11
-199.0
 21
54.0
 31
0.0
  0
LINE
  8
OUTLINE
  6
CONTINUOUS
 62
     3
 10
-199.0
 20
54.0
 30
0.0
 11
-51.0
 21
54.0
 31
0.0
  0
LINE
  8
OUTLINE
  6
CONTINUOUS
 62
     3
 10
-225.0
 20
4.0
 30
0.0
 11
-202.0
 21
4.0
 31
0.0
  0
LINE
  8
OUTLINE
  6
CONTINUOUS
 62
     3
 10
-48.0
 20
4.0
 30
0.0
 11
-25.0
 21
4.0
 31
0.0
  0
LINE
  8
OUTLINE
  6
CONTINUOUS
 62
     3
 10
-25.0
 20
4.0
 30
0.0
 11
-25.0
 21
0.0
 31
0.0
  0
ENDSEC
  0
EOF
