  0
SECTION
  2
HEADER
  9
$ACADVER
  1
AC1009
  9
$DWGCODEPAGE
  3
dos932
  9
$INSBASE
 10
0.0
 20
0.0
 30
0.0
  9
$EXTMIN
 10
-913.16984461523862
 20
-818.38988130724829
 30
-0.0000002793804338
  9
$EXTMAX
 10
1157.890331544784
 20
647.59827468963158
 30
0.0000000116489898
  9
$LIMMIN
 10
-2970.0
 20
-2100.0
  9
$LIMMAX
 10
2970.0
 20
2100.0
  9
$ORTHOMODE
 70
     1
  9
$REGENMODE
 70
     1
  9
$FILLMODE
 70
     1
  9
$QTEXTMODE
 70
     0
  9
$MIRRTEXT
 70
     0
  9
$LTSCALE
 40
20.0
  9
$ATTMODE
 70
     1
  9
$TEXTSIZE
 40
64.0
  9
$TRACEWID
 40
0.05
  9
$TEXTSTYLE
  7
STANDARD
  9
$CLAYER
  8
NOTE
  9
$CELTYPE
  6
CONTINUOUS
  9
$CECOLOR
 62
     7
  9
$DIMSCALE
 40
1.0
  9
$DIMASZ
 40
12.0
  9
$DIMEXO
 40
20.0
  9
$DIMDLI
 40
200.0
  9
$DIMRND
 40
0.0
  9
$DIMDLE
 40
0.0
  9
$DIMEXE
 40
20.0
  9
$DIMTP
 40
0.0
  9
$DIMTM
 40
0.0
  9
$DIMTXT
 40
64.0
  9
$DIMCEN
 40
0.09
  9
$DIMTSZ
 40
0.0
  9
$DIMTOL
 70
     0
  9
$DIMLIM
 70
     0
  9
$DIMTIH
 70
     0
  9
$DIMTOH
 70
     0
  9
$DIMSE1
 70
     0
  9
$DIMSE2
 70
     0
  9
$DIMTAD
 70
     1
  9
$DIMZIN
 70
     8
  9
$DIMBLK
  1

  9
$DIMASO
 70
     1
  9
$DIMSHO
 70
     0
  9
$DIMPOST
  1

  9
$DIMAPOST
  1

  9
$DIMALT
 70
     0
  9
$DIMALTD
 70
     2
  9
$DIMALTF
 40
25.399999999999999
  9
$DIMLFAC
 40
1.0
  9
$DIMTOFL
 70
     1
  9
$DIMTVP
 40
0.0
  9
$DIMTIX
 70
     1
  9
$DIMSOXD
 70
     0
  9
$DIMSAH
 70
     0
  9
$DIMBLK1
  1

  9
$DIMBLK2
  1

  9
$DIMSTYLE
  2
STANDARD
  9
$DIMCLRD
 70
     7
  9
$DIMCLRE
 70
     7
  9
$DIMCLRT
 70
     7
  9
$DIMTFAC
 40
1.0
  9
$DIMGAP
 40
25.0
  9
$LUNITS
 70
     2
  9
$LUPREC
 70
     4
  9
$SKETCHINC
 40
0.1
  9
$FILLETRAD
 40
3.0
  9
$AUNITS
 70
     1
  9
$AUPREC
 70
     3
  9
$MENU
  1
ACAD
  9
$ELEVATION
 40
0.0
  9
$PELEVATION
 40
0.0
  9
$THICKNESS
 40
50.0
  9
$LIMCHECK
 70
     0
  9
$CHAMFERA
 40
0.0
  9
$CHAMFERB
 40
0.0
  9
$SKPOLY
 70
     0
  9
$TDCREATE
 40
2453019.62301037
  9
$TDUPDATE
 40
2458887.735364607
  9
$TDINDWG
 40
1.7146376505
  9
$TDUSRTIMER
 40
1.7146376505
  9
$USRTIMER
 70
     1
  9
$ANGBASE
 50
0.0
  9
$ANGDIR
 70
     0
  9
$PDMODE
 70
     3
  9
$PDSIZE
 40
-2.0
  9
$PLINEWID
 40
0.0
  9
$SPLFRAME
 70
     0
  9
$SPLINETYPE
 70
     6
  9
$SPLINESEGS
 70
     8
  9
$SURFTAB1
 70
     6
  9
$SURFTAB2
 70
     6
  9
$SURFTYPE
 70
     6
  9
$SURFU
 70
     6
  9
$SURFV
 70
     6
  9
$UCSNAME
  2

  9
$UCSORG
 10
0.0
 20
0.0
 30
0.0
  9
$UCSXDIR
 10
1.0
 20
0.0
 30
0.0
  9
$UCSYDIR
 10
0.0
 20
1.0
 30
0.0
  9
$PUCSNAME
  2

  9
$PUCSORG
 10
0.0
 20
0.0
 30
0.0
  9
$PUCSXDIR
 10
1.0
 20
0.0
 30
0.0
  9
$PUCSYDIR
 10
0.0
 20
1.0
 30
0.0
  9
$USERI1
 70
     0
  9
$USERI2
 70
     0
  9
$USERI3
 70
     0
  9
$USERI4
 70
     0
  9
$USERI5
 70
     0
  9
$USERR1
 40
20.0
  9
$USERR2
 40
0.0
  9
$USERR3
 40
0.0
  9
$USERR4
 40
0.0
  9
$USERR5
 40
0.0
  9
$WORLDVIEW
 70
     1
  9
$SHADEDGE
 70
     3
  9
$SHADEDIF
 70
    70
  9
$TILEMODE
 70
     1
  9
$MAXACTVP
 70
    48
  9
$PINSBASE
 10
0.0
 20
0.0
 30
0.0
  9
$PLIMCHECK
 70
     0
  9
$PEXTMIN
 10
-100000000000000000000.0
 20
-100000000000000000000.0
 30
-100000000000000000000.0
  9
$PEXTMAX
 10
100000000000000000000.0
 20
100000000000000000000.0
 30
100000000000000000000.0
  9
$PLIMMIN
 10
0.0
 20
0.0
  9
$PLIMMAX
 10
12.0
 20
9.0
  9
$UNITMODE
 70
     0
  9
$VISRETAIN
 70
     0
  9
$PLINEGEN
 70
     0
  9
$PSLTSCALE
 70
     0
  9
$TREEDEPTH
 70
  3020
  9
$ATTDIA
 70
     0
  9
$ATTREQ
 70
     1
  9
$BLIPMODE
 70
     1
  9
$COORDS
 70
     1
  9
$DRAGMODE
 70
     2
  9
$OSMODE
 70
     0
  9
$HANDLING
 70
     0
  9
$HANDSEED
  5
E821
  0
ENDSEC
  0
SECTION
  2
TABLES
  0
TABLE
  2
LTYPE
 70
     2
  0
LTYPE
  2
CONTINUOUS
 70
     0
  3
実線
 72
    65
 73
     0
 40
0.0
  0
LTYPE
  2
DASHDOT
 70
     0
  3
____ _ ____ _ ____ _ ____ _ ____ _ ____ _ ____
 72
    65
 73
     4
 40
5.5
 49
4.0
 49
-0.6
 49
0.3
 49
-0.6
  0
ENDTAB
  0
TABLE
  2
LAYER
 70
    12
  0
LAYER
  2
0
 70
     0
 62
     7
  6
CONTINUOUS
  0
LAYER
  2
BASIS
 70
     0
 62
     6
  6
DASHDOT
  0
LAYER
  2
OUTLINE
 70
     0
 62
     3
  6
CONTINUOUS
  0
LAYER
  2
DETAIL
 70
     0
 62
     5
  6
CONTINUOUS
  0
LAYER
  2
SIZE
 70
     0
 62
    30
  6
CONTINUOUS
  0
LAYER
  2
ARRANGE
 70
     0
 62
     1
  6
CONTINUOUS
  0
LAYER
  2
ETC
 70
     0
 62
    61
  6
CONTINUOUS
  0
LAYER
  2
FIX
 70
     0
 62
    11
  6
CONTINUOUS
  0
LAYER
  2
NOTE
 70
     0
 62
     4
  6
CONTINUOUS
  0
LAYER
  2
DEFPOINTS
 70
    64
 62
     7
  6
CONTINUOUS
  0
LAYER
  2
SERVICESPACE
 70
    64
 62
     2
  6
DASHDOT
  0
LAYER
  2
SYMBOLLINE
 70
    64
 62
    15
  6
CONTINUOUS
  0
ENDTAB
  0
TABLE
  2
STYLE
 70
     1
  0
STYLE
  2
STANDARD
 70
     0
 40
64.0
 41
0.9
 50
0.0
 71
     0
 42
64.0
  3
SIMPLEX.shx
  4
BIGFONT.shx
  0
ENDTAB
  0
TABLE
  2
APPID
 70
    17
  0
APPID
  2
ACAD
 70
     0
  0
APPID
  2
AUTOCAD_POSTSCRIPT_FIGURE
 70
     0
  0
APPID
  2
ACAD_EXEMPT_FROM_CAD_STANDARDS
 70
     0
  0
APPID
  2
ACAD_PSEXT
 70
     0
  0
APPID
  2
ACAUTHENVIRON
 70
     0
  0
APPID
  2
GENIUS_GENOENT_13
 70
     0
  0
APPID
  2
GENIUS_GENCFG_13
 70
     0
  0
APPID
  2
GENIUS_GENCFG0_13
 70
     0
  0
APPID
  2
GENIUS_GENCFG1_13
 70
     0
  0
APPID
  2
GENIUS_GENCFG2_13
 70
     0
  0
APPID
  2
GENIUS_GENCFG3_13
 70
     0
  0
APPID
  2
GENIUS_GENCFG4_13
 70
     0
  0
APPID
  2
GENIUS_GEVCFG0_13
 70
     0
  0
APPID
  2
CONTENTBLOCKICON
 70
     0
  0
APPID
  2
CONTENTBLOCKDESCRIPTION
 70
     0
  0
APPID
  2
ACAD_NAV_VCDISPLAY
 70
     0
  0
APPID
  2
ACAD_MLEADERVER
 70
     0
  0
ENDTAB
  0
TABLE
  2
DIMSTYLE
 70
     1
  0
DIMSTYLE
  2
STANDARD
 70
     0
  3

  4

  5
_ORIGIN
  6

  7

 40
1.0
 41
12.0
 42
20.0
 43
200.0
 44
20.0
 45
0.0
 46
0.0
 47
0.0
 48
0.0
140
64.0
141
0.09
142
0.0
143
25.399999999999999
144
1.0
145
0.0
146
1.0
147
25.0
 71
     0
 72
     0
 73
     0
 74
     0
 75
     0
 76
     0
 77
     1
 78
     8
170
     0
171
     2
172
     1
173
     0
174
     1
175
     0
176
     7
177
     7
178
     7
  0
ENDTAB
  0
TABLE
  2
VIEW
 70
     1
  0
VIEW
  2
ALL
 70
     0
 40
4282.6198079999986
 10
0.0
 20
41.309904000000003
 41
5940.0
 11
0.0
 21
0.0
 31
1.0
 12
0.0
 22
0.0
 32
0.0
 42
50.0
 43
0.0
 44
0.0
 50
0.0
 71
     0
  0
ENDTAB
  0
TABLE
  2
UCS
 70
     0
  0
ENDTAB
  0
TABLE
  2
VPORT
 70
     1
  0
VPORT
  2
*ACTIVE
 70
     0
 10
0.0
 20
0.0
 11
1.0
 21
1.0
 12
122.36024346477291
 22
-85.395803308808354
 13
0.0
 23
0.0
 14
1.0
 24
1.0
 15
0.0
 25
0.0
 16
0.0
 26
0.0
 36
1.0
 17
0.0
 27
0.0
 37
0.0
 40
1475.074859443142
 41
1.6339193381592549
 42
50.0
 43
0.0
 44
0.0
 50
0.0
 51
0.0
 71
     0
 72
  1000
 73
     1
 74
     3
 75
     0
 76
     0
 77
     0
 78
     0
  0
ENDTAB
  0
ENDSEC
  0
SECTION
  2
BLOCKS
  0
BLOCK
  8
0
  2
_ORIGIN
 70
     0
 10
0.0
 20
0.0
 30
0.0
  3
_ORIGIN
  1
_ORIGIN
  0
CIRCLE
  8
0
  6
CONTINUOUS
 62
     7
 10
0.0
 20
0.0
 30
0.0
 40
0.5
  0
LINE
  8
0
  6
CONTINUOUS
 62
     7
 10
0.0
 20
0.0
 30
0.0
 11
-1.0
 21
0.0
 31
0.0
  0
ENDBLK
  8
0
  0
ENDSEC
  0
SECTION
  2
ENTITIES
  0
LINE
  8
BASIS
  6
DASHDOT
 62
     6
 10
0.0
 20
-271.81433799999962
 30
0.0
 11
0.0
 21
117.584557
 31
0.0
  0
LINE
  8
DETAIL
  6
CONTINUOUS
 62
     5
 10
300.0
 20
-190.0
 30
0.0
 11
-300.0
 21
-190.0
 31
0.0
  0
LINE
  8
DETAIL
  6
CONTINUOUS
 62
     5
 10
-300.0
 20
0.0
 30
0.0
 11
-300.0
 21
-190.0
 31
0.0
  0
LINE
  8
DETAIL
  6
CONTINUOUS
 62
     5
 10
300.0
 20
0.0
 30
0.0
 11
300.0
 21
-190.0
 31
0.0
  0
LINE
  8
DETAIL
  6
CONTINUOUS
 62
     5
 10
-260.0
 20
0.0
 30
0.0
 11
-260.0
 21
30.0
 31
0.0
  0
LINE
  8
DETAIL
  6
CONTINUOUS
 62
     5
 10
-249.0
 20
30.0
 30
0.0
 11
-260.0
 21
30.0
 31
0.0
  0
LINE
  8
DETAIL
  6
CONTINUOUS
 62
     5
 10
300.0
 20
0.0
 30
0.0
 11
-300.0
 21
0.0
 31
0.0
  0
LINE
  8
BASIS
  6
DASHDOT
 62
     6
 10
-175.0
 20
-66.968786000000023
 30
0.0
 11
-175.0
 21
107.029687
 31
0.0
  0
LINE
  8
DETAIL
  6
CONTINUOUS
 62
     5
 10
-101.0
 20
54.0
 30
0.0
 11
-249.0
 21
54.0
 31
0.0
  0
LINE
  8
DETAIL
  6
CONTINUOUS
 62
     5
 10
-101.0
 20
14.0
 30
0.0
 11
-101.0
 21
54.0
 31
0.0
  0
LINE
  8
DETAIL
  6
CONTINUOUS
 62
     5
 10
-249.0
 20
54.0
 30
0.0
 11
-249.0
 21
14.0
 31
0.0
  0
LINE
  8
DETAIL
  6
CONTINUOUS
 62
     5
 10
-252.49999999999989
 20
0.0
 30
0.0
 11
-252.49999999999989
 21
7.741991999999982
 31
0.0
  0
LINE
  8
SIZE
  6
CONTINUOUS
 62
    30
 10
585.6639277883346
 20
30.0
 30
0.0
 11
585.6639277883346
 21
153.84017199999991
 31
0.0
  0
LINE
  8
NOTE
  6
CONTINUOUS
 62
     4
 10
0.0
 20
0.0
 30
0.0
 11
74.70602800000006
 21
207.20153999999999
 31
0.0
  0
LINE
  8
NOTE
  6
CONTINUOUS
 62
     4
 10
74.70602800000006
 20
207.20153999999999
 30
0.0
 11
220.21455700000001
 21
207.20153999999999
 31
0.0
  0
LINE
  8
NOTE
  6
CONTINUOUS
 62
     4
 10
250.0
 20
16.0
 30
0.0
 11
336.90519699999999
 21
231.73696099999981
 31
0.0
  0
TEXT
  8
NOTE
  6
CONTINUOUS
 62
     4
 10
111.02536057142829
 20
231.242716
 30
0.0
 40
64.0
  1
EL
 41
0.9
  0
LINE
  8
NOTE
  6
CONTINUOUS
 62
     4
 10
260.0
 20
0.0
 30
0.0
 11
388.05030399999993
 21
-436.30059999999992
 31
0.0
  0
LINE
  8
NOTE
  6
CONTINUOUS
 62
     4
 10
388.05030399999993
 20
-436.30059999999992
 30
0.0
 11
859.43801299999996
 21
-436.30059999999992
 31
0.0
  0
TEXT
  8
NOTE
  6
CONTINUOUS
 62
     4
 10
394.01021885714272
 20
-407.78593000000001
 30
0.0
 40
64.0
  1
AH 2-φ13
 41
0.9
  0
CIRCLE
  8
FIX
  6
CONTINUOUS
 62
    11
 10
260.0
 20
0.0
 30
0.0
 40
6.5
  0
CIRCLE
  8
FIX
  6
CONTINUOUS
 62
    11
 10
-260.0
 20
0.0
 30
0.0
 40
6.5
  0
LINE
  8
DETAIL
  6
CONTINUOUS
 62
     5
 10
272.0
 20
-110.0
 30
0.0
 11
-272.0
 21
-110.0
 31
0.0
  0
LINE
  8
DETAIL
  6
CONTINUOUS
 62
     5
 10
272.0
 20
-181.0
 30
0.0
 11
-272.0
 21
-181.0
 31
0.0
  0
LINE
  8
SIZE
  6
CONTINUOUS
 62
    30
 10
722.31474978833467
 20
-179.0
 30
0.0
 11
722.31474978833467
 21
-305.08647599999989
 31
0.0
  0
LINE
  8
NOTE
  6
CONTINUOUS
 62
     4
 10
-775.24969899999985
 20
-314.51422300000002
 30
0.0
 11
-415.78406999999987
 21
-314.51422300000002
 31
0.0
  0
TEXT
  8
NOTE
  6
CONTINUOUS
 62
     4
 10
-734.89854385714284
 20
-285.89337499999971
 30
0.0
 40
64.0
  1
4-φ10
 41
0.9
  0
TEXT
  8
NOTE
  6
CONTINUOUS
 62
     4
 10
-766.07435899999984
 20
-407.09401199999991
 30
0.0
 40
64.0
  1
棚直付用穴
 41
0.9
  0
TEXT
  8
NOTE
  6
CONTINUOUS
 62
     4
 10
372.35478499999999
 20
261.93725699999982
 30
0.0
 40
64.0
  1
取付金具
 41
0.9
  0
LINE
  8
NOTE
  6
CONTINUOUS
 62
     4
 10
336.90519699999999
 20
231.73696099999981
 30
0.0
 11
653.52507500000002
 21
231.73696099999981
 31
0.0
  0
LINE
  8
DETAIL
  6
CONTINUOUS
 62
     5
 10
272.0
 20
0.0
 30
0.0
 11
272.0
 21
-190.0
 31
0.0
  0
LINE
  8
DETAIL
  6
CONTINUOUS
 62
     5
 10
-272.0
 20
0.0
 30
0.0
 11
-272.0
 21
-190.0
 31
0.0
  0
LINE
  8
DETAIL
  6
CONTINUOUS
 62
     5
 10
-98.0
 20
14.0
 30
0.0
 11
-252.0
 21
14.0
 31
0.0
  0
LINE
  8
DETAIL
  6
CONTINUOUS
 62
     5
 10
-75.0
 20
4.0
 30
0.0
 11
-275.0
 21
4.0
 31
0.0
  0
LINE
  8
DETAIL
  6
CONTINUOUS
 62
     5
 10
-75.0
 20
4.0
 30
0.0
 11
-75.0
 21
0.0
 31
0.0
  0
LINE
  8
DETAIL
  6
CONTINUOUS
 62
     5
 10
-275.0
 20
4.0
 30
0.0
 11
-275.0
 21
0.0
 31
0.0
  0
CIRCLE
  8
FIX
  6
CONTINUOUS
 62
    11
 10
-250.0
 20
16.0
 30
0.0
 40
6.5
  0
LINE
  8
DETAIL
  6
CONTINUOUS
 62
     5
 10
-98.0
 20
14.0
 30
0.0
 11
-98.0
 21
4.0
 31
0.0
  0
LINE
  8
DETAIL
  6
CONTINUOUS
 62
     5
 10
-252.0
 20
14.0
 30
0.0
 11
-252.0
 21
4.0
 31
0.0
  0
CIRCLE
  8
FIX
  6
CONTINUOUS
 62
    11
 10
250.0
 20
16.0
 30
0.0
 40
6.5
  0
LINE
  8
DETAIL
  6
CONTINUOUS
 62
     5
 10
247.5
 20
0.0
 30
0.0
 11
247.5
 21
7.741991999999982
 31
0.0
  0
LINE
  8
DETAIL
  6
CONTINUOUS
 62
     5
 10
252.5
 20
0.0
 30
0.0
 11
252.5
 21
7.741991999999982
 31
0.0
  0
LINE
  8
DETAIL
  6
CONTINUOUS
 62
     5
 10
240.0
 20
30.0
 30
0.0
 11
260.0
 21
30.0
 31
0.0
  0
LINE
  8
DETAIL
  6
CONTINUOUS
 62
     5
 10
260.0
 20
0.0
 30
0.0
 11
260.0
 21
30.0
 31
0.0
  0
LINE
  8
DETAIL
  6
CONTINUOUS
 62
     5
 10
240.0
 20
0.0
 30
0.0
 11
240.0
 21
30.0
 31
0.0
  0
CIRCLE
  8
FIX
  6
CONTINUOUS
 62
    11
 10
250.0
 20
0.0
 30
0.0
 40
5.0
  0
CIRCLE
  8
FIX
  6
CONTINUOUS
 62
    11
 10
-250.0
 20
0.0
 30
0.0
 40
5.0
  0
LINE
  8
SIZE
  6
CONTINUOUS
 62
    30
 10
-253.0
 20
204.0789649999999
 30
0.0
 11
-492.97705199999979
 21
204.0789649999999
 31
0.0
  0
LINE
  8
SIZE
  6
CONTINUOUS
 62
    30
 10
-252.0
 20
333.0831589999998
 30
0.0
 11
-488.83612900000003
 21
333.0831589999998
 31
0.0
  0
LINE
  8
SIZE
  6
CONTINUOUS
 62
    30
 10
447.8158107883346
 20
16.0
 30
0.0
 11
447.8158107883346
 21
152.24389099999979
 31
0.0
  0
LINE
  8
SIZE
  6
CONTINUOUS
 62
    30
 10
722.31474978833467
 20
0.0
 30
0.0
 11
722.31474978833467
 21
169.51310899999979
 31
0.0
  0
LINE
  8
SIZE
  6
CONTINUOUS
 62
    30
 10
-823.91279899999984
 20
54.0
 30
0.0
 11
-823.91279899999984
 21
188.86898799999989
 31
0.0
  0
LINE
  8
SIZE
  6
CONTINUOUS
 62
    30
 10
-695.78838900000017
 20
54.0
 30
0.0
 11
-695.78838900000017
 21
190.21016299999999
 31
0.0
  0
LINE
  8
NOTE
  6
CONTINUOUS
 62
     4
 10
-250.0
 20
0.0
 30
0.0
 11
-415.78406999999987
 21
-314.51422300000002
 31
0.0
  0
TEXT
  8
NOTE
  6
CONTINUOUS
 62
     4
 10
-229.45072300000001
 20
70.541340999999989
 30
0.0
 40
64.0
  1
EA
 41
0.9
  0
LINE
  8
SIZE
  6
CONTINUOUS
 62
    30
 10
-320.0
 20
0.0
 30
0.0
 11
-853.91279899999984
 21
0.0
 31
0.0
  0
LINE
  8
SIZE
  6
CONTINUOUS
 62
    30
 10
-320.0
 20
-190.0
 30
0.0
 11
-853.91279899999984
 21
-190.0
 31
0.0
  0
LINE
  8
SIZE
  6
CONTINUOUS
 62
    30
 10
-823.91279899999984
 20
-2.0
 30
0.0
 11
-823.91279899999984
 21
-188.0
 31
0.0
  0
TEXT
  8
SIZE
  6
CONTINUOUS
 62
    30
 10
-848.91955730845416
 20
-163.57142899999991
 30
0.0
 40
64.0
  1
190
 50
90.0
 41
0.9
  0
LINE
  8
SIZE
  6
CONTINUOUS
 62
    30
 10
-250.0
 20
56.0
 30
0.0
 11
-250.0
 21
441.73843799999992
 31
0.0
  0
LINE
  8
SIZE
  6
CONTINUOUS
 62
    30
 10
250.0
 20
63.0
 30
0.0
 11
250.0
 21
441.73843799999992
 31
0.0
  0
LINE
  8
SIZE
  6
CONTINUOUS
 62
    30
 10
-248.0
 20
411.73843799999992
 30
0.0
 11
248.0
 21
411.73843799999992
 31
0.0
  0
TEXT
  8
SIZE
  6
CONTINUOUS
 62
    30
 10
-74.057142714285646
 20
443.73843799999992
 30
0.0
 40
64.0
  1
500
 41
0.9
  0
LINE
  8
SIZE
  6
CONTINUOUS
 62
    30
 10
-98.0
 20
34.0
 30
0.0
 11
-98.0
 21
363.0831589999998
 31
0.0
  0
LINE
  8
SIZE
  6
CONTINUOUS
 62
    30
 10
-252.0
 20
34.0
 30
0.0
 11
-252.0
 21
363.0831589999998
 31
0.0
  0
LINE
  8
SIZE
  6
CONTINUOUS
 62
    30
 10
-254.0
 20
333.0831589999998
 30
0.0
 11
-256.0
 21
333.0831589999998
 31
0.0
  0
LINE
  8
SIZE
  6
CONTINUOUS
 62
    30
 10
-96.0
 20
333.0831589999998
 30
0.0
 11
-94.0
 21
333.0831589999998
 31
0.0
  0
LINE
  8
SIZE
  6
CONTINUOUS
 62
    30
 10
-252.0
 20
333.0831589999998
 30
0.0
 11
-98.0
 21
333.0831589999998
 31
0.0
  0
TEXT
  8
SIZE
  6
CONTINUOUS
 62
    30
 10
-474.57766728571403
 20
365.0831589999998
 30
0.0
 40
64.0
  1
φ154
 41
0.9
  0
LINE
  8
SIZE
  6
CONTINUOUS
 62
    30
 10
-249.0
 20
74.0
 30
0.0
 11
-249.0
 21
234.0789649999999
 31
0.0
  0
LINE
  8
SIZE
  6
CONTINUOUS
 62
    30
 10
-101.0
 20
74.0
 30
0.0
 11
-101.0
 21
234.0789649999999
 31
0.0
  0
LINE
  8
SIZE
  6
CONTINUOUS
 62
    30
 10
-99.0
 20
204.0789649999999
 30
0.0
 11
-97.0
 21
204.0789649999999
 31
0.0
  0
LINE
  8
SIZE
  6
CONTINUOUS
 62
    30
 10
-251.0
 20
204.0789649999999
 30
0.0
 11
-253.0
 21
204.0789649999999
 31
0.0
  0
LINE
  8
SIZE
  6
CONTINUOUS
 62
    30
 10
-101.0
 20
204.0789649999999
 30
0.0
 11
-249.0
 21
204.0789649999999
 31
0.0
  0
TEXT
  8
SIZE
  6
CONTINUOUS
 62
    30
 10
-473.20623814285722
 20
236.0789649999999
 30
0.0
 40
64.0
  1
φ148
 41
0.9
  0
LINE
  8
SIZE
  6
CONTINUOUS
 62
    30
 10
-270.97504600000002
 20
14.0
 30
0.0
 11
-725.78838899999982
 21
14.0
 31
0.0
  0
LINE
  8
SIZE
  6
CONTINUOUS
 62
    30
 10
-268.97504600000002
 20
54.0
 30
0.0
 11
-725.78838899999982
 21
54.0
 31
0.0
  0
LINE
  8
SIZE
  6
CONTINUOUS
 62
    30
 10
-695.78838900000017
 20
56.0
 30
0.0
 11
-695.78838900000017
 21
58.0
 31
0.0
  0
LINE
  8
SIZE
  6
CONTINUOUS
 62
    30
 10
-695.78838900000017
 20
12.0
 30
0.0
 11
-695.78838900000017
 21
10.0
 31
0.0
  0
LINE
  8
SIZE
  6
CONTINUOUS
 62
    30
 10
-695.78838900000017
 20
54.0
 30
0.0
 11
-695.78838900000017
 21
14.0
 31
0.0
  0
TEXT
  8
SIZE
  6
CONTINUOUS
 62
    30
 10
-717.71669028259385
 20
83.936005000000023
 30
0.0
 40
64.0
  1
40
 50
90.0
 41
0.9
  0
LINE
  8
SIZE
  6
CONTINUOUS
 62
    30
 10
-318.97504600000002
 20
0.0
 30
0.0
 11
-853.91279899999984
 21
0.0
 31
0.0
  0
LINE
  8
SIZE
  6
CONTINUOUS
 62
    30
 10
-268.97504600000002
 20
54.0
 30
0.0
 11
-853.91279899999984
 21
54.0
 31
0.0
  0
LINE
  8
SIZE
  6
CONTINUOUS
 62
    30
 10
-823.91279899999984
 20
56.0
 30
0.0
 11
-823.91279899999984
 21
58.0
 31
0.0
  0
LINE
  8
SIZE
  6
CONTINUOUS
 62
    30
 10
-823.91279899999984
 20
-2.0
 30
0.0
 11
-823.91279899999984
 21
-4.0
 31
0.0
  0
LINE
  8
SIZE
  6
CONTINUOUS
 62
    30
 10
-823.91279899999984
 20
54.0
 30
0.0
 11
-823.91279899999984
 21
0.0
 31
0.0
  0
TEXT
  8
SIZE
  6
CONTINUOUS
 62
    30
 10
-845.71948356475934
 20
88.976323999999977
 30
0.0
 40
64.0
  1
54
 50
90.0
 41
0.9
  0
LINE
  8
SIZE
  6
CONTINUOUS
 62
    30
 10
-260.0
 20
-40.0
 30
0.0
 11
-260.0
 21
-693.366271881633
 31
0.0
  0
LINE
  8
SIZE
  6
CONTINUOUS
 62
    30
 10
260.0
 20
-40.0
 30
0.0
 11
260.0
 21
-694.96528429528109
 31
0.0
  0
LINE
  8
SIZE
  6
CONTINUOUS
 62
    30
 10
-258.0
 20
-669.69341056869723
 30
0.0
 11
258.0
 21
-669.69341056869723
 31
0.0
  0
TEXT
  8
SIZE
  6
CONTINUOUS
 62
    30
 10
-74.057142714285646
 20
-637.69341056869735
 30
0.0
 40
64.0
  1
520
 41
0.9
  0
LINE
  8
SIZE
  6
CONTINUOUS
 62
    30
 10
320.0
 20
-110.0
 30
0.0
 11
757.5155218525706
 21
-110.0
 31
0.0
  0
LINE
  8
SIZE
  6
CONTINUOUS
 62
    30
 10
320.0
 20
-181.0
 30
0.0
 11
763.91566151667939
 21
-181.0
 31
0.0
  0
LINE
  8
SIZE
  6
CONTINUOUS
 62
    30
 10
722.31474978833467
 20
-112.0
 30
0.0
 11
722.31474978833467
 21
-145.5
 31
0.0
  0
LINE
  8
SIZE
  6
CONTINUOUS
 62
    30
 10
722.31474978833467
 20
-179.0
 30
0.0
 11
722.31474978833467
 21
-145.5
 31
0.0
  0
TEXT
  8
SIZE
  6
CONTINUOUS
 62
    30
 10
696.71419113190314
 20
-273.39647799999989
 30
0.0
 40
64.0
  1
71
 50
90.0
 41
0.9
  0
LINE
  8
SIZE
  6
CONTINUOUS
 62
    30
 10
320.0
 20
0.0
 30
0.0
 11
760.7155877729856
 21
0.0
 31
0.0
  0
LINE
  8
SIZE
  6
CONTINUOUS
 62
    30
 10
320.0
 20
-110.0
 30
0.0
 11
646.97636199999988
 21
-110.0
 31
0.0
  0
LINE
  8
SIZE
  6
CONTINUOUS
 62
    30
 10
722.31474978833467
 20
-112.0
 30
0.0
 11
722.31474978833467
 21
-114.0
 31
0.0
  0
LINE
  8
SIZE
  6
CONTINUOUS
 62
    30
 10
722.31474978833467
 20
2.0
 30
0.0
 11
722.31474978833467
 21
4.0
 31
0.0
  0
LINE
  8
SIZE
  6
CONTINUOUS
 62
    30
 10
722.31474978833467
 20
-110.0
 30
0.0
 11
722.31474978833467
 21
0.0
 31
0.0
  0
TEXT
  8
SIZE
  6
CONTINUOUS
 62
    30
 10
696.71419113190314
 20
35.131223999999968
 30
0.0
 40
64.0
  1
110
 50
90.0
 41
0.9
  0
LINE
  8
SIZE
  6
CONTINUOUS
 62
    30
 10
320.0
 20
0.0
 30
0.0
 11
510.32553999999999
 21
0.0
 31
0.0
  0
LINE
  8
SIZE
  6
CONTINUOUS
 62
    30
 10
280.0
 20
30.0
 30
0.0
 11
623.11258108301627
 21
30.0
 31
0.0
  0
LINE
  8
SIZE
  6
CONTINUOUS
 62
    30
 10
585.6639277883346
 20
32.0
 30
0.0
 11
585.6639277883346
 21
34.0
 31
0.0
  0
LINE
  8
SIZE
  6
CONTINUOUS
 62
    30
 10
585.6639277883346
 20
-2.0
 30
0.0
 11
585.6639277883346
 21
-4.0
 31
0.0
  0
LINE
  8
SIZE
  6
CONTINUOUS
 62
    30
 10
585.6639277883346
 20
30.0
 30
0.0
 11
585.6639277883346
 21
0.0
 31
0.0
  0
TEXT
  8
SIZE
  6
CONTINUOUS
 62
    30
 10
562.31125818562759
 20
51.217175999999988
 30
0.0
 40
64.0
  1
30
 50
90.0
 41
0.9
  0
LINE
  8
SIZE
  6
CONTINUOUS
 62
    30
 10
320.0
 20
0.0
 30
0.0
 11
372.47742299999982
 21
0.0
 31
0.0
  0
LINE
  8
SIZE
  6
CONTINUOUS
 62
    30
 10
276.36259199999989
 20
16.0
 30
0.0
 11
482.30950847263381
 21
16.0
 31
0.0
  0
LINE
  8
SIZE
  6
CONTINUOUS
 62
    30
 10
447.8158107883346
 20
18.0
 30
0.0
 11
447.8158107883346
 21
20.0
 31
0.0
  0
LINE
  8
SIZE
  6
CONTINUOUS
 62
    30
 10
447.8158107883346
 20
-2.0
 30
0.0
 11
447.8158107883346
 21
-4.0
 31
0.0
  0
LINE
  8
SIZE
  6
CONTINUOUS
 62
    30
 10
447.8158107883346
 20
16.0
 30
0.0
 11
447.8158107883346
 21
0.0
 31
0.0
  0
TEXT
  8
SIZE
  6
CONTINUOUS
 62
    30
 10
421.50818557524491
 20
54.866723999999977
 30
0.0
 40
64.0
  1
16
 50
90.0
 41
0.9
  0
LINE
  8
SIZE
  6
CONTINUOUS
 62
    30
 10
300.0
 20
-210.0
 30
0.0
 11
300.0
 21
-818.08936660139079
 31
0.0
  0
LINE
  8
SIZE
  6
CONTINUOUS
 62
    30
 10
-300.0
 20
-210.0
 30
0.0
 11
-300.0
 21
-814.8913370905675
 31
0.0
  0
LINE
  8
SIZE
  6
CONTINUOUS
 62
    30
 10
298.0
 20
-793.18904756869722
 30
0.0
 11
0.0
 21
-793.18904756869722
 31
0.0
  0
LINE
  8
SIZE
  6
CONTINUOUS
 62
    30
 10
-298.0
 20
-793.18904756869722
 30
0.0
 11
0.0
 21
-793.18904756869722
 31
0.0
  0
TEXT
  8
SIZE
  6
CONTINUOUS
 62
    30
 10
-74.057142714285646
 20
-761.18904756869722
 30
0.0
 40
64.0
  1
600
 41
0.9
  0
LINE
  8
SIZE
  6
CONTINUOUS
 62
    30
 10
250.0
 20
-27.0
 30
0.0
 11
250.0
 21
-557.45008089928797
 31
0.0
  0
LINE
  8
SIZE
  6
CONTINUOUS
 62
    30
 10
-250.0
 20
-27.0
 30
0.0
 11
-250.0
 21
-559.04909331293584
 31
0.0
  0
LINE
  8
SIZE
  6
CONTINUOUS
 62
    30
 10
248.0
 20
-535.77439656869728
 30
0.0
 11
0.0
 21
-535.77439656869728
 31
0.0
  0
LINE
  8
SIZE
  6
CONTINUOUS
 62
    30
 10
-248.0
 20
-535.77439656869728
 30
0.0
 11
0.0
 21
-535.77439656869728
 31
0.0
  0
TEXT
  8
SIZE
  6
CONTINUOUS
 62
    30
 10
-74.057142714285646
 20
-503.77439656869723
 30
0.0
 40
64.0
  1
500
 41
0.9
  0
CIRCLE
  8
SIZE
  6
CONTINUOUS
 62
    30
 10
-250.0
 20
-535.77439656869728
 30
0.0
 40
6.0
  0
CIRCLE
  8
SIZE
  6
CONTINUOUS
 62
    30
 10
250.0
 20
-535.77439656869728
 30
0.0
 40
6.0
  0
CIRCLE
  8
SIZE
  6
CONTINUOUS
 62
    30
 10
-300.0
 20
-793.18904756869722
 30
0.0
 40
6.0
  0
CIRCLE
  8
SIZE
  6
CONTINUOUS
 62
    30
 10
300.0
 20
-793.18904756869722
 30
0.0
 40
6.0
  0
CIRCLE
  8
SIZE
  6
CONTINUOUS
 62
    30
 10
447.8158107883346
 20
0.0
 30
0.0
 40
6.0
  0
CIRCLE
  8
SIZE
  6
CONTINUOUS
 62
    30
 10
447.8158107883346
 20
16.0
 30
0.0
 40
6.0
  0
CIRCLE
  8
SIZE
  6
CONTINUOUS
 62
    30
 10
585.6639277883346
 20
0.0
 30
0.0
 40
6.0
  0
CIRCLE
  8
SIZE
  6
CONTINUOUS
 62
    30
 10
585.6639277883346
 20
30.0
 30
0.0
 40
6.0
  0
CIRCLE
  8
SIZE
  6
CONTINUOUS
 62
    30
 10
722.31474978833467
 20
0.0
 30
0.0
 40
6.0
  0
CIRCLE
  8
SIZE
  6
CONTINUOUS
 62
    30
 10
722.31474978833467
 20
-110.0
 30
0.0
 40
6.0
  0
CIRCLE
  8
SIZE
  6
CONTINUOUS
 62
    30
 10
722.31474978833467
 20
-181.0
 30
0.0
 40
6.0
  0
CIRCLE
  8
SIZE
  6
CONTINUOUS
 62
    30
 10
722.31474978833467
 20
-110.0
 30
0.0
 40
6.0
  0
CIRCLE
  8
SIZE
  6
CONTINUOUS
 62
    30
 10
260.0
 20
-669.69341056869723
 30
0.0
 40
6.0
  0
CIRCLE
  8
SIZE
  6
CONTINUOUS
 62
    30
 10
-260.0
 20
-669.69341056869723
 30
0.0
 40
6.0
  0
CIRCLE
  8
SIZE
  6
CONTINUOUS
 62
    30
 10
-823.91279899999984
 20
0.0
 30
0.0
 40
6.0
  0
CIRCLE
  8
SIZE
  6
CONTINUOUS
 62
    30
 10
-823.91279899999984
 20
54.0
 30
0.0
 40
6.0
  0
CIRCLE
  8
SIZE
  6
CONTINUOUS
 62
    30
 10
-695.78838900000017
 20
14.0
 30
0.0
 40
6.0
  0
CIRCLE
  8
SIZE
  6
CONTINUOUS
 62
    30
 10
-695.78838900000017
 20
54.0
 30
0.0
 40
6.0
  0
CIRCLE
  8
SIZE
  6
CONTINUOUS
 62
    30
 10
-249.0
 20
204.0789649999999
 30
0.0
 40
6.0
  0
CIRCLE
  8
SIZE
  6
CONTINUOUS
 62
    30
 10
-101.0
 20
204.0789649999999
 30
0.0
 40
6.0
  0
CIRCLE
  8
SIZE
  6
CONTINUOUS
 62
    30
 10
-98.0
 20
333.0831589999998
 30
0.0
 40
6.0
  0
CIRCLE
  8
SIZE
  6
CONTINUOUS
 62
    30
 10
-252.0
 20
333.0831589999998
 30
0.0
 40
6.0
  0
CIRCLE
  8
SIZE
  6
CONTINUOUS
 62
    30
 10
250.0
 20
411.73843799999992
 30
0.0
 40
6.0
  0
CIRCLE
  8
SIZE
  6
CONTINUOUS
 62
    30
 10
-250.0
 20
411.73843799999992
 30
0.0
 40
6.0
  0
CIRCLE
  8
SIZE
  6
CONTINUOUS
 62
    30
 10
-823.91279899999984
 20
-190.0
 30
0.0
 40
6.0
  0
CIRCLE
  8
SIZE
  6
CONTINUOUS
 62
    30
 10
-823.91279899999984
 20
0.0
 30
0.0
 40
6.0
  0
LINE
  8
NOTE
  6
CONTINUOUS
 62
     4
 10
250.0
 20
-4.0
 30
0.0
 11
250.0
 21
36.0
 31
0.0
  0
LINE
  8
NOTE
  6
CONTINUOUS
 62
     4
 10
230.0
 20
16.0
 30
0.0
 11
270.0
 21
16.0
 31
0.0
  0
LINE
  8
NOTE
  6
CONTINUOUS
 62
     4
 10
-250.0
 20
-20.0
 30
0.0
 11
-250.0
 21
20.0
 31
0.0
  0
LINE
  8
NOTE
  6
CONTINUOUS
 62
     4
 10
-230.0
 20
0.0
 30
0.0
 11
-270.0
 21
0.0
 31
0.0
  0
LINE
  8
NOTE
  6
CONTINUOUS
 62
     4
 10
-250.0
 20
-4.0
 30
0.0
 11
-250.0
 21
36.0
 31
0.0
  0
LINE
  8
NOTE
  6
CONTINUOUS
 62
     4
 10
-230.0
 20
16.0
 30
0.0
 11
-270.0
 21
16.0
 31
0.0
  0
LINE
  8
NOTE
  6
CONTINUOUS
 62
     4
 10
250.0
 20
-20.0
 30
0.0
 11
250.0
 21
20.0
 31
0.0
  0
LINE
  8
NOTE
  6
CONTINUOUS
 62
     4
 10
230.0
 20
0.0
 30
0.0
 11
270.0
 21
0.0
 31
0.0
  0
LINE
  8
NOTE
  6
CONTINUOUS
 62
     4
 10
260.0
 20
-20.0
 30
0.0
 11
260.0
 21
20.0
 31
0.0
  0
LINE
  8
NOTE
  6
CONTINUOUS
 62
     4
 10
240.0
 20
0.0
 30
0.0
 11
280.0
 21
0.0
 31
0.0
  0
LINE
  8
NOTE
  6
CONTINUOUS
 62
     4
 10
-260.0
 20
-20.0
 30
0.0
 11
-260.0
 21
20.0
 31
0.0
  0
LINE
  8
NOTE
  6
CONTINUOUS
 62
     4
 10
-280.0
 20
0.0
 30
0.0
 11
-240.0
 21
0.0
 31
0.0
  0
LINE
  8
NOTE
  6
CONTINUOUS
 62
     4
 10
0.0
 20
-20.0
 30
0.0
 11
0.0
 21
20.0
 31
0.0
  0
LINE
  8
NOTE
  6
CONTINUOUS
 62
     4
 10
-20.0
 20
0.0
 30
0.0
 11
20.0
 21
0.0
 31
0.0
  0
LINE
  8
NOTE
  6
CONTINUOUS
 62
     4
 10
4.8945879999999988
 20
39.699407999999949
 30
0.0
 11
0.0
 21
0.0
 31
0.0
  0
LINE
  8
NOTE
  6
CONTINUOUS
 62
     4
 10
0.0
 20
0.0
 30
0.0
 11
24.088541999999961
 21
31.933402000000001
 31
0.0
  0
LINE
  8
NOTE
  6
CONTINUOUS
 62
     4
 10
260.93647299999998
 20
-39.989035999999942
 30
0.0
 11
260.0
 21
0.0
 31
0.0
  0
LINE
  8
NOTE
  6
CONTINUOUS
 62
     4
 10
260.0
 20
0.0
 30
0.0
 11
280.80552799999992
 21
-34.163284999999973
 31
0.0
  0
ARC
  8
DETAIL
  6
CONTINUOUS
 62
     5
 10
249.99766947514439
 20
19.91664731208391
 30
0.0
 40
5.0833532221447451
 50
89.973732054984538
 51
118.7610139460688
  0
ARC
  8
DETAIL
  6
CONTINUOUS
 62
     5
 10
251.10844807633251
 20
18.302581459473231
 30
0.0
 40
7.0355200789846961
 50
120.3665847852664
 51
144.74139377969351
  0
ARC
  8
DETAIL
  6
CONTINUOUS
 62
     5
 10
253.07739145056851
 20
16.910623009763071
 30
0.0
 40
9.446803209739242
 50
144.74137725909631
 51
163.67842022974341
  0
ARC
  8
DETAIL
  6
CONTINUOUS
 62
     5
 10
256.18712470354723
 20
15.999995490639661
 30
0.0
 40
12.687124703548079
 50
163.67839274582789
 51
179.99997963547409
  0
ARC
  8
DETAIL
  6
CONTINUOUS
 62
     5
 10
256.18712470354723
 20
16.000004509360341
 30
0.0
 40
12.687124703548079
 50
180.00002036452591
 51
196.32160725417211
  0
ARC
  8
DETAIL
  6
CONTINUOUS
 62
     5
 10
253.07739145056851
 20
15.08937699023681
 30
0.0
 40
9.4468032097392935
 50
196.32157977025659
 51
215.25862274090369
  0
ARC
  8
DETAIL
  6
CONTINUOUS
 62
     5
 10
251.35508765400709
 20
14.24238952098642
 30
0.0
 40
7.5575702941438401
 50
217.5534677558322
 51
239.3297642769343
  0
LINE
  8
NOTE
  6
CONTINUOUS
 62
     4
 10
255.05762199999981
 20
55.678967000000057
 30
0.0
 11
250.0
 21
16.0
 31
0.0
  0
LINE
  8
NOTE
  6
CONTINUOUS
 62
     4
 10
250.0
 20
16.0
 30
0.0
 11
274.21951300000001
 21
47.834183000000053
 31
0.0
  0
ARC
  8
DETAIL
  6
CONTINUOUS
 62
     5
 10
250.0023305248553
 20
19.916647312084141
 30
0.0
 40
5.0833532221445852
 50
61.238986053931228
 51
90.026267945015462
  0
ARC
  8
DETAIL
  6
CONTINUOUS
 62
     5
 10
248.89155192366749
 20
18.302581459473121
 30
0.0
 40
7.0355200789847361
 50
35.258606220306532
 51
59.633415214738072
  0
ARC
  8
DETAIL
  6
CONTINUOUS
 62
     5
 10
246.92260854943149
 20
16.910623009762961
 30
0.0
 40
9.4468032097393149
 50
16.321579770256641
 51
35.258622740903689
  0
ARC
  8
DETAIL
  6
CONTINUOUS
 62
     5
 10
243.8128752964526
 20
15.99999549064
 30
0.0
 40
12.687124703548051
 50
0.0000203645259447
 51
16.32160725417209
  0
ARC
  8
DETAIL
  6
CONTINUOUS
 62
     5
 10
243.8128752964526
 20
16.000004509359879
 30
0.0
 40
12.687124703548051
 50
343.67839274582792
 51
359.99997963547412
  0
ARC
  8
DETAIL
  6
CONTINUOUS
 62
     5
 10
246.92260854943149
 20
15.08937699023704
 30
0.0
 40
9.4468032097393664
 50
324.74137725909628
 51
343.67842022974338
  0
ARC
  8
DETAIL
  6
CONTINUOUS
 62
     5
 10
248.6449123459922
 20
14.24238952098653
 30
0.0
 40
7.5575702941439538
 50
300.67023572306567
 51
322.44653224416783
  0
LINE
  8
NOTE
  6
CONTINUOUS
 62
     4
 10
-277.54223399999989
 20
-29.00733300000002
 30
0.0
 11
-250.0
 21
0.0
 31
0.0
  0
LINE
  8
NOTE
  6
CONTINUOUS
 62
     4
 10
-250.0
 20
0.0
 30
0.0
 11
-259.34860800000001
 21
-38.892203999999992
 31
0.0
  0
ARC
  8
DETAIL
  6
CONTINUOUS
 62
     5
 10
-249.99767041179601
 20
19.916628484058609
 30
0.0
 40
5.0833720497387311
 50
78.681571500390504
 51
90.026257290528676
  0
ARC
  8
DETAIL
  6
CONTINUOUS
 62
     5
 10
-250.00233052485541
 20
19.916647312084141
 30
0.0
 40
5.0833532221445852
 50
89.973732054984538
 51
118.7610139460688
  0
ARC
  8
DETAIL
  6
CONTINUOUS
 62
     5
 10
-248.89155192366741
 20
18.302581459473121
 30
0.0
 40
7.0355200789847361
 50
120.36658478526191
 51
144.74139377969351
  0
ARC
  8
DETAIL
  6
CONTINUOUS
 62
     5
 10
-246.9226085494314
 20
16.910623009762961
 30
0.0
 40
9.4468032097393149
 50
144.74137725909631
 51
163.67842022974341
  0
ARC
  8
DETAIL
  6
CONTINUOUS
 62
     5
 10
-243.8128752964526
 20
15.99999549064
 30
0.0
 40
12.687124703548051
 50
163.67839274582789
 51
179.99997963547409
  0
ARC
  8
DETAIL
  6
CONTINUOUS
 62
     5
 10
-243.8128752964526
 20
16.000004509359879
 30
0.0
 40
12.687124703548051
 50
180.00002036452591
 51
196.32160725417211
  0
ARC
  8
DETAIL
  6
CONTINUOUS
 62
     5
 10
-246.9226085494314
 20
15.08937699023704
 30
0.0
 40
9.4468032097393664
 50
196.32157977025659
 51
215.25862274090369
  0
ARC
  8
DETAIL
  6
CONTINUOUS
 62
     5
 10
-248.64491234599231
 20
14.24238952098653
 30
0.0
 40
7.5575702941439538
 50
217.5534677558322
 51
239.3297642769343
  0
CIRCLE
  8
ARRANGE
  6
CONTINUOUS
 62
     1
 10
0.0
 20
0.0
 30
0.0
 40
40.0
  0
POINT
  8
ARRANGE
  6
CONTINUOUS
 62
     1
 10
0.0
 20
0.0
 30
0.0
  0
LINE
  8
OUTLINE
  6
CONTINUOUS
 62
     3
 10
-300.0
 20
-190.0
 30
0.0
 11
300.0
 21
-190.0
 31
0.0
  0
LINE
  8
OUTLINE
  6
CONTINUOUS
 62
     3
 10
-75.0
 20
0.0
 30
0.0
 11
240.0
 21
0.0
 31
0.0
  0
LINE
  8
OUTLINE
  6
CONTINUOUS
 62
     3
 10
-300.0
 20
0.0
 30
0.0
 11
-300.0
 21
-190.0
 31
0.0
  0
LINE
  8
OUTLINE
  6
CONTINUOUS
 62
     3
 10
-300.0
 20
0.0
 30
0.0
 11
-275.0
 21
0.0
 31
0.0
  0
LINE
  8
OUTLINE
  6
CONTINUOUS
 62
     3
 10
300.0
 20
0.0
 30
0.0
 11
300.0
 21
-190.0
 31
0.0
  0
LINE
  8
OUTLINE
  6
CONTINUOUS
 62
     3
 10
229.07592199999999
 20
0.0
 30
0.0
 11
240.0
 21
0.0
 31
0.0
  0
LINE
  8
OUTLINE
  6
CONTINUOUS
 62
     3
 10
260.0
 20
0.0
 30
0.0
 11
300.0
 21
0.0
 31
0.0
  0
TEXT
  8
ETC
  6
CONTINUOUS
 62
    61
 10
662.12202325381213
 20
408.16307024035092
 30
0.0
 40
50.0
  1
V-36K7
 41
0.9
  0
TEXT
  8
ETC
  6
CONTINUOUS
 62
    61
 10
666.87187299226525
 20
324.30092560681169
 30
0.0
 40
50.0
  1
V-36K6-BL-L
 41
0.9
  0
TEXT
  8
ETC
  6
CONTINUOUS
 62
    61
 10
535.71903479664797
 20
583.59256137764351
 30
0.0
 40
64.0
  1
V-36K7_2
 41
0.9
  0
TEXT
  8
ETC
  6
CONTINUOUS
 62
    61
 10
533.51062379664791
 20
482.95151537764332
 30
0.0
 40
64.0
  1
換気扇
 41
0.9
  0
CIRCLE
  8
SIZE
  6
CONTINUOUS
 62
    30
 10
-175.0
 20
-395.25539116490921
 30
0.0
 40
6.0
  0
CIRCLE
  8
SIZE
  6
CONTINUOUS
 62
    30
 10
0.0
 20
-395.25539116490921
 30
0.0
 40
6.0
  0
LINE
  8
SIZE
  6
CONTINUOUS
 62
    30
 10
-175.0
 20
-86.968786000000023
 30
0.0
 11
-175.0
 21
-425.25539116490921
 31
0.0
  0
LINE
  8
SIZE
  6
CONTINUOUS
 62
    30
 10
0.0
 20
-291.81433799999951
 30
0.0
 11
0.0
 21
-425.25539116490921
 31
0.0
  0
LINE
  8
SIZE
  6
CONTINUOUS
 62
    30
 10
-175.0
 20
-395.25539116490921
 30
0.0
 11
0.0
 21
-395.25539116490921
 31
0.0
  0
TEXT
  8
SIZE
  6
CONTINUOUS
 62
    30
 10
-156.07142857142841
 20
-375.25539116490921
 30
0.0
 40
64.0
  1
175
 41
0.9
  0
LINE
  8
OUTLINE
  6
CONTINUOUS
 62
     3
 10
-260.0
 20
4.0
 30
0.0
 11
-260.0
 21
30.0
 31
0.0
  0
LINE
  8
OUTLINE
  6
CONTINUOUS
 62
     3
 10
-249.0
 20
30.0
 30
0.0
 11
-260.0
 21
30.0
 31
0.0
  0
LINE
  8
OUTLINE
  6
CONTINUOUS
 62
     3
 10
-101.0
 20
54.0
 30
0.0
 11
-249.0
 21
54.0
 31
0.0
  0
LINE
  8
OUTLINE
  6
CONTINUOUS
 62
     3
 10
-101.0
 20
14.0
 30
0.0
 11
-101.0
 21
54.0
 31
0.0
  0
LINE
  8
OUTLINE
  6
CONTINUOUS
 62
     3
 10
-249.0
 20
54.0
 30
0.0
 11
-249.0
 21
30.0
 31
0.0
  0
LINE
  8
OUTLINE
  6
CONTINUOUS
 62
     3
 10
-98.0
 20
14.0
 30
0.0
 11
-101.0
 21
14.0
 31
0.0
  0
LINE
  8
OUTLINE
  6
CONTINUOUS
 62
     3
 10
-75.0
 20
4.0
 30
0.0
 11
-98.0
 21
4.0
 31
0.0
  0
LINE
  8
OUTLINE
  6
CONTINUOUS
 62
     3
 10
-260.0
 20
4.0
 30
0.0
 11
-275.0
 21
4.0
 31
0.0
  0
LINE
  8
OUTLINE
  6
CONTINUOUS
 62
     3
 10
-75.0
 20
4.0
 30
0.0
 11
-75.0
 21
0.0
 31
0.0
  0
LINE
  8
OUTLINE
  6
CONTINUOUS
 62
     3
 10
-275.0
 20
4.0
 30
0.0
 11
-275.0
 21
0.0
 31
0.0
  0
LINE
  8
OUTLINE
  6
CONTINUOUS
 62
     3
 10
-98.0
 20
14.0
 30
0.0
 11
-98.0
 21
4.0
 31
0.0
  0
LINE
  8
OUTLINE
  6
CONTINUOUS
 62
     3
 10
240.0
 20
30.0
 30
0.0
 11
260.0
 21
30.0
 31
0.0
  0
LINE
  8
OUTLINE
  6
CONTINUOUS
 62
     3
 10
260.0
 20
0.0
 30
0.0
 11
260.0
 21
30.0
 31
0.0
  0
LINE
  8
OUTLINE
  6
CONTINUOUS
 62
     3
 10
240.0
 20
0.0
 30
0.0
 11
240.0
 21
30.0
 31
0.0
  0
ENDSEC
  0
EOF
