  0
SECTION
  2
HEADER
  9
$ACADVER
  1
AC1009
  9
$DWGCODEPAGE
  3
dos932
  9
$INSBASE
 10
0.0
 20
0.0
 30
0.0
  9
$EXTMIN
 10
-895.49558922357028
 20
-932.14415390061185
 30
-0.0015257624927045
  9
$EXTMAX
 10
1321.4904904266459
 20
644.39392898277583
 30
0.0022888765696933
  9
$LIMMIN
 10
-2970.0
 20
-2100.0
  9
$LIMMAX
 10
2970.0
 20
2100.0
  9
$ORTHOMODE
 70
     1
  9
$REGENMODE
 70
     1
  9
$FILLMODE
 70
     1
  9
$QTEXTMODE
 70
     0
  9
$MIRRTEXT
 70
     0
  9
$LTSCALE
 40
20.0
  9
$ATTMODE
 70
     1
  9
$TEXTSIZE
 40
64.0
  9
$TRACEWID
 40
0.05
  9
$TEXTSTYLE
  7
STANDARD
  9
$CLAYER
  8
NOTE
  9
$CELTYPE
  6
CONTINUOUS
  9
$CECOLOR
 62
     7
  9
$DIMSCALE
 40
1.0
  9
$DIMASZ
 40
12.0
  9
$DIMEXO
 40
20.0
  9
$DIMDLI
 40
200.0
  9
$DIMRND
 40
0.0
  9
$DIMDLE
 40
0.0
  9
$DIMEXE
 40
20.0
  9
$DIMTP
 40
0.0
  9
$DIMTM
 40
0.0
  9
$DIMTXT
 40
64.0
  9
$DIMCEN
 40
0.09
  9
$DIMTSZ
 40
0.0
  9
$DIMTOL
 70
     0
  9
$DIMLIM
 70
     0
  9
$DIMTIH
 70
     0
  9
$DIMTOH
 70
     0
  9
$DIMSE1
 70
     0
  9
$DIMSE2
 70
     0
  9
$DIMTAD
 70
     1
  9
$DIMZIN
 70
     8
  9
$DIMBLK
  1

  9
$DIMASO
 70
     1
  9
$DIMSHO
 70
     0
  9
$DIMPOST
  1

  9
$DIMAPOST
  1

  9
$DIMALT
 70
     0
  9
$DIMALTD
 70
     2
  9
$DIMALTF
 40
25.399999999999999
  9
$DIMLFAC
 40
1.0
  9
$DIMTOFL
 70
     1
  9
$DIMTVP
 40
0.0
  9
$DIMTIX
 70
     1
  9
$DIMSOXD
 70
     0
  9
$DIMSAH
 70
     0
  9
$DIMBLK1
  1

  9
$DIMBLK2
  1

  9
$DIMSTYLE
  2
STANDARD
  9
$DIMCLRD
 70
     7
  9
$DIMCLRE
 70
     7
  9
$DIMCLRT
 70
     7
  9
$DIMTFAC
 40
1.0
  9
$DIMGAP
 40
25.0
  9
$LUNITS
 70
     2
  9
$LUPREC
 70
     4
  9
$SKETCHINC
 40
0.1
  9
$FILLETRAD
 40
3.0
  9
$AUNITS
 70
     1
  9
$AUPREC
 70
     3
  9
$MENU
  1
ACAD
  9
$ELEVATION
 40
0.0
  9
$PELEVATION
 40
0.0
  9
$THICKNESS
 40
50.0
  9
$LIMCHECK
 70
     0
  9
$CHAMFERA
 40
0.0
  9
$CHAMFERB
 40
0.0
  9
$SKPOLY
 70
     0
  9
$TDCREATE
 40
2453019.62301037
  9
$TDUPDATE
 40
2458887.735966597
  9
$TDINDWG
 40
1.7078999537
  9
$TDUSRTIMER
 40
1.7078999537
  9
$USRTIMER
 70
     1
  9
$ANGBASE
 50
0.0
  9
$ANGDIR
 70
     0
  9
$PDMODE
 70
     3
  9
$PDSIZE
 40
-2.0
  9
$PLINEWID
 40
0.0
  9
$SPLFRAME
 70
     0
  9
$SPLINETYPE
 70
     6
  9
$SPLINESEGS
 70
     8
  9
$SURFTAB1
 70
     6
  9
$SURFTAB2
 70
     6
  9
$SURFTYPE
 70
     6
  9
$SURFU
 70
     6
  9
$SURFV
 70
     6
  9
$UCSNAME
  2

  9
$UCSORG
 10
0.0
 20
0.0
 30
0.0
  9
$UCSXDIR
 10
1.0
 20
0.0
 30
0.0
  9
$UCSYDIR
 10
0.0
 20
1.0
 30
0.0
  9
$PUCSNAME
  2

  9
$PUCSORG
 10
0.0
 20
0.0
 30
0.0
  9
$PUCSXDIR
 10
1.0
 20
0.0
 30
0.0
  9
$PUCSYDIR
 10
0.0
 20
1.0
 30
0.0
  9
$USERI1
 70
     0
  9
$USERI2
 70
     0
  9
$USERI3
 70
     0
  9
$USERI4
 70
     0
  9
$USERI5
 70
     0
  9
$USERR1
 40
20.0
  9
$USERR2
 40
0.0
  9
$USERR3
 40
0.0
  9
$USERR4
 40
0.0
  9
$USERR5
 40
0.0
  9
$WORLDVIEW
 70
     1
  9
$SHADEDGE
 70
     3
  9
$SHADEDIF
 70
    70
  9
$TILEMODE
 70
     1
  9
$MAXACTVP
 70
    48
  9
$PINSBASE
 10
0.0
 20
0.0
 30
0.0
  9
$PLIMCHECK
 70
     0
  9
$PEXTMIN
 10
-100000000000000000000.0
 20
-100000000000000000000.0
 30
-100000000000000000000.0
  9
$PEXTMAX
 10
100000000000000000000.0
 20
100000000000000000000.0
 30
100000000000000000000.0
  9
$PLIMMIN
 10
0.0
 20
0.0
  9
$PLIMMAX
 10
12.0
 20
9.0
  9
$UNITMODE
 70
     0
  9
$VISRETAIN
 70
     0
  9
$PLINEGEN
 70
     0
  9
$PSLTSCALE
 70
     0
  9
$TREEDEPTH
 70
  3020
  9
$ATTDIA
 70
     0
  9
$ATTREQ
 70
     1
  9
$BLIPMODE
 70
     1
  9
$COORDS
 70
     1
  9
$DRAGMODE
 70
     2
  9
$OSMODE
 70
     0
  9
$HANDLING
 70
     0
  9
$HANDSEED
  5
E5F4
  0
ENDSEC
  0
SECTION
  2
TABLES
  0
TABLE
  2
LTYPE
 70
     2
  0
LTYPE
  2
CONTINUOUS
 70
     0
  3
実線
 72
    65
 73
     0
 40
0.0
  0
LTYPE
  2
DASHDOT
 70
     0
  3
____ _ ____ _ ____ _ ____ _ ____ _ ____ _ ____
 72
    65
 73
     4
 40
5.5
 49
4.0
 49
-0.6
 49
0.3
 49
-0.6
  0
ENDTAB
  0
TABLE
  2
LAYER
 70
    12
  0
LAYER
  2
0
 70
     0
 62
     7
  6
CONTINUOUS
  0
LAYER
  2
BASIS
 70
     0
 62
     6
  6
DASHDOT
  0
LAYER
  2
OUTLINE
 70
     0
 62
     3
  6
CONTINUOUS
  0
LAYER
  2
DETAIL
 70
     0
 62
     5
  6
CONTINUOUS
  0
LAYER
  2
SIZE
 70
     0
 62
    30
  6
CONTINUOUS
  0
LAYER
  2
ARRANGE
 70
     0
 62
     1
  6
CONTINUOUS
  0
LAYER
  2
ETC
 70
     0
 62
    61
  6
CONTINUOUS
  0
LAYER
  2
FIX
 70
     0
 62
    11
  6
CONTINUOUS
  0
LAYER
  2
NOTE
 70
     0
 62
     4
  6
CONTINUOUS
  0
LAYER
  2
DEFPOINTS
 70
    64
 62
     7
  6
CONTINUOUS
  0
LAYER
  2
SERVICESPACE
 70
    64
 62
     2
  6
DASHDOT
  0
LAYER
  2
SYMBOLLINE
 70
    64
 62
    15
  6
CONTINUOUS
  0
ENDTAB
  0
TABLE
  2
STYLE
 70
     1
  0
STYLE
  2
STANDARD
 70
     0
 40
64.0
 41
0.9
 50
0.0
 71
     0
 42
64.0
  3
SIMPLEX.shx
  4
BIGFONT.shx
  0
ENDTAB
  0
TABLE
  2
APPID
 70
    16
  0
APPID
  2
ACAD
 70
     0
  0
APPID
  2
AUTOCAD_POSTSCRIPT_FIGURE
 70
     0
  0
APPID
  2
ACAD_EXEMPT_FROM_CAD_STANDARDS
 70
     0
  0
APPID
  2
ACAD_PSEXT
 70
     0
  0
APPID
  2
ACAUTHENVIRON
 70
     0
  0
APPID
  2
GENIUS_GENOENT_13
 70
     0
  0
APPID
  2
GENIUS_GENCFG_13
 70
     0
  0
APPID
  2
GENIUS_GENCFG0_13
 70
     0
  0
APPID
  2
GENIUS_GENCFG1_13
 70
     0
  0
APPID
  2
GENIUS_GENCFG2_13
 70
     0
  0
APPID
  2
GENIUS_GENCFG3_13
 70
     0
  0
APPID
  2
GENIUS_GENCFG4_13
 70
     0
  0
APPID
  2
GENIUS_GEVCFG0_13
 70
     0
  0
APPID
  2
CONTENTBLOCKICON
 70
     0
  0
APPID
  2
CONTENTBLOCKDESCRIPTION
 70
     0
  0
APPID
  2
ACAD_NAV_VCDISPLAY
 70
     0
  0
ENDTAB
  0
TABLE
  2
DIMSTYLE
 70
     1
  0
DIMSTYLE
  2
STANDARD
 70
     0
  3

  4

  5
_ORIGIN
  6

  7

 40
1.0
 41
12.0
 42
20.0
 43
200.0
 44
20.0
 45
0.0
 46
0.0
 47
0.0
 48
0.0
140
64.0
141
0.09
142
0.0
143
25.399999999999999
144
1.0
145
0.0
146
1.0
147
25.0
 71
     0
 72
     0
 73
     0
 74
     0
 75
     0
 76
     0
 77
     1
 78
     8
170
     0
171
     2
172
     1
173
     0
174
     1
175
     0
176
     7
177
     7
178
     7
  0
ENDTAB
  0
TABLE
  2
VIEW
 70
     1
  0
VIEW
  2
ALL
 70
     0
 40
4282.6198079999986
 10
0.0
 20
41.309904000000003
 41
5940.0
 11
0.0
 21
0.0
 31
1.0
 12
0.0
 22
0.0
 32
0.0
 42
50.0
 43
0.0
 44
0.0
 50
0.0
 71
     0
  0
ENDTAB
  0
TABLE
  2
UCS
 70
     0
  0
ENDTAB
  0
TABLE
  2
VPORT
 70
     1
  0
VPORT
  2
*ACTIVE
 70
     0
 10
0.0
 20
0.0
 11
1.0
 21
1.0
 12
212.99745060153799
 22
-143.87511245891801
 13
0.0
 23
0.0
 14
1.0
 24
1.0
 15
0.0
 25
0.0
 16
0.0
 26
0.0
 36
1.0
 17
0.0
 27
0.0
 37
0.0
 40
1587.825945052004
 41
1.7980884109916371
 42
50.0
 43
0.0
 44
0.0
 50
0.0
 51
0.0
 71
     0
 72
  1000
 73
     1
 74
     3
 75
     0
 76
     0
 77
     0
 78
     0
  0
ENDTAB
  0
ENDSEC
  0
SECTION
  2
BLOCKS
  0
BLOCK
  8
0
  2
_ORIGIN
 70
     0
 10
0.0
 20
0.0
 30
0.0
  3
_ORIGIN
  1
_ORIGIN
  0
CIRCLE
  8
0
  6
CONTINUOUS
 62
     7
 10
0.0
 20
0.0
 30
0.0
 40
0.5
  0
LINE
  8
0
  6
CONTINUOUS
 62
     7
 10
0.0
 20
0.0
 30
0.0
 11
-1.0
 21
0.0
 31
0.0
  0
ENDBLK
  8
0
  0
ENDSEC
  0
SECTION
  2
ENTITIES
  0
LINE
  8
NOTE
  6
CONTINUOUS
 62
     4
 10
260.0
 20
-279.99999999999972
 30
0.0
 11
260.0
 21
-320.0
 31
0.0
  0
LINE
  8
NOTE
  6
CONTINUOUS
 62
     4
 10
280.0
 20
-300.0
 30
0.0
 11
240.0
 21
-300.0
 31
0.0
  0
LINE
  8
NOTE
  6
CONTINUOUS
 62
     4
 10
270.0
 20
-329.99999999999972
 30
0.0
 11
230.0
 21
-329.99999999999972
 31
0.0
  0
LINE
  8
NOTE
  6
CONTINUOUS
 62
     4
 10
250.0
 20
-310.0
 30
0.0
 11
250.0
 21
-350.0
 31
0.0
  0
LINE
  8
NOTE
  6
CONTINUOUS
 62
     4
 10
-280.0
 20
-300.0
 30
0.0
 11
-239.99999999999989
 21
-300.0
 31
0.0
  0
LINE
  8
NOTE
  6
CONTINUOUS
 62
     4
 10
-260.0
 20
-279.99999999999972
 30
0.0
 11
-260.0
 21
-320.0
 31
0.0
  0
LINE
  8
NOTE
  6
CONTINUOUS
 62
     4
 10
-250.0
 20
-310.0
 30
0.0
 11
-250.0
 21
-350.0
 31
0.0
  0
LINE
  8
NOTE
  6
CONTINUOUS
 62
     4
 10
-270.0
 20
-329.99999999999972
 30
0.0
 11
-230.00000000000011
 21
-329.99999999999972
 31
0.0
  0
LINE
  8
NOTE
  6
CONTINUOUS
 62
     4
 10
-270.0
 20
-15.0
 30
0.0
 11
-230.00000000000011
 21
-15.0
 31
0.0
  0
LINE
  8
NOTE
  6
CONTINUOUS
 62
     4
 10
-250.0
 20
5.0
 30
0.0
 11
-250.0
 21
-35.0
 31
0.0
  0
LINE
  8
NOTE
  6
CONTINUOUS
 62
     4
 10
270.0
 20
-15.0
 30
0.0
 11
230.0
 21
-15.0
 31
0.0
  0
LINE
  8
NOTE
  6
CONTINUOUS
 62
     4
 10
250.0
 20
5.0
 30
0.0
 11
250.0
 21
-35.0
 31
0.0
  0
LINE
  8
BASIS
  6
DASHDOT
 62
     6
 10
0.0
 20
90.643933999999945
 30
0.0
 11
0.0
 21
-645.94651900000019
 31
0.0
  0
LINE
  8
BASIS
  6
DASHDOT
 62
     6
 10
-315.8898109999999
 20
-125.0
 30
0.0
 11
-23.594581999999949
 21
-125.0
 31
0.0
  0
LINE
  8
BASIS
  6
DASHDOT
 62
     6
 10
-175.0
 20
16.14426200000003
 30
0.0
 11
-175.0
 21
-265.57966900000002
 31
0.0
  0
LINE
  8
DETAIL
  6
CONTINUOUS
 62
     5
 10
350.0
 20
0.0
 30
0.0
 11
350.0
 21
-550.0
 31
0.0
  0
LINE
  8
DETAIL
  6
CONTINUOUS
 62
     5
 10
-350.0
 20
0.0
 30
0.0
 11
-350.0
 21
-550.0
 31
0.0
  0
LINE
  8
DETAIL
  6
CONTINUOUS
 62
     5
 10
350.0
 20
0.0
 30
0.0
 11
-350.0
 21
0.0
 31
0.0
  0
LINE
  8
DETAIL
  6
CONTINUOUS
 62
     5
 10
320.0
 20
-580.0
 30
0.0
 11
-320.0
 21
-580.0
 31
0.0
  0
LINE
  8
DETAIL
  6
CONTINUOUS
 62
     5
 10
-267.0
 20
-25.0
 30
0.0
 11
-83.0
 21
-25.0
 31
0.0
  0
LINE
  8
DETAIL
  6
CONTINUOUS
 62
     5
 10
-275.0
 20
-33.0
 30
0.0
 11
-275.0
 21
-216.99999999999989
 31
0.0
  0
LINE
  8
DETAIL
  6
CONTINUOUS
 62
     5
 10
-267.0
 20
-225.0
 30
0.0
 11
-83.0
 21
-225.0
 31
0.0
  0
LINE
  8
DETAIL
  6
CONTINUOUS
 62
     5
 10
-75.0
 20
-33.0
 30
0.0
 11
-75.0
 21
-216.99999999999989
 31
0.0
  0
TEXT
  8
ETC
  6
CONTINUOUS
 62
    61
 10
610.81556799999976
 20
580.25459153993143
 30
0.0
 40
64.0
  1
V-37KCP6-L_1
 41
0.9
  0
CIRCLE
  8
DETAIL
  6
CONTINUOUS
 62
     5
 10
260.0
 20
-300.0
 30
0.0
 40
6.5
  0
CIRCLE
  8
DETAIL
  6
CONTINUOUS
 62
     5
 10
-260.0
 20
-300.0
 30
0.0
 40
6.5
  0
CIRCLE
  8
DETAIL
  6
CONTINUOUS
 62
     5
 10
250.0
 20
-15.0
 30
0.0
 40
5.0
  0
CIRCLE
  8
DETAIL
  6
CONTINUOUS
 62
     5
 10
-250.0
 20
-15.0
 30
0.0
 40
5.0
  0
CIRCLE
  8
DETAIL
  6
CONTINUOUS
 62
     5
 10
-250.0
 20
-329.99999999999972
 30
0.0
 40
5.0
  0
CIRCLE
  8
DETAIL
  6
CONTINUOUS
 62
     5
 10
250.0
 20
-329.99999999999972
 30
0.0
 40
5.0
  0
CIRCLE
  8
FIX
  6
CONTINUOUS
 62
    11
 10
260.0
 20
-300.0
 30
0.0
 40
6.5
  0
CIRCLE
  8
FIX
  6
CONTINUOUS
 62
    11
 10
-260.0
 20
-300.0
 30
0.0
 40
6.5
  0
LINE
  8
NOTE
  6
CONTINUOUS
 62
     4
 10
0.0
 20
-109.9999999999999
 30
0.0
 11
67.016066000000137
 21
-386.63721800000008
 31
0.0
  0
LINE
  8
NOTE
  6
CONTINUOUS
 62
     4
 10
202.06611699999979
 20
-386.63721800000008
 30
0.0
 11
67.016066000000137
 21
-386.63721800000008
 31
0.0
  0
TEXT
  8
NOTE
  6
CONTINUOUS
 62
     4
 10
93.796129571428537
 20
-357.46022999999991
 30
0.0
 40
64.0
  1
EL
 41
0.9
  0
LINE
  8
NOTE
  6
CONTINUOUS
 62
     4
 10
260.0
 20
-300.0
 30
0.0
 11
539.71623699999964
 21
-507.32772799999992
 31
0.0
  0
LINE
  8
NOTE
  6
CONTINUOUS
 62
     4
 10
1002.79983
 20
-507.32772799999992
 30
0.0
 11
539.71623699999964
 21
-507.32772799999992
 31
0.0
  0
TEXT
  8
NOTE
  6
CONTINUOUS
 62
     4
 10
553.98427285714274
 20
-478.67537599999991
 30
0.0
 40
64.0
  1
AH 2-φ13
 41
0.9
  0
LINE
  8
NOTE
  6
CONTINUOUS
 62
     4
 10
250.0
 20
-329.99999999999972
 30
0.0
 11
547.86385700000005
 21
-644.11030499999981
 31
0.0
  0
LINE
  8
NOTE
  6
CONTINUOUS
 62
     4
 10
547.86385700000005
 20
-644.11030499999981
 30
0.0
 11
907.32948699999997
 21
-644.11030499999981
 31
0.0
  0
TEXT
  8
NOTE
  6
CONTINUOUS
 62
     4
 10
588.21501314285752
 20
-615.48945700000002
 30
0.0
 40
64.0
  1
4-φ10
 41
0.9
  0
LINE
  8
DETAIL
  6
CONTINUOUS
 62
     5
 10
320.0
 20
-485.0
 30
0.0
 11
-320.0
 21
-485.0
 31
0.0
  0
CIRCLE
  8
DETAIL
  6
CONTINUOUS
 62
     5
 10
-175.0
 20
-125.0
 30
0.0
 40
74.0
  0
CIRCLE
  8
DETAIL
  6
CONTINUOUS
 62
     5
 10
-175.0
 20
-125.0
 30
0.0
 40
77.0
  0
LINE
  8
SIZE
  6
CONTINUOUS
 62
    30
 10
-511.97624000000002
 20
-201.0
 30
0.0
 11
-511.97624000000002
 21
-427.84852199999989
 31
0.0
  0
LINE
  8
SIZE
  6
CONTINUOUS
 62
    30
 10
-662.32581000000016
 20
-204.0
 30
0.0
 11
-662.32581000000016
 21
-433.70960699999989
 31
0.0
  0
LINE
  8
DETAIL
  6
CONTINUOUS
 62
     5
 10
-83.0
 20
-25.0
 30
0.0
 11
-75.0
 21
-33.0
 31
0.0
  0
LINE
  8
DETAIL
  6
CONTINUOUS
 62
     5
 10
-75.0
 20
-216.99999999999989
 30
0.0
 11
-83.0
 21
-225.0
 31
0.0
  0
LINE
  8
DETAIL
  6
CONTINUOUS
 62
     5
 10
-267.0
 20
-225.0
 30
0.0
 11
-275.0
 21
-216.99999999999989
 31
0.0
  0
LINE
  8
DETAIL
  6
CONTINUOUS
 62
     5
 10
-267.0
 20
-25.0
 30
0.0
 11
-275.0
 21
-33.0
 31
0.0
  0
ARC
  8
DETAIL
  6
CONTINUOUS
 62
     5
 10
320.0
 20
-550.0
 30
0.0
 40
30.0
 50
270.0
 51
0.0
  0
ARC
  8
DETAIL
  6
CONTINUOUS
 62
     5
 10
-320.0
 20
-550.0
 30
0.0
 40
30.0
 50
180.0
 51
270.0
  0
LINE
  8
DETAIL
  6
CONTINUOUS
 62
     5
 10
335.0
 20
0.0
 30
0.0
 11
335.0
 21
-364.99999999999977
 31
0.0
  0
LINE
  8
DETAIL
  6
CONTINUOUS
 62
     5
 10
-335.0
 20
0.0
 30
0.0
 11
-335.0
 21
-364.99999999999977
 31
0.0
  0
LINE
  8
DETAIL
  6
CONTINUOUS
 62
     5
 10
-322.0
 20
-364.99999999999977
 30
0.0
 11
-322.0
 21
-579.93325900000002
 31
0.0
  0
LINE
  8
DETAIL
  6
CONTINUOUS
 62
     5
 10
322.0
 20
-364.99999999999977
 30
0.0
 11
322.0
 21
-579.93325900000002
 31
0.0
  0
LINE
  8
DETAIL
  6
CONTINUOUS
 62
     5
 10
322.0
 20
-467.49999999999989
 30
0.0
 11
-322.0
 21
-467.49999999999989
 31
0.0
  0
LINE
  8
DETAIL
  6
CONTINUOUS
 62
     5
 10
350.0
 20
-364.99999999999977
 30
0.0
 11
322.0
 21
-364.99999999999977
 31
0.0
  0
LINE
  8
DETAIL
  6
CONTINUOUS
 62
     5
 10
-322.0
 20
-364.99999999999977
 30
0.0
 11
-350.0
 21
-364.99999999999977
 31
0.0
  0
ARC
  8
DETAIL
  6
CONTINUOUS
 62
     5
 10
320.0
 20
-455.0
 30
0.0
 40
30.0
 50
270.0
 51
0.0
  0
ARC
  8
DETAIL
  6
CONTINUOUS
 62
     5
 10
-320.0
 20
-455.0
 30
0.0
 40
30.0
 50
180.0
 51
270.0
  0
TEXT
  8
NOTE
  6
CONTINUOUS
 62
     4
 10
557.0391969999996
 20
-736.69009400000004
 30
0.0
 40
64.0
  1
棚直付用穴
 41
0.9
  0
LINE
  8
DETAIL
  6
CONTINUOUS
 62
     5
 10
262.5
 20
0.0
 30
0.0
 11
262.5
 21
6.0
 31
0.0
  0
LINE
  8
DETAIL
  6
CONTINUOUS
 62
     5
 10
237.5
 20
0.0
 30
0.0
 11
237.5
 21
6.0
 31
0.0
  0
LINE
  8
DETAIL
  6
CONTINUOUS
 62
     5
 10
262.5
 20
6.0
 30
0.0
 11
259.5
 21
6.0
 31
0.0
  0
LINE
  8
DETAIL
  6
CONTINUOUS
 62
     5
 10
259.5
 20
0.0
 30
0.0
 11
259.5
 21
6.0
 31
0.0
  0
LINE
  8
DETAIL
  6
CONTINUOUS
 62
     5
 10
240.5
 20
0.0
 30
0.0
 11
240.5
 21
6.0
 31
0.0
  0
LINE
  8
DETAIL
  6
CONTINUOUS
 62
     5
 10
240.5
 20
6.0
 30
0.0
 11
237.5
 21
6.0
 31
0.0
  0
CIRCLE
  8
FIX
  6
CONTINUOUS
 62
    11
 10
250.0
 20
0.0
 30
0.0
 40
6.5
  0
CIRCLE
  8
FIX
  6
CONTINUOUS
 62
    11
 10
-250.0
 20
0.0
 30
0.0
 40
6.5
  0
LINE
  8
DETAIL
  6
CONTINUOUS
 62
     5
 10
-240.49999999999989
 20
6.0
 30
0.0
 11
-237.5
 21
6.0
 31
0.0
  0
LINE
  8
DETAIL
  6
CONTINUOUS
 62
     5
 10
-240.49999999999989
 20
0.0
 30
0.0
 11
-240.49999999999989
 21
6.0
 31
0.0
  0
LINE
  8
DETAIL
  6
CONTINUOUS
 62
     5
 10
-259.5
 20
0.0
 30
0.0
 11
-259.5
 21
6.0
 31
0.0
  0
LINE
  8
DETAIL
  6
CONTINUOUS
 62
     5
 10
-262.5
 20
6.0
 30
0.0
 11
-259.5
 21
6.0
 31
0.0
  0
LINE
  8
DETAIL
  6
CONTINUOUS
 62
     5
 10
-237.5
 20
0.0
 30
0.0
 11
-237.5
 21
6.0
 31
0.0
  0
LINE
  8
DETAIL
  6
CONTINUOUS
 62
     5
 10
-262.5
 20
0.0
 30
0.0
 11
-262.5
 21
6.0
 31
0.0
  0
LINE
  8
SIZE
  6
CONTINUOUS
 62
    30
 10
-456.360455
 20
0.0
 30
0.0
 11
-456.360455
 21
169.287679
 31
0.0
  0
TEXT
  8
NOTE
  6
CONTINUOUS
 62
     4
 10
410.58296399999972
 20
293.10219899999993
 30
0.0
 40
64.0
  1
取付金具
 41
0.9
  0
LINE
  8
NOTE
  6
CONTINUOUS
 62
     4
 10
379.43254499999972
 20
262.90190400000012
 30
0.0
 11
691.75325299999986
 21
262.90190400000012
 31
0.0
  0
LINE
  8
SIZE
  6
CONTINUOUS
 62
    30
 10
-662.32581000000016
 20
-577.99999999999966
 30
0.0
 11
-662.32581000000016
 21
-730.66363999999965
 31
0.0
  0
LINE
  8
SIZE
  6
CONTINUOUS
 62
    30
 10
395.25901899999963
 20
6.0
 30
0.0
 11
395.25901899999963
 21
92.899691999999959
 31
0.0
  0
LINE
  8
SIZE
  6
CONTINUOUS
 62
    30
 10
524.39073399999984
 20
0.0
 30
0.0
 11
524.39073399999984
 21
169.37055599999991
 31
0.0
  0
LINE
  8
SIZE
  6
CONTINUOUS
 62
    30
 10
803.26392499999929
 20
0.0
 30
0.0
 11
803.26392499999929
 21
131.13512399999991
 31
0.0
  0
LINE
  8
NOTE
  6
CONTINUOUS
 62
     4
 10
250.0
 20
0.0
 30
0.0
 11
379.43254499999972
 21
262.90190400000012
 31
0.0
  0
CIRCLE
  8
FIX
  6
CONTINUOUS
 62
    11
 10
250.0
 20
-15.0
 30
0.0
 40
5.0
  0
CIRCLE
  8
DETAIL
  6
CONTINUOUS
 62
     5
 10
0.0
 20
-109.9999999999999
 30
0.0
 40
5.0
  0
CIRCLE
  8
FIX
  6
CONTINUOUS
 62
    11
 10
-250.0
 20
-15.0
 30
0.0
 40
5.0
  0
CIRCLE
  8
FIX
  6
CONTINUOUS
 62
    11
 10
-250.0
 20
-329.99999999999972
 30
0.0
 40
5.0
  0
CIRCLE
  8
FIX
  6
CONTINUOUS
 62
    11
 10
250.0
 20
-329.99999999999972
 30
0.0
 40
5.0
  0
TEXT
  8
NOTE
  6
CONTINUOUS
 62
     4
 10
-228.03232199999999
 20
-177.08917
 30
0.0
 40
64.0
  1
EA
 41
0.9
  0
LINE
  8
SIZE
  6
CONTINUOUS
 62
    30
 10
-339.93907272699653
 20
-485.0
 30
0.0
 11
-692.32581000000016
 21
-485.0
 31
0.0
  0
LINE
  8
SIZE
  6
CONTINUOUS
 62
    30
 10
-341.7478620104921
 20
-580.0
 30
0.0
 11
-692.32581000000016
 21
-580.0
 31
0.0
  0
LINE
  8
SIZE
  6
CONTINUOUS
 62
    30
 10
-662.32581000000016
 20
-486.99999999999989
 30
0.0
 11
-662.32581000000016
 21
-532.5
 31
0.0
  0
LINE
  8
SIZE
  6
CONTINUOUS
 62
    30
 10
-662.32581000000016
 20
-577.99999999999966
 30
0.0
 11
-662.32581000000016
 21
-532.5
 31
0.0
  0
TEXT
  8
SIZE
  6
CONTINUOUS
 62
    30
 10
-680.29318439754047
 20
-701.24798499999974
 30
0.0
 40
64.0
  1
95
 50
90.0
 41
0.9
  0
LINE
  8
SIZE
  6
CONTINUOUS
 62
    30
 10
-250.0
 20
-370.0
 30
0.0
 11
-250.0
 21
-806.5078279999999
 31
0.0
  0
LINE
  8
SIZE
  6
CONTINUOUS
 62
    30
 10
250.0
 20
-370.0
 30
0.0
 11
250.0
 21
-806.5078279999999
 31
0.0
  0
LINE
  8
SIZE
  6
CONTINUOUS
 62
    30
 10
-247.99999999999989
 20
-776.5078279999999
 30
0.0
 11
248.0
 21
-776.5078279999999
 31
0.0
  0
TEXT
  8
SIZE
  6
CONTINUOUS
 62
    30
 10
-74.057142714285874
 20
-744.50782800000002
 30
0.0
 40
64.0
  1
500
 41
0.9
  0
LINE
  8
SIZE
  6
CONTINUOUS
 62
    30
 10
-250.0
 20
40.0
 30
0.0
 11
-250.0
 21
295.53907600000002
 31
0.0
  0
LINE
  8
SIZE
  6
CONTINUOUS
 62
    30
 10
250.0
 20
40.0
 30
0.0
 11
250.0
 21
295.53907600000002
 31
0.0
  0
LINE
  8
SIZE
  6
CONTINUOUS
 62
    30
 10
-247.99999999999989
 20
265.53907600000002
 30
0.0
 11
248.0
 21
265.53907600000002
 31
0.0
  0
TEXT
  8
SIZE
  6
CONTINUOUS
 62
    30
 10
-74.057142714285874
 20
297.53907600000002
 30
0.0
 40
64.0
  1
500
 41
0.9
  0
LINE
  8
SIZE
  6
CONTINUOUS
 62
    30
 10
290.0
 20
-15.0
 30
0.0
 11
833.26392499999929
 21
-15.0
 31
0.0
  0
LINE
  8
SIZE
  6
CONTINUOUS
 62
    30
 10
357.13892300054067
 20
0.0
 30
0.0
 11
833.26392499999929
 21
0.0
 31
0.0
  0
LINE
  8
SIZE
  6
CONTINUOUS
 62
    30
 10
803.26392499999929
 20
2.0
 30
0.0
 11
803.26392499999929
 21
4.0
 31
0.0
  0
LINE
  8
SIZE
  6
CONTINUOUS
 62
    30
 10
803.26392499999929
 20
-17.0
 30
0.0
 11
803.26392499999929
 21
-19.0
 31
0.0
  0
LINE
  8
SIZE
  6
CONTINUOUS
 62
    30
 10
803.26392499999929
 20
0.0
 30
0.0
 11
803.26392499999929
 21
-15.0
 31
0.0
  0
TEXT
  8
SIZE
  6
CONTINUOUS
 62
    30
 10
776.48316668334701
 20
41.012638000000038
 30
0.0
 40
64.0
  1
15
 50
90.0
 41
0.9
  0
LINE
  8
SIZE
  6
CONTINUOUS
 62
    30
 10
290.0
 20
-329.99999999999972
 30
0.0
 11
833.26392499999929
 21
-329.99999999999972
 31
0.0
  0
LINE
  8
SIZE
  6
CONTINUOUS
 62
    30
 10
290.0
 20
-15.0
 30
0.0
 11
833.26392499999929
 21
-15.0
 31
0.0
  0
LINE
  8
SIZE
  6
CONTINUOUS
 62
    30
 10
803.26392499999929
 20
-327.99999999999972
 30
0.0
 11
803.26392499999929
 21
-172.5
 31
0.0
  0
LINE
  8
SIZE
  6
CONTINUOUS
 62
    30
 10
803.26392499999929
 20
-17.0
 30
0.0
 11
803.26392499999929
 21
-172.5
 31
0.0
  0
TEXT
  8
SIZE
  6
CONTINUOUS
 62
    30
 10
773.12654328712051
 20
-241.07142899999999
 30
0.0
 40
64.0
  1
315
 50
90.0
 41
0.9
  0
LINE
  8
SIZE
  6
CONTINUOUS
 62
    30
 10
357.13892300054067
 20
0.0
 30
0.0
 11
425.25901899999991
 21
0.0
 31
0.0
  0
LINE
  8
SIZE
  6
CONTINUOUS
 62
    30
 10
282.5
 20
6.0
 30
0.0
 11
425.25901899999991
 21
6.0
 31
0.0
  0
LINE
  8
SIZE
  6
CONTINUOUS
 62
    30
 10
395.25901899999963
 20
8.0
 30
0.0
 11
395.25901899999963
 21
10.0
 31
0.0
  0
LINE
  8
SIZE
  6
CONTINUOUS
 62
    30
 10
395.25901899999963
 20
-2.0
 30
0.0
 11
395.25901899999963
 21
-4.0
 31
0.0
  0
LINE
  8
SIZE
  6
CONTINUOUS
 62
    30
 10
395.25901899999963
 20
6.0
 30
0.0
 11
395.25901899999963
 21
0.0
 31
0.0
  0
TEXT
  8
SIZE
  6
CONTINUOUS
 62
    30
 10
377.0444901711362
 20
44.502270999999951
 30
0.0
 40
64.0
  1
6
 50
90.0
 41
0.9
  0
LINE
  8
SIZE
  6
CONTINUOUS
 62
    30
 10
-355.5066689421019
 20
0.0
 30
0.0
 11
-486.360455
 21
0.0
 31
0.0
  0
LINE
  8
SIZE
  6
CONTINUOUS
 62
    30
 10
-335.88981100000001
 20
-125.0
 30
0.0
 11
-486.360455
 21
-125.0
 31
0.0
  0
LINE
  8
SIZE
  6
CONTINUOUS
 62
    30
 10
-456.360455
 20
-127.0
 30
0.0
 11
-456.360455
 21
-129.0
 31
0.0
  0
LINE
  8
SIZE
  6
CONTINUOUS
 62
    30
 10
-456.360455
 20
2.0
 30
0.0
 11
-456.360455
 21
4.0
 31
0.0
  0
LINE
  8
SIZE
  6
CONTINUOUS
 62
    30
 10
-456.360455
 20
-125.0
 30
0.0
 11
-456.360455
 21
0.0
 31
0.0
  0
TEXT
  8
SIZE
  6
CONTINUOUS
 62
    30
 10
-478.89553444332171
 20
27.370070999999939
 30
0.0
 40
64.0
  1
125
 50
90.0
 41
0.9
  0
LINE
  8
SIZE
  6
CONTINUOUS
 62
    30
 10
-195.0
 20
-48.0
 30
0.0
 11
-692.32581000000016
 21
-48.0
 31
0.0
  0
LINE
  8
SIZE
  6
CONTINUOUS
 62
    30
 10
-195.0
 20
-202.0
 30
0.0
 11
-692.32581000000016
 21
-202.0
 31
0.0
  0
LINE
  8
SIZE
  6
CONTINUOUS
 62
    30
 10
-662.32581000000016
 20
-204.0
 30
0.0
 11
-662.32581000000016
 21
-206.0
 31
0.0
  0
LINE
  8
SIZE
  6
CONTINUOUS
 62
    30
 10
-662.32581000000016
 20
-46.0
 30
0.0
 11
-662.32581000000016
 21
-44.0
 31
0.0
  0
LINE
  8
SIZE
  6
CONTINUOUS
 62
    30
 10
-662.32581000000016
 20
-202.0
 30
0.0
 11
-662.32581000000016
 21
-48.0
 31
0.0
  0
TEXT
  8
SIZE
  6
CONTINUOUS
 62
    30
 10
-683.64980779376788
 20
-439.13772199999988
 30
0.0
 40
64.0
  1
φ154
 50
90.0
 41
0.9
  0
LINE
  8
SIZE
  6
CONTINUOUS
 62
    30
 10
-195.0
 20
-51.0
 30
0.0
 11
-541.97623999999996
 21
-51.0
 31
0.0
  0
LINE
  8
SIZE
  6
CONTINUOUS
 62
    30
 10
-195.0
 20
-199.0
 30
0.0
 11
-541.97623999999996
 21
-199.0
 31
0.0
  0
LINE
  8
SIZE
  6
CONTINUOUS
 62
    30
 10
-511.97624000000002
 20
-201.0
 30
0.0
 11
-511.97624000000002
 21
-203.0
 31
0.0
  0
LINE
  8
SIZE
  6
CONTINUOUS
 62
    30
 10
-511.97624000000002
 20
-49.0
 30
0.0
 11
-511.97624000000002
 21
-47.0
 31
0.0
  0
LINE
  8
SIZE
  6
CONTINUOUS
 62
    30
 10
-511.97624000000002
 20
-199.0
 30
0.0
 11
-511.97624000000002
 21
-51.0
 31
0.0
  0
TEXT
  8
SIZE
  6
CONTINUOUS
 62
    30
 10
-539.31482942958792
 20
-437.76629299999979
 30
0.0
 40
64.0
  1
φ148
 50
90.0
 41
0.9
  0
LINE
  8
SIZE
  6
CONTINUOUS
 62
    30
 10
-355.5066689421019
 20
0.0
 30
0.0
 11
-836.66709599999933
 21
0.0
 31
0.0
  0
LINE
  8
SIZE
  6
CONTINUOUS
 62
    30
 10
-341.7478620104921
 20
-580.0
 30
0.0
 11
-836.66709599999933
 21
-580.0
 31
0.0
  0
LINE
  8
SIZE
  6
CONTINUOUS
 62
    30
 10
-806.6670959999999
 20
-2.0
 30
0.0
 11
-806.6670959999999
 21
-289.99999999999989
 31
0.0
  0
LINE
  8
SIZE
  6
CONTINUOUS
 62
    30
 10
-806.6670959999999
 20
-577.99999999999966
 30
0.0
 11
-806.6670959999999
 21
-289.99999999999989
 31
0.0
  0
TEXT
  8
SIZE
  6
CONTINUOUS
 62
    30
 10
-831.34142596621302
 20
-364.057143
 30
0.0
 40
64.0
  1
580
 50
90.0
 41
0.9
  0
LINE
  8
SIZE
  6
CONTINUOUS
 62
    30
 10
-260.0
 20
-339.99999999999989
 30
0.0
 11
-260.0
 21
-931.94247499999994
 31
0.0
  0
LINE
  8
SIZE
  6
CONTINUOUS
 62
    30
 10
260.0
 20
-339.99999999999989
 30
0.0
 11
260.0
 21
-931.94247499999994
 31
0.0
  0
LINE
  8
SIZE
  6
CONTINUOUS
 62
    30
 10
-258.0
 20
-901.94247499999983
 30
0.0
 11
0.0
 21
-901.94247499999983
 31
0.0
  0
LINE
  8
SIZE
  6
CONTINUOUS
 62
    30
 10
258.0
 20
-901.94247499999983
 30
0.0
 11
0.0
 21
-901.94247499999983
 31
0.0
  0
TEXT
  8
SIZE
  6
CONTINUOUS
 62
    30
 10
-74.057142714285874
 20
-869.94247499999983
 30
0.0
 40
64.0
  1
520
 41
0.9
  0
LINE
  8
SIZE
  6
CONTINUOUS
 62
    30
 10
357.13892300054067
 20
0.0
 30
0.0
 11
554.39073399999961
 21
0.0
 31
0.0
  0
LINE
  8
SIZE
  6
CONTINUOUS
 62
    30
 10
40.0
 20
-109.9999999999999
 30
0.0
 11
554.39073399999961
 21
-109.9999999999999
 31
0.0
  0
LINE
  8
SIZE
  6
CONTINUOUS
 62
    30
 10
524.39073399999984
 20
-111.9999999999999
 30
0.0
 11
524.39073399999984
 21
-113.9999999999999
 31
0.0
  0
LINE
  8
SIZE
  6
CONTINUOUS
 62
    30
 10
524.39073399999984
 20
2.0
 30
0.0
 11
524.39073399999984
 21
4.0
 31
0.0
  0
LINE
  8
SIZE
  6
CONTINUOUS
 62
    30
 10
524.39073399999984
 20
-109.9999999999999
 30
0.0
 11
524.39073399999984
 21
0.0
 31
0.0
  0
TEXT
  8
SIZE
  6
CONTINUOUS
 62
    30
 10
501.23971174591497
 20
38.811402000000037
 30
0.0
 40
64.0
  1
110
 50
90.0
 41
0.9
  0
LINE
  8
SIZE
  6
CONTINUOUS
 62
    30
 10
357.13892300054067
 20
0.0
 30
0.0
 11
692.93957699999987
 21
0.0
 31
0.0
  0
LINE
  8
SIZE
  6
CONTINUOUS
 62
    30
 10
300.0
 20
-300.0
 30
0.0
 11
692.93957699999987
 21
-300.0
 31
0.0
  0
LINE
  8
SIZE
  6
CONTINUOUS
 62
    30
 10
662.93957699999964
 20
-2.0
 30
0.0
 11
662.93957699999964
 21
-150.0
 31
0.0
  0
LINE
  8
SIZE
  6
CONTINUOUS
 62
    30
 10
662.93957699999964
 20
-298.0
 30
0.0
 11
662.93957699999964
 21
-150.0
 31
0.0
  0
TEXT
  8
SIZE
  6
CONTINUOUS
 62
    30
 10
638.86144331764058
 20
-224.057143
 30
0.0
 40
64.0
  1
300
 50
90.0
 41
0.9
  0
CIRCLE
  8
SIZE
  6
CONTINUOUS
 62
    30
 10
662.93957699999964
 20
-300.0
 30
0.0
 40
6.0
  0
CIRCLE
  8
SIZE
  6
CONTINUOUS
 62
    30
 10
662.93957699999964
 20
0.0
 30
0.0
 40
6.0
  0
CIRCLE
  8
SIZE
  6
CONTINUOUS
 62
    30
 10
524.39073399999984
 20
0.0
 30
0.0
 40
6.0
  0
CIRCLE
  8
SIZE
  6
CONTINUOUS
 62
    30
 10
524.39073399999984
 20
-109.9999999999999
 30
0.0
 40
6.0
  0
CIRCLE
  8
SIZE
  6
CONTINUOUS
 62
    30
 10
260.0
 20
-901.94247499999983
 30
0.0
 40
6.0
  0
CIRCLE
  8
SIZE
  6
CONTINUOUS
 62
    30
 10
-260.0
 20
-901.94247499999983
 30
0.0
 40
6.0
  0
CIRCLE
  8
SIZE
  6
CONTINUOUS
 62
    30
 10
-806.6670959999999
 20
-580.0
 30
0.0
 40
6.0
  0
CIRCLE
  8
SIZE
  6
CONTINUOUS
 62
    30
 10
-806.6670959999999
 20
0.0
 30
0.0
 40
6.0
  0
CIRCLE
  8
SIZE
  6
CONTINUOUS
 62
    30
 10
-511.97624000000002
 20
-51.0
 30
0.0
 40
6.0
  0
CIRCLE
  8
SIZE
  6
CONTINUOUS
 62
    30
 10
-511.97624000000002
 20
-199.0
 30
0.0
 40
6.0
  0
CIRCLE
  8
SIZE
  6
CONTINUOUS
 62
    30
 10
-662.32581000000016
 20
-48.0
 30
0.0
 40
6.0
  0
CIRCLE
  8
SIZE
  6
CONTINUOUS
 62
    30
 10
-662.32581000000016
 20
-202.0
 30
0.0
 40
6.0
  0
CIRCLE
  8
SIZE
  6
CONTINUOUS
 62
    30
 10
-456.360455
 20
0.0
 30
0.0
 40
6.0
  0
CIRCLE
  8
SIZE
  6
CONTINUOUS
 62
    30
 10
-456.360455
 20
-125.0
 30
0.0
 40
6.0
  0
CIRCLE
  8
SIZE
  6
CONTINUOUS
 62
    30
 10
395.25901899999963
 20
0.0
 30
0.0
 40
6.0
  0
CIRCLE
  8
SIZE
  6
CONTINUOUS
 62
    30
 10
395.25901899999963
 20
6.0
 30
0.0
 40
6.0
  0
CIRCLE
  8
SIZE
  6
CONTINUOUS
 62
    30
 10
803.26392499999929
 20
-15.0
 30
0.0
 40
6.0
  0
CIRCLE
  8
SIZE
  6
CONTINUOUS
 62
    30
 10
803.26392499999929
 20
-329.99999999999972
 30
0.0
 40
6.0
  0
CIRCLE
  8
SIZE
  6
CONTINUOUS
 62
    30
 10
803.26392499999929
 20
-15.0
 30
0.0
 40
6.0
  0
CIRCLE
  8
SIZE
  6
CONTINUOUS
 62
    30
 10
803.26392499999929
 20
0.0
 30
0.0
 40
6.0
  0
CIRCLE
  8
SIZE
  6
CONTINUOUS
 62
    30
 10
250.0
 20
265.53907600000002
 30
0.0
 40
6.0
  0
CIRCLE
  8
SIZE
  6
CONTINUOUS
 62
    30
 10
-250.0
 20
265.53907600000002
 30
0.0
 40
6.0
  0
CIRCLE
  8
SIZE
  6
CONTINUOUS
 62
    30
 10
250.0
 20
-776.5078279999999
 30
0.0
 40
6.0
  0
CIRCLE
  8
SIZE
  6
CONTINUOUS
 62
    30
 10
-250.0
 20
-776.5078279999999
 30
0.0
 40
6.0
  0
CIRCLE
  8
SIZE
  6
CONTINUOUS
 62
    30
 10
-662.32581000000016
 20
-580.0
 30
0.0
 40
6.0
  0
CIRCLE
  8
SIZE
  6
CONTINUOUS
 62
    30
 10
-662.32581000000016
 20
-485.0
 30
0.0
 40
6.0
  0
LINE
  8
NOTE
  6
CONTINUOUS
 62
     4
 10
-250.0
 20
-20.0
 30
0.0
 11
-250.0
 21
20.0
 31
0.0
  0
LINE
  8
NOTE
  6
CONTINUOUS
 62
     4
 10
-270.0
 20
0.0
 30
0.0
 11
-230.00000000000011
 21
0.0
 31
0.0
  0
LINE
  8
NOTE
  6
CONTINUOUS
 62
     4
 10
250.0
 20
-20.0
 30
0.0
 11
250.0
 21
20.0
 31
0.0
  0
LINE
  8
NOTE
  6
CONTINUOUS
 62
     4
 10
270.0
 20
0.0
 30
0.0
 11
230.0
 21
0.0
 31
0.0
  0
LINE
  8
NOTE
  6
CONTINUOUS
 62
     4
 10
0.0
 20
-130.0
 30
0.0
 11
0.0
 21
-90.0
 31
0.0
  0
LINE
  8
NOTE
  6
CONTINUOUS
 62
     4
 10
20.0
 20
-109.9999999999999
 30
0.0
 11
-20.0
 21
-109.9999999999999
 31
0.0
  0
TEXT
  8
ETC
  6
CONTINUOUS
 62
    61
 10
608.60715699999992
 20
479.61354553993152
 30
0.0
 40
64.0
  1
換気扇
 41
0.9
  0
LINE
  8
NOTE
  6
CONTINUOUS
 62
     4
 10
268.19859399999967
 20
-365.62037599999991
 30
0.0
 11
250.0
 21
-329.99999999999972
 31
0.0
  0
LINE
  8
NOTE
  6
CONTINUOUS
 62
     4
 10
250.0
 20
-329.99999999999972
 30
0.0
 11
283.57063199999988
 21
-351.74885399999982
 31
0.0
  0
LINE
  8
NOTE
  6
CONTINUOUS
 62
     4
 10
296.95249599999988
 20
-315.31382000000008
 30
0.0
 11
260.0
 21
-300.0
 31
0.0
  0
LINE
  8
NOTE
  6
CONTINUOUS
 62
     4
 10
260.0
 20
-300.0
 30
0.0
 11
284.34488999999991
 21
-331.73840499999972
 31
0.0
  0
LINE
  8
NOTE
  6
CONTINUOUS
 62
     4
 10
-0.8214229999998679
 20
-149.99156499999981
 30
0.0
 11
0.0
 21
-109.9999999999999
 31
0.0
  0
LINE
  8
NOTE
  6
CONTINUOUS
 62
     4
 10
0.0
 20
-109.9999999999999
 30
0.0
 11
19.284409999999749
 21
-145.04442199999991
 31
0.0
  0
LINE
  8
NOTE
  6
CONTINUOUS
 62
     4
 10
277.09722299999981
 20
29.423467999999961
 30
0.0
 11
250.0
 21
0.0
 31
0.0
  0
LINE
  8
NOTE
  6
CONTINUOUS
 62
     4
 10
250.0
 20
0.0
 30
0.0
 11
258.75515000000001
 21
39.030082999999991
 31
0.0
  0
LINE
  8
OUTLINE
  6
CONTINUOUS
 62
     3
 10
350.0
 20
0.0
 30
0.0
 11
350.0
 21
-550.0
 31
0.0
  0
CIRCLE
  8
ARRANGE
  6
CONTINUOUS
 62
     1
 10
0.0
 20
0.0
 30
0.0
 40
40.0
  0
POINT
  8
ARRANGE
  6
CONTINUOUS
 62
     1
 10
0.0
 20
0.0
 30
0.0
  0
LINE
  8
OUTLINE
  6
CONTINUOUS
 62
     3
 10
-350.0
 20
0.0
 30
0.0
 11
-350.0
 21
-550.0
 31
0.0
  0
LINE
  8
OUTLINE
  6
CONTINUOUS
 62
     3
 10
320.0
 20
-580.0
 30
0.0
 11
-320.0
 21
-580.0
 31
0.0
  0
ARC
  8
OUTLINE
  6
CONTINUOUS
 62
     3
 10
-320.0
 20
-550.0
 30
0.0
 40
30.0
 50
180.0
 51
270.0
  0
ARC
  8
OUTLINE
  6
CONTINUOUS
 62
     3
 10
320.0
 20
-550.0
 30
0.0
 40
30.0
 50
270.0
 51
0.0
  0
LINE
  8
OUTLINE
  6
CONTINUOUS
 62
     3
 10
350.0
 20
0.0
 30
0.0
 11
-350.0
 21
0.0
 31
0.0
  0
TEXT
  8
ETC
  6
CONTINUOUS
 62
    61
 10
736.19238357031645
 20
405.43086436595689
 30
0.0
 40
50.0
  1
V-37KCP6-L
 41
0.9
  0
TEXT
  8
ETC
  6
CONTINUOUS
 62
    61
 10
736.19238357031645
 20
322.93086436595689
 30
0.0
 40
50.0
  1
V-37KCP6-L-BK
 41
0.9
  0
LINE
  8
SIZE
  6
CONTINUOUS
 62
    30
 10
-350.0
 20
20.0
 30
0.0
 11
-350.0
 21
409.87534203587438
 31
0.0
  0
LINE
  8
SIZE
  6
CONTINUOUS
 62
    30
 10
350.0
 20
20.0
 30
0.0
 11
350.0
 21
409.87534203587438
 31
0.0
  0
LINE
  8
SIZE
  6
CONTINUOUS
 62
    30
 10
-338.0
 20
389.87534203587438
 30
0.0
 11
338.0
 21
389.87534203587438
 31
0.0
  0
CIRCLE
  8
SIZE
  6
CONTINUOUS
 62
    30
 10
-350.0
 20
389.87534203587438
 30
0.0
 40
6.0
  0
LINE
  8
SIZE
  6
CONTINUOUS
 62
    30
 10
-350.0
 20
389.87534203587438
 30
0.0
 11
-338.0
 21
389.87534203587438
 31
0.0
  0
CIRCLE
  8
SIZE
  6
CONTINUOUS
 62
    30
 10
350.0
 20
389.87534203587438
 30
0.0
 40
6.0
  0
LINE
  8
SIZE
  6
CONTINUOUS
 62
    30
 10
350.0
 20
389.87534203587438
 30
0.0
 11
338.0
 21
389.87534203587438
 31
0.0
  0
TEXT
  8
SIZE
  6
CONTINUOUS
 62
    30
 10
-74.057142857142864
 20
414.87534203587438
 30
0.0
 40
64.0
  1
700
 41
0.9
 72
     1
 11
0.0
 21
414.87534203587438
 31
0.0
  0
LINE
  8
SIZE
  6
CONTINUOUS
 62
    30
 10
-175.0
 20
36.144262000000033
 30
0.0
 11
-175.0
 21
154.40038870744681
 31
0.0
  0
LINE
  8
SIZE
  6
CONTINUOUS
 62
    30
 10
0.0
 20
110.6439339999999
 30
0.0
 11
0.0
 21
154.40038870744681
 31
0.0
  0
LINE
  8
SIZE
  6
CONTINUOUS
 62
    30
 10
-187.0
 20
134.40038870744681
 30
0.0
 11
-199.0
 21
134.40038870744681
 31
0.0
  0
LINE
  8
SIZE
  6
CONTINUOUS
 62
    30
 10
12.0
 20
134.40038870744681
 30
0.0
 11
24.0
 21
134.40038870744681
 31
0.0
  0
LINE
  8
SIZE
  6
CONTINUOUS
 62
    30
 10
-175.0
 20
134.40038870744681
 30
0.0
 11
0.0
 21
134.40038870744681
 31
0.0
  0
CIRCLE
  8
SIZE
  6
CONTINUOUS
 62
    30
 10
-175.0
 20
134.40038870744681
 30
0.0
 40
6.0
  0
LINE
  8
SIZE
  6
CONTINUOUS
 62
    30
 10
-175.0
 20
134.40038870744681
 30
0.0
 11
-187.0
 21
134.40038870744681
 31
0.0
  0
CIRCLE
  8
SIZE
  6
CONTINUOUS
 62
    30
 10
0.0
 20
134.40038870744681
 30
0.0
 40
6.0
  0
LINE
  8
SIZE
  6
CONTINUOUS
 62
    30
 10
0.0
 20
134.40038870744681
 30
0.0
 11
12.0
 21
134.40038870744681
 31
0.0
  0
TEXT
  8
SIZE
  6
CONTINUOUS
 62
    30
 10
-156.07142857142861
 20
159.40038870744681
 30
0.0
 40
64.0
  1
175
 41
0.9
 72
     1
 11
-87.5
 21
159.40038870744681
 31
0.0
  0
LINE
  8
OUTLINE
  6
CONTINUOUS
 62
     3
 10
262.5
 20
0.0
 30
0.0
 11
262.5
 21
6.0
 31
0.0
  0
LINE
  8
OUTLINE
  6
CONTINUOUS
 62
     3
 10
237.5
 20
0.0
 30
0.0
 11
237.5
 21
6.0
 31
0.0
  0
LINE
  8
OUTLINE
  6
CONTINUOUS
 62
     3
 10
262.5
 20
6.0
 30
0.0
 11
259.5
 21
6.0
 31
0.0
  0
LINE
  8
OUTLINE
  6
CONTINUOUS
 62
     3
 10
259.5
 20
0.0
 30
0.0
 11
259.5
 21
6.0
 31
0.0
  0
LINE
  8
OUTLINE
  6
CONTINUOUS
 62
     3
 10
240.5
 20
0.0
 30
0.0
 11
240.5
 21
6.0
 31
0.0
  0
LINE
  8
OUTLINE
  6
CONTINUOUS
 62
     3
 10
240.5
 20
6.0
 30
0.0
 11
237.5
 21
6.0
 31
0.0
  0
LINE
  8
OUTLINE
  6
CONTINUOUS
 62
     3
 10
-240.49999999999989
 20
6.0
 30
0.0
 11
-237.5
 21
6.0
 31
0.0
  0
LINE
  8
OUTLINE
  6
CONTINUOUS
 62
     3
 10
-240.49999999999989
 20
0.0
 30
0.0
 11
-240.49999999999989
 21
6.0
 31
0.0
  0
LINE
  8
OUTLINE
  6
CONTINUOUS
 62
     3
 10
-259.5
 20
0.0
 30
0.0
 11
-259.5
 21
6.0
 31
0.0
  0
LINE
  8
OUTLINE
  6
CONTINUOUS
 62
     3
 10
-262.5
 20
6.0
 30
0.0
 11
-259.5
 21
6.0
 31
0.0
  0
LINE
  8
OUTLINE
  6
CONTINUOUS
 62
     3
 10
-237.5
 20
0.0
 30
0.0
 11
-237.5
 21
6.0
 31
0.0
  0
LINE
  8
OUTLINE
  6
CONTINUOUS
 62
     3
 10
-262.5
 20
0.0
 30
0.0
 11
-262.5
 21
6.0
 31
0.0
  0
ENDSEC
  0
EOF
